  0
SECTION
  2
HEADER
  9
$ACADVER
  1
AC1009
  9
$INSBASE
 10
0.0
 20
0.0
 30
0.0
  9
$EXTMIN
 10
-40.524000
 20
-373.164000
 30
1.000000E+020
  9
$EXTMAX
 10
445.764000
 20
33.924000
 30
-1.000000E+020
  9
$LIMMIN
 10
0.0
 20
0.0
  9
$LIMMAX
 10
420.0
 20
297.0
  9
$ORTHOMODE
 70
     0
  9
$REGENMODE
 70
     1
  9
$FILLMODE
 70
     1
  9
$QTEXTMODE
 70
     0
  9
$MIRRTEXT
 70
     1
  9
$DRAGMODE
 70
     2
  9
$LTSCALE
 40
1.000000
  9
$OSMODE
 70
   103
  9
$ATTMODE
 70
     1
  9
$TEXTSIZE
 40
2.5
  9
$TRACEWID
 40
1.0
  9
$TEXTSTYLE
  7
STANDARD
  9
$CLAYER
  8
RAHM4
  9
$CELTYPE
  6
BYLAYER
  9
$CECOLOR
 62
   256
  9
$DIMSCALE
 40
1.0
  9
$DIMASZ
 40
2.5
  9
$DIMEXO
 40
0.625
  9
$DIMDLI
 40
3.75
  9
$DIMRND
 40
0.0
  9
$DIMDLE
 40
0.0
  9
$DIMEXE
 40
1.25
  9
$DIMTP
 40
0.0
  9
$DIMTM
 40
0.0
  9
$DIMTXT
 40
2.5
  9
$DIMCEN
 40
2.5
  9
$DIMTSZ
 40
0.0
  9
$DIMTOL
 70
     0
  9
$DIMLIM
 70
     0
  9
$DIMTIH
 70
     0
  9
$DIMTOH
 70
     0
  9
$DIMSE1
 70
     0
  9
$DIMSE2
 70
     0
  9
$DIMTAD
 70
     1
  9
$DIMZIN
 70
     8
  9
$DIMBLK
  1

  9
$DIMASO
 70
     1
  9
$DIMSHO
 70
     1
  9
$DIMPOST
  1

  9
$DIMAPOST
  1

  9
$DIMALT
 70
     0
  9
$DIMALTD
 70
     3
  9
$DIMALTF
 40
0.03937
  9
$DIMLFAC
 40
1.0
  9
$DIMTOFL
 70
     1
  9
$DIMTVP
 40
0.0
  9
$DIMTIX
 70
     0
  9
$DIMSOXD
 70
     0
  9
$DIMSAH
 70
     0
  9
$DIMBLK1
  1

  9
$DIMBLK2
  1

  9
$DIMSTYLE
  2
ISO-25
  9
$DIMCLRD
 70
     0
  9
$DIMCLRE
 70
     0
  9
$DIMCLRT
 70
     0
  9
$DIMTFAC
 40
1.0
  9
$DIMGAP
 40
0.625
  9
$LUNITS
 70
     2
  9
$LUPREC
 70
     4
  9
$SKETCHINC
 40
1.0
  9
$FILLETRAD
 40
10.0
  9
$AUNITS
 70
     0
  9
$AUPREC
 70
     0
  9
$MENU
  1
.
  9
$ELEVATION
 40
0.0
  9
$PELEVATION
 40
0.0
  9
$THICKNESS
 40
0.0
  9
$LIMCHECK
 70
     0
  9
$BLIPMODE
 70
     0
  9
$CHAMFERA
 40
10.0
  9
$CHAMFERB
 40
10.0
  9
$SKPOLY
 70
     0
  9
$TDCREATE
 40
2452830.438142
  9
$TDUPDATE
 40
2453952.51541
  9
$TDINDWG
 40
0.030794
  9
$TDUSRTIMER
 40
0.030789
  9
$USRTIMER
 70
     1
  9
$ANGBASE
 50
0.0
  9
$ANGDIR
 70
     0
  9
$PDMODE
 70
     0
  9
$PDSIZE
 40
0.0
  9
$PLINEWID
 40
0.0
  9
$COORDS
 70
     1
  9
$SPLFRAME
 70
     0
  9
$SPLINETYPE
 70
     6
  9
$SPLINESEGS
 70
     8
  9
$ATTDIA
 70
     0
  9
$ATTREQ
 70
     1
  9
$SURFTAB1
 70
     6
  9
$SURFTAB2
 70
     6
  9
$SURFTYPE
 70
     6
  9
$SURFU
 70
     6
  9
$SURFV
 70
     6
  9
$UCSNAME
  2

  9
$UCSORG
 10
0.0
 20
0.0
 30
0.0
  9
$UCSXDIR
 10
1.0
 20
0.0
 30
0.0
  9
$UCSYDIR
 10
0.0
 20
1.0
 30
0.0
  9
$PUCSNAME
  2

  9
$PUCSORG
 10
0.0
 20
0.0
 30
0.0
  9
$PUCSXDIR
 10
1.0
 20
0.0
 30
0.0
  9
$PUCSYDIR
 10
0.0
 20
1.0
 30
0.0
  9
$USERI1
 70
     0
  9
$USERI2
 70
     0
  9
$USERI3
 70
     0
  9
$USERI4
 70
     0
  9
$USERI5
 70
     0
  9
$USERR1
 40
0.0
  9
$USERR2
 40
0.0
  9
$USERR3
 40
0.0
  9
$USERR4
 40
0.0
  9
$USERR5
 40
0.0
  9
$WORLDVIEW
 70
     1
  9
$SHADEDGE
 70
     3
  9
$SHADEDIF
 70
    70
  9
$TILEMODE
 70
     1
  9
$MAXACTVP
 70
    64
  9
$PLIMCHECK
 70
     0
  9
$PEXTMIN
 10
1.000000E+020
 20
1.000000E+020
 30
1.000000E+020
  9
$PEXTMAX
 10
-1.000000E+020
 20
-1.000000E+020
 30
-1.000000E+020
  9
$PLIMMIN
 10
0.0
 20
0.0
  9
$PLIMMAX
 10
420.0
 20
297.0
  9
$UNITMODE
 70
     0
  9
$VISRETAIN
 70
     1
  9
$PLINEGEN
 70
     0
  9
$PSLTSCALE
 70
     1
  0
ENDSEC
  0
SECTION
  2
TABLES
  0
TABLE
  2
VPORT
 70
     2
  0
VPORT
  2
*ACTIVE
 70
     0
 10
0.0
 20
0.0
 11
1.0
 21
1.0
 12
424.672198
 22
148.5
 13
0.0
 23
0.0
 14
10.0
 24
10.0
 15
10.0
 25
10.0
 16
0.0
 26
0.0
 36
1.0
 17
0.0
 27
0.0
 37
0.0
 40
297.194831
 41
2.858921
 42
50.0
 43
0.0
 44
0.0
 50
0.0
 51
0.0
 71
     0
 72
   100
 73
     1
 74
     3
 75
     0
 76
     0
 77
     0
 78
     0
  0
ENDTAB
  0
TABLE
  2
LTYPE
 70
     5
  0
LTYPE
  2
CONTINUOUS
  70
0
  3
Solid line
 72
65
 73
0
 40
0.0
  0
LTYPE
  2
ACAD_ISO10W100
  70
0
  3
ISO Strichpunktlinie __ . __ . __ . __ . __ . _
 72
65
 73
4
 40
18.0
 49
12.0
 49
-3.0
 49
0.0
 49
-3.0
  0
LTYPE
  2
ACAD_ISO02W100
  70
0
  3
ISO Strichlinie __ __ __ __ __ __ __ __ __ __ _
 72
65
 73
2
 40
15.0
 49
12.0
 49
-3.0
  0
LTYPE
  2
STRICHLINIE
  70
0
  3
Strichlinie __ __ __ __ __ __ __ __ __ __ __ __
 72
65
 73
2
 40
0.75
 49
0.5
 49
-0.25
  0
LTYPE
  2
STRICHPUNKT
  70
0
  3
Strichpunkt __ . __ . __ . __ . __ . __ . __ . 
 72
65
 73
4
 40
1.0
 49
0.5
 49
-0.25
 49
0.0
 49
-0.25
  0
ENDTAB
  0
TABLE
  2
LAYER
 70
    14
  0
LAYER
  2
0
 70
0
 62
7
  6
CONTINUOUS
  0
LAYER
  2
REX_1
 70
0
 62
7
  6
CONTINUOUS
  0
LAYER
  2
REX_7
 70
0
 62
5
  6
STRICHPUNKT
  0
LAYER
  2
SILHOUETTE
 70
0
 62
7
  6
CONTINUOUS
  0
LAYER
  2
REX_8
 70
0
 62
1
  6
CONTINUOUS
  0
LAYER
  2
REX_3
 70
0
 62
6
  6
STRICHLINIE
  0
LAYER
  2
REX_4
 70
0
 62
5
  6
CONTINUOUS
  0
LAYER
  2
REX_5
 70
0
 62
3
  6
CONTINUOUS
  0
LAYER
  2
REX_6
 70
0
 62
40
  6
CONTINUOUS
  0
LAYER
  2
RAHM2
 70
0
 62
7
  6
CONTINUOUS
  0
LAYER
  2
RAHM3
 70
0
 62
7
  6
CONTINUOUS
  0
LAYER
  2
RAHM4
 70
0
 62
7
  6
CONTINUOUS
  0
LAYER
  2
RAHM5
 70
0
 62
7
  6
CONTINUOUS
  0
LAYER
  2
RAHMEN
 70
0
 62
7
  6
CONTINUOUS
  0
ENDTAB
  0
TABLE
  2
STYLE
 70
     3
  0
STYLE
  2
STANDARD
 70
     0
 40
0.0
 41
1.0
 50
0.0
 71
     0
 42
2.5
  3
isocp.shx
  4

  0
STYLE
  2
LOGO
 70
     0
 40
0.0
 41
1.0
 50
0.0
 71
     0
 42
0.2
  3
isocp.shx
  4

  0
STYLE
  2

 70
     1
 40
0.0
 41
1.0
 50
0.0
 71
     0
 42
2.5
  3
ltypeshp.shx
  4

  0
ENDTAB
  0
TABLE
  2
VIEW
 70
     0
  0
ENDTAB
  0
TABLE
  2
UCS
 70
     0
  0
ENDTAB
  0
TABLE
  2
APPID
 70
2
  0
APPID
  2
ACAD
 70
     0
  0
APPID
  2
DCO15
 70
     0
  0
ENDTAB
  0
TABLE
  2
DIMSTYLE
 70
     1
  0
DIMSTYLE
  2
ISO-25
 70
     0
  3

  4

  5

  6

  7

 40
1.0
 41
2.5
 42
0.625
 43
3.75
 44
1.25
 45
0.0
 46
0.0
 47
0.0
 48
0.0
140
2.5
141
2.5
142
0.0
143
0.03937
144
1.0
145
0.0
146
1.0
147
0.625
 71
     0
 72
     0
 73
     0
 74
     0
 75
     0
 76
     0
 77
     1
 78
     8
170
     0
171
     3
172
     1
173
     0
174
     0
175
     0
176
     0
177
     0
178
     0
  0
ENDTAB
  0
ENDSEC
  0
SECTION
  2
BLOCKS
  0
BLOCK
  8
REX_7
  2
4REX_MID_Jan_15_23-12-05
 70
0
 10
0.0000
 20
0.0000
 30
0.0000
  3
4REX_MID_Jan_15_23-12-05
  0
ENDBLK
  8
0
  0
BLOCK
  8
REX_1
  2
_VIEW_4_Jan_15_23-12-05
 70
0
 10
0.0000
 20
0.0000
 30
0.0000
  3
_VIEW_4_Jan_15_23-12-05
  0
INSERT
  8
REX_6
  2
4REX_MID_Jan_15_23-12-05
 10
0.0000
 20
0.0000
 30
0.0000
  0
LINE
  6
continous
  8
BYBLOCK
 10
-2.2459
 20
43.1047
 30
0.0000
 11
-2.2541
 21
43.1000
 31
0.0000
  0
LINE
  6
continous
  8
BYBLOCK
 10
2.2541
 20
43.1000
 30
0.0000
 11
2.2459
 21
43.1047
 31
0.0000
  0
LINE
  6
continous
  8
BYBLOCK
 10
0.8660
 20
43.1523
 30
0.0000
 11
0.8660
 21
43.1000
 31
0.0000
  0
LINE
  6
continous
  8
BYBLOCK
 10
-0.8660
 20
43.1523
 30
0.0000
 11
-0.8660
 21
43.1000
 31
0.0000
  0
LINE
  6
continous
  8
BYBLOCK
 10
1.7321
 20
43.1000
 30
0.0000
 11
0.8660
 21
43.1523
 31
0.0000
  0
LINE
  6
continous
  8
BYBLOCK
 10
0.8660
 20
43.1523
 30
0.0000
 11
-0.8660
 21
43.1523
 31
0.0000
  0
LINE
  6
continous
  8
BYBLOCK
 10
-0.8660
 20
43.1523
 30
0.0000
 11
-1.7321
 21
43.1000
 31
0.0000
  0
POLYLINE
  6
continous
  8
BYBLOCK
 70
0
 66
1
  0
VERTEX
  8
0
 10
-2.2459
 20
43.1047
 30
0.0000
  0
VERTEX
  8
0
 10
-2.2500
 20
43.1000
 30
0.0000
  0
SEQEND
  0
POLYLINE
  6
continous
  8
BYBLOCK
 70
0
 66
1
  0
VERTEX
  8
0
 10
2.2459
 20
43.1047
 30
0.0000
  0
VERTEX
  8
0
 10
2.0163
 20
43.1348
 30
0.0000
  0
VERTEX
  8
0
 10
1.1866
 20
43.1667
 30
0.0000
  0
VERTEX
  8
0
 10
-0.1561
 20
43.1783
 30
0.0000
  0
VERTEX
  8
0
 10
-1.4398
 20
43.1603
 30
0.0000
  0
VERTEX
  8
0
 10
-2.1092
 20
43.1273
 30
0.0000
  0
VERTEX
  8
0
 10
-2.2459
 20
43.1047
 30
0.0000
  0
SEQEND
  0
POLYLINE
  6
continous
  8
BYBLOCK
 70
0
 66
1
  0
VERTEX
  8
0
 10
2.2500
 20
43.1000
 30
0.0000
  0
VERTEX
  8
0
 10
2.2459
 20
43.1047
 30
0.0000
  0
SEQEND
  0
LINE
  6
continous
  8
BYBLOCK
 10
9.8500
 20
-43.1000
 30
0.0000
 11
9.8500
 21
-67.2340
 31
0.0000
  0
LINE
  6
continous
  8
BYBLOCK
 10
9.8500
 20
68.1000
 30
0.0000
 11
9.8500
 21
43.1000
 31
0.0000
  0
LINE
  6
continous
  8
BYBLOCK
 10
9.6025
 20
-67.6626
 30
0.0000
 11
9.8500
 21
-67.2340
 31
0.0000
  0
LINE
  6
continous
  8
BYBLOCK
 10
9.3550
 20
-43.1000
 30
0.0000
 11
9.3550
 21
-67.2340
 31
0.0000
  0
LINE
  6
continous
  8
BYBLOCK
 10
9.3550
 20
68.1000
 30
0.0000
 11
9.3550
 21
43.1000
 31
0.0000
  0
LINE
  6
continous
  8
BYBLOCK
 10
11.5000
 20
-67.2340
 30
0.0000
 11
9.8500
 21
-67.2340
 31
0.0000
  0
LINE
  6
continous
  8
BYBLOCK
 10
11.5000
 20
-43.1000
 30
0.0000
 11
11.5000
 21
-67.2340
 31
0.0000
  0
LINE
  6
continous
  8
BYBLOCK
 10
11.5000
 20
68.1000
 30
0.0000
 11
11.5000
 21
43.1000
 31
0.0000
  0
LINE
  6
continous
  8
BYBLOCK
 10
11.5000
 20
-67.2340
 30
0.0000
 11
11.0000
 21
-68.1000
 31
0.0000
  0
LINE
  6
continous
  8
BYBLOCK
 10
-11.5000
 20
-67.2340
 30
0.0000
 11
-11.0000
 21
-68.1000
 31
0.0000
  0
LINE
  6
continous
  8
BYBLOCK
 10
-11.5000
 20
-43.1000
 30
0.0000
 11
-11.5000
 21
-67.2340
 31
0.0000
  0
LINE
  6
continous
  8
BYBLOCK
 10
-11.5000
 20
68.1000
 30
0.0000
 11
-11.5000
 21
43.1000
 31
0.0000
  0
LINE
  6
continous
  8
BYBLOCK
 10
-9.8500
 20
-67.2340
 30
0.0000
 11
-11.5000
 21
-67.2340
 31
0.0000
  0
LINE
  6
continous
  8
BYBLOCK
 10
-9.8500
 20
-67.2340
 30
0.0000
 11
-9.6025
 21
-67.6626
 31
0.0000
  0
LINE
  6
continous
  8
BYBLOCK
 10
-9.8500
 20
-43.1000
 30
0.0000
 11
-9.8500
 21
-67.2340
 31
0.0000
  0
LINE
  6
continous
  8
BYBLOCK
 10
-9.8500
 20
68.1000
 30
0.0000
 11
-9.8500
 21
43.1000
 31
0.0000
  0
LINE
  6
continous
  8
BYBLOCK
 10
-9.3550
 20
-43.1000
 30
0.0000
 11
-9.3550
 21
-67.2340
 31
0.0000
  0
LINE
  6
continous
  8
BYBLOCK
 10
-9.3550
 20
68.1000
 30
0.0000
 11
-9.3550
 21
43.1000
 31
0.0000
  0
LINE
  6
continous
  8
BYBLOCK
 10
9.3550
 20
-67.2340
 30
0.0000
 11
-9.3550
 21
-67.2340
 31
0.0000
  0
LINE
  6
continous
  8
BYBLOCK
 10
9.3550
 20
-67.2340
 30
0.0000
 11
9.6025
 21
-67.6626
 31
0.0000
  0
LINE
  6
continous
  8
BYBLOCK
 10
9.6025
 20
-67.6626
 30
0.0000
 11
9.3500
 21
-68.1000
 31
0.0000
  0
LINE
  6
continous
  8
BYBLOCK
 10
-9.6025
 20
-67.6626
 30
0.0000
 11
-9.3500
 21
-68.1000
 31
0.0000
  0
LINE
  6
continous
  8
BYBLOCK
 10
-9.6025
 20
-67.6626
 30
0.0000
 11
-9.3550
 21
-67.2340
 31
0.0000
  0
LINE
  6
continous
  8
BYBLOCK
 10
11.0000
 20
-68.1000
 30
0.0000
 11
9.3500
 21
-68.1000
 31
0.0000
  0
LINE
  6
continous
  8
BYBLOCK
 10
-9.3500
 20
-68.1000
 30
0.0000
 11
-11.0000
 21
-68.1000
 31
0.0000
  0
LINE
  6
continous
  8
BYBLOCK
 10
9.3500
 20
-68.1000
 30
0.0000
 11
-9.3500
 21
-68.1000
 31
0.0000
  0
LINE
  6
continous
  8
BYBLOCK
 10
9.8500
 20
68.1000
 30
0.0000
 11
9.3550
 21
68.1000
 31
0.0000
  0
LINE
  6
continous
  8
BYBLOCK
 10
9.3550
 20
68.1000
 30
0.0000
 11
-9.3550
 21
68.1000
 31
0.0000
  0
LINE
  6
continous
  8
BYBLOCK
 10
-9.3550
 20
68.1000
 30
0.0000
 11
-9.8500
 21
68.1000
 31
0.0000
  0
LINE
  6
continous
  8
BYBLOCK
 10
-9.8500
 20
68.1000
 30
0.0000
 11
-11.5000
 21
68.1000
 31
0.0000
  0
LINE
  6
continous
  8
BYBLOCK
 10
11.5000
 20
68.1000
 30
0.0000
 11
9.8500
 21
68.1000
 31
0.0000
  0
LINE
  6
continous
  8
BYBLOCK
 10
-23.4000
 20
38.3500
 30
0.0000
 11
-23.4000
 21
33.8500
 31
0.0000
  0
LINE
  6
continous
  8
BYBLOCK
 10
-23.4000
 20
-33.8500
 30
0.0000
 11
-23.4000
 21
-38.3500
 31
0.0000
  0
ARC
  6
continous
  8
BYBLOCK
 10
0.0000
 20
34.9500
 30
0.0000
 40
3.5000
 50
180.0000
 51
360.0000
  0
ARC
  6
continous
  8
BYBLOCK
 10
0.0000
 20
34.9500
 30
0.0000
 40
3.5000
 50
0.0000
 51
180.0000
  0
LINE
  6
continous
  8
BYBLOCK
 10
6.1500
 20
28.9000
 30
0.0000
 11
6.1500
 21
43.1000
 31
0.0000
  0
LINE
  6
continous
  8
BYBLOCK
 10
6.4000
 20
28.9000
 30
0.0000
 11
6.4000
 21
43.1000
 31
0.0000
  0
LINE
  6
continous
  8
BYBLOCK
 10
23.3330
 20
43.1000
 30
0.0000
 11
23.3330
 21
28.9000
 31
0.0000
  0
LINE
  6
continous
  8
BYBLOCK
 10
23.3330
 20
43.1000
 30
0.0000
 11
23.4000
 21
43.1000
 31
0.0000
  0
LINE
  6
continous
  8
BYBLOCK
 10
23.3330
 20
43.1000
 30
0.0000
 11
6.4000
 21
43.1000
 31
0.0000
  0
LINE
  6
continous
  8
BYBLOCK
 10
6.4000
 20
43.1000
 30
0.0000
 11
6.1500
 21
43.1000
 31
0.0000
  0
LINE
  6
continous
  8
BYBLOCK
 10
-6.1500
 20
43.1000
 30
0.0000
 11
6.1500
 21
43.1000
 31
0.0000
  0
LINE
  6
continous
  8
BYBLOCK
 10
23.4000
 20
43.1000
 30
0.0000
 11
23.4000
 21
28.9000
 31
0.0000
  0
LINE
  6
continous
  8
BYBLOCK
 10
-23.4000
 20
43.1000
 30
0.0000
 11
-23.4000
 21
28.9000
 31
0.0000
  0
LINE
  6
continous
  8
BYBLOCK
 10
-23.4000
 20
43.1000
 30
0.0000
 11
-23.3330
 21
43.1000
 31
0.0000
  0
LINE
  6
continous
  8
BYBLOCK
 10
-23.3330
 20
43.1000
 30
0.0000
 11
-23.3330
 21
28.9000
 31
0.0000
  0
LINE
  6
continous
  8
BYBLOCK
 10
-23.3330
 20
43.1000
 30
0.0000
 11
-6.4000
 21
43.1000
 31
0.0000
  0
LINE
  6
continous
  8
BYBLOCK
 10
-6.4000
 20
28.9000
 30
0.0000
 11
-6.4000
 21
43.1000
 31
0.0000
  0
LINE
  6
continous
  8
BYBLOCK
 10
-6.1500
 20
43.1000
 30
0.0000
 11
-6.4000
 21
43.1000
 31
0.0000
  0
LINE
  6
continous
  8
BYBLOCK
 10
-6.1500
 20
28.9000
 30
0.0000
 11
-6.1500
 21
43.1000
 31
0.0000
  0
LINE
  6
continous
  8
BYBLOCK
 10
-20.6500
 20
-43.1000
 30
0.0000
 11
-17.6500
 21
-43.1000
 31
0.0000
  0
LINE
  6
continous
  8
BYBLOCK
 10
-17.6500
 20
-43.1000
 30
0.0000
 11
-20.6500
 21
-43.1000
 31
0.0000
  0
LINE
  6
continous
  8
BYBLOCK
 10
17.6500
 20
-43.1000
 30
0.0000
 11
20.6500
 21
-43.1000
 31
0.0000
  0
LINE
  6
continous
  8
BYBLOCK
 10
20.6500
 20
-43.1000
 30
0.0000
 11
17.6500
 21
-43.1000
 31
0.0000
  0
ARC
  6
continous
  8
BYBLOCK
 10
0.0000
 20
-34.9500
 30
0.0000
 40
3.5000
 50
0.0000
 51
180.0000
  0
ARC
  6
continous
  8
BYBLOCK
 10
0.0000
 20
-34.9500
 30
0.0000
 40
3.5000
 50
180.0000
 51
360.0000
  0
LINE
  6
continous
  8
BYBLOCK
 10
-6.1500
 20
-28.9000
 30
0.0000
 11
-6.1500
 21
-43.1000
 31
0.0000
  0
LINE
  6
continous
  8
BYBLOCK
 10
-6.4000
 20
-28.9000
 30
0.0000
 11
-6.4000
 21
-43.1000
 31
0.0000
  0
LINE
  6
continous
  8
BYBLOCK
 10
-23.3330
 20
-43.1000
 30
0.0000
 11
-23.3330
 21
-28.9000
 31
0.0000
  0
LINE
  6
continous
  8
BYBLOCK
 10
-23.3330
 20
-43.1000
 30
0.0000
 11
-23.4000
 21
-43.1000
 31
0.0000
  0
LINE
  6
continous
  8
BYBLOCK
 10
-23.3330
 20
-43.1000
 30
0.0000
 11
-6.4000
 21
-43.1000
 31
0.0000
  0
LINE
  6
continous
  8
BYBLOCK
 10
-6.4000
 20
-43.1000
 30
0.0000
 11
-6.1500
 21
-43.1000
 31
0.0000
  0
LINE
  6
continous
  8
BYBLOCK
 10
6.1500
 20
-43.1000
 30
0.0000
 11
-6.1500
 21
-43.1000
 31
0.0000
  0
LINE
  6
continous
  8
BYBLOCK
 10
-23.4000
 20
-43.1000
 30
0.0000
 11
-23.4000
 21
-28.9000
 31
0.0000
  0
LINE
  6
continous
  8
BYBLOCK
 10
23.4000
 20
-43.1000
 30
0.0000
 11
23.4000
 21
-28.9000
 31
0.0000
  0
LINE
  6
continous
  8
BYBLOCK
 10
23.4000
 20
-43.1000
 30
0.0000
 11
23.3330
 21
-43.1000
 31
0.0000
  0
LINE
  6
continous
  8
BYBLOCK
 10
23.3330
 20
-43.1000
 30
0.0000
 11
23.3330
 21
-28.9000
 31
0.0000
  0
LINE
  6
continous
  8
BYBLOCK
 10
23.3330
 20
-43.1000
 30
0.0000
 11
6.4000
 21
-43.1000
 31
0.0000
  0
LINE
  6
continous
  8
BYBLOCK
 10
6.4000
 20
-28.9000
 30
0.0000
 11
6.4000
 21
-43.1000
 31
0.0000
  0
LINE
  6
continous
  8
BYBLOCK
 10
6.1500
 20
-43.1000
 30
0.0000
 11
6.4000
 21
-43.1000
 31
0.0000
  0
LINE
  6
continous
  8
BYBLOCK
 10
6.1500
 20
-28.9000
 30
0.0000
 11
6.1500
 21
-43.1000
 31
0.0000
  0
LINE
  6
continous
  8
BYBLOCK
 10
6.1500
 20
-28.9000
 30
0.0000
 11
-6.1500
 21
-28.9000
 31
0.0000
  0
LINE
  6
continous
  8
BYBLOCK
 10
-6.4000
 20
-28.9000
 30
0.0000
 11
-6.1500
 21
-28.9000
 31
0.0000
  0
LINE
  6
continous
  8
BYBLOCK
 10
-23.3330
 20
-28.9000
 30
0.0000
 11
-6.4000
 21
-28.9000
 31
0.0000
  0
LINE
  6
continous
  8
BYBLOCK
 10
-23.4000
 20
-28.9000
 30
0.0000
 11
-23.3330
 21
-28.9000
 31
0.0000
  0
LINE
  6
continous
  8
BYBLOCK
 10
23.3330
 20
-28.9000
 30
0.0000
 11
23.4000
 21
-28.9000
 31
0.0000
  0
LINE
  6
continous
  8
BYBLOCK
 10
23.3330
 20
-28.9000
 30
0.0000
 11
6.4000
 21
-28.9000
 31
0.0000
  0
LINE
  6
continous
  8
BYBLOCK
 10
6.1500
 20
-28.9000
 30
0.0000
 11
6.4000
 21
-28.9000
 31
0.0000
  0
ARC
  6
continous
  8
BYBLOCK
 10
-17.5000
 20
17.5000
 30
0.0000
 40
3.0000
 50
180.0000
 51
360.0000
  0
ARC
  6
continous
  8
BYBLOCK
 10
-17.5000
 20
17.5000
 30
0.0000
 40
3.0000
 50
0.0000
 51
180.0000
  0
ARC
  6
continous
  8
BYBLOCK
 10
-17.5000
 20
17.5000
 30
0.0000
 40
2.6500
 50
0.0000
 51
180.0000
  0
ARC
  6
continous
  8
BYBLOCK
 10
-17.5000
 20
-17.5000
 30
0.0000
 40
3.0000
 50
180.0000
 51
360.0000
  0
ARC
  6
continous
  8
BYBLOCK
 10
-17.5000
 20
-17.5000
 30
0.0000
 40
3.0000
 50
0.0000
 51
180.0000
  0
ARC
  6
continous
  8
BYBLOCK
 10
-17.5000
 20
-17.5000
 30
0.0000
 40
2.6500
 50
0.0000
 51
180.0000
  0
ARC
  6
continous
  8
BYBLOCK
 10
17.5000
 20
17.5000
 30
0.0000
 40
3.0000
 50
180.0000
 51
360.0000
  0
ARC
  6
continous
  8
BYBLOCK
 10
17.5000
 20
17.5000
 30
0.0000
 40
3.0000
 50
0.0000
 51
180.0000
  0
ARC
  6
continous
  8
BYBLOCK
 10
17.5000
 20
17.5000
 30
0.0000
 40
2.6500
 50
0.0000
 51
180.0000
  0
ARC
  6
continous
  8
BYBLOCK
 10
17.5000
 20
-17.5000
 30
0.0000
 40
3.0000
 50
180.0000
 51
360.0000
  0
ARC
  6
continous
  8
BYBLOCK
 10
17.5000
 20
-17.5000
 30
0.0000
 40
3.0000
 50
0.0000
 51
180.0000
  0
ARC
  6
continous
  8
BYBLOCK
 10
17.5000
 20
-17.5000
 30
0.0000
 40
2.6500
 50
0.0000
 51
180.0000
  0
LINE
  6
continous
  8
BYBLOCK
 10
-17.5000
 20
17.5000
 30
0.0000
 11
-14.8500
 21
17.5000
 31
0.0000
  0
LINE
  6
continous
  8
BYBLOCK
 10
-17.5000
 20
17.5000
 30
0.0000
 11
-20.1500
 21
17.5000
 31
0.0000
  0
ARC
  6
continous
  8
BYBLOCK
 10
-17.5000
 20
17.5000
 30
0.0000
 40
2.6500
 50
0.0000
 51
180.0000
  0
ARC
  6
continous
  8
BYBLOCK
 10
-17.5000
 20
17.5000
 30
0.0000
 40
2.6500
 50
180.0000
 51
360.0000
  0
LINE
  6
continous
  8
BYBLOCK
 10
-14.8500
 20
17.5000
 30
0.0000
 11
-14.3500
 21
17.5000
 31
0.0000
  0
LINE
  6
continous
  8
BYBLOCK
 10
-20.1500
 20
17.5000
 30
0.0000
 11
-20.6500
 21
17.5000
 31
0.0000
  0
LINE
  6
continous
  8
BYBLOCK
 10
17.5000
 20
17.5000
 30
0.0000
 11
20.1500
 21
17.5000
 31
0.0000
  0
LINE
  6
continous
  8
BYBLOCK
 10
17.5000
 20
17.5000
 30
0.0000
 11
14.8500
 21
17.5000
 31
0.0000
  0
ARC
  6
continous
  8
BYBLOCK
 10
17.5000
 20
17.5000
 30
0.0000
 40
2.6500
 50
0.0000
 51
180.0000
  0
ARC
  6
continous
  8
BYBLOCK
 10
17.5000
 20
17.5000
 30
0.0000
 40
2.6500
 50
180.0000
 51
360.0000
  0
LINE
  6
continous
  8
BYBLOCK
 10
20.1500
 20
17.5000
 30
0.0000
 11
20.6500
 21
17.5000
 31
0.0000
  0
LINE
  6
continous
  8
BYBLOCK
 10
14.8500
 20
17.5000
 30
0.0000
 11
14.3500
 21
17.5000
 31
0.0000
  0
LINE
  6
continous
  8
BYBLOCK
 10
-17.5000
 20
-17.5000
 30
0.0000
 11
-14.8500
 21
-17.5000
 31
0.0000
  0
LINE
  6
continous
  8
BYBLOCK
 10
-17.5000
 20
-17.5000
 30
0.0000
 11
-20.1500
 21
-17.5000
 31
0.0000
  0
ARC
  6
continous
  8
BYBLOCK
 10
-17.5000
 20
-17.5000
 30
0.0000
 40
2.6500
 50
0.0000
 51
180.0000
  0
ARC
  6
continous
  8
BYBLOCK
 10
-17.5000
 20
-17.5000
 30
0.0000
 40
2.6500
 50
180.0000
 51
360.0000
  0
LINE
  6
continous
  8
BYBLOCK
 10
-14.8500
 20
-17.5000
 30
0.0000
 11
-14.3500
 21
-17.5000
 31
0.0000
  0
LINE
  6
continous
  8
BYBLOCK
 10
-20.1500
 20
-17.5000
 30
0.0000
 11
-20.6500
 21
-17.5000
 31
0.0000
  0
LINE
  6
continous
  8
BYBLOCK
 10
17.5000
 20
-17.5000
 30
0.0000
 11
20.1500
 21
-17.5000
 31
0.0000
  0
LINE
  6
continous
  8
BYBLOCK
 10
17.5000
 20
-17.5000
 30
0.0000
 11
14.8500
 21
-17.5000
 31
0.0000
  0
ARC
  6
continous
  8
BYBLOCK
 10
17.5000
 20
-17.5000
 30
0.0000
 40
2.6500
 50
0.0000
 51
180.0000
  0
LINE
  6
continous
  8
BYBLOCK
 10
14.8500
 20
-17.5000
 30
0.0000
 11
14.3500
 21
-17.5000
 31
0.0000
  0
ARC
  6
continous
  8
BYBLOCK
 10
17.5000
 20
-17.5000
 30
0.0000
 40
2.6500
 50
180.0000
 51
360.0000
  0
LINE
  6
continous
  8
BYBLOCK
 10
20.1500
 20
-17.5000
 30
0.0000
 11
20.6500
 21
-17.5000
 31
0.0000
  0
LINE
  6
continous
  8
BYBLOCK
 10
-24.0000
 20
-28.9000
 30
0.0000
 11
-24.0000
 21
28.9000
 31
0.0000
  0
ARC
  6
continous
  8
BYBLOCK
 10
-17.5000
 20
17.5000
 30
0.0000
 40
3.1500
 50
0.0000
 51
180.0000
  0
ARC
  6
continous
  8
BYBLOCK
 10
-17.5000
 20
17.5000
 30
0.0000
 40
3.1500
 50
180.0000
 51
360.0000
  0
ARC
  6
continous
  8
BYBLOCK
 10
17.5000
 20
17.5000
 30
0.0000
 40
3.1500
 50
0.0000
 51
180.0000
  0
ARC
  6
continous
  8
BYBLOCK
 10
17.5000
 20
17.5000
 30
0.0000
 40
3.1500
 50
180.0000
 51
360.0000
  0
ARC
  6
continous
  8
BYBLOCK
 10
-17.5000
 20
-17.5000
 30
0.0000
 40
3.1500
 50
0.0000
 51
180.0000
  0
ARC
  6
continous
  8
BYBLOCK
 10
-17.5000
 20
-17.5000
 30
0.0000
 40
3.1500
 50
180.0000
 51
360.0000
  0
ARC
  6
continous
  8
BYBLOCK
 10
17.5000
 20
-17.5000
 30
0.0000
 40
3.1500
 50
0.0000
 51
180.0000
  0
ARC
  6
continous
  8
BYBLOCK
 10
17.5000
 20
-17.5000
 30
0.0000
 40
3.1500
 50
180.0000
 51
360.0000
  0
LINE
  6
continous
  8
BYBLOCK
 10
-23.0000
 20
-28.9000
 30
0.0000
 11
-23.0000
 21
28.9000
 31
0.0000
  0
LINE
  6
continous
  8
BYBLOCK
 10
23.0000
 20
-28.9000
 30
0.0000
 11
23.0000
 21
28.9000
 31
0.0000
  0
LINE
  6
continous
  8
BYBLOCK
 10
24.0000
 20
-28.9000
 30
0.0000
 11
24.0000
 21
28.9000
 31
0.0000
  0
LINE
  6
continous
  8
BYBLOCK
 10
23.0000
 20
28.9000
 30
0.0000
 11
24.0000
 21
28.9000
 31
0.0000
  0
LINE
  6
continous
  8
BYBLOCK
 10
-23.0000
 20
28.9000
 30
0.0000
 11
23.0000
 21
28.9000
 31
0.0000
  0
LINE
  6
continous
  8
BYBLOCK
 10
-24.0000
 20
28.9000
 30
0.0000
 11
-23.0000
 21
28.9000
 31
0.0000
  0
LINE
  6
continous
  8
BYBLOCK
 10
-24.0000
 20
-28.9000
 30
0.0000
 11
-23.0000
 21
-28.9000
 31
0.0000
  0
LINE
  6
continous
  8
BYBLOCK
 10
-23.0000
 20
-28.9000
 30
0.0000
 11
23.0000
 21
-28.9000
 31
0.0000
  0
LINE
  6
continous
  8
BYBLOCK
 10
23.0000
 20
-28.9000
 30
0.0000
 11
24.0000
 21
-28.9000
 31
0.0000
  0
ENDBLK
  8
0
  0
BLOCK
  8
REX_7
  2
6REX_MID_Jan_15_23-12-05
 70
0
 10
0.0000
 20
0.0000
 30
0.0000
  3
6REX_MID_Jan_15_23-12-05
  0
ENDBLK
  8
0
  0
BLOCK
  8
REX_1
  2
_VIEW_6_Jan_15_23-12-05
 70
0
 10
0.0000
 20
0.0000
 30
0.0000
  3
_VIEW_6_Jan_15_23-12-05
  0
INSERT
  8
REX_6
  2
6REX_MID_Jan_15_23-12-05
 10
0.0000
 20
0.0000
 30
0.0000
  0
POLYLINE
  6
continous
  8
BYBLOCK
 70
0
 66
1
  0
VERTEX
  8
0
 10
2.4000
 20
30.4970
 30
0.0000
  0
VERTEX
  8
0
 10
2.3559
 20
30.0393
 30
0.0000
  0
VERTEX
  8
0
 10
2.2252
 20
29.5985
 30
0.0000
  0
VERTEX
  8
0
 10
2.0128
 20
29.1906
 30
0.0000
  0
VERTEX
  8
0
 10
1.7264
 20
28.8308
 30
0.0000
  0
VERTEX
  8
0
 10
1.3766
 20
28.5322
 30
0.0000
  0
VERTEX
  8
0
 10
0.9762
 20
28.3058
 30
0.0000
  0
VERTEX
  8
0
 10
0.5399
 20
28.1599
 30
0.0000
  0
VERTEX
  8
0
 10
0.0838
 20
28.0999
 30
0.0000
  0
VERTEX
  8
0
 10
-0.3754
 20
28.1280
 30
0.0000
  0
VERTEX
  8
0
 10
-0.8208
 20
28.2431
 30
0.0000
  0
VERTEX
  8
0
 10
-1.2361
 20
28.4410
 30
0.0000
  0
VERTEX
  8
0
 10
-1.6059
 20
28.7145
 30
0.0000
  0
VERTEX
  8
0
 10
-1.9167
 20
29.0535
 30
0.0000
  0
VERTEX
  8
0
 10
-2.1571
 20
29.4455
 30
0.0000
  0
VERTEX
  8
0
 10
-2.3182
 20
29.8762
 30
0.0000
  0
VERTEX
  8
0
 10
-2.3942
 20
30.3297
 30
0.0000
  0
VERTEX
  8
0
 10
-2.4000
 20
30.4970
 30
0.0000
  0
SEQEND
  0
POLYLINE
  6
continous
  8
BYBLOCK
 70
0
 66
1
  0
VERTEX
  8
0
 10
-2.4000
 20
30.4970
 30
0.0000
  0
VERTEX
  8
0
 10
-2.3559
 20
30.9546
 30
0.0000
  0
VERTEX
  8
0
 10
-2.2252
 20
31.3955
 30
0.0000
  0
VERTEX
  8
0
 10
-2.0128
 20
31.8033
 30
0.0000
  0
VERTEX
  8
0
 10
-1.7264
 20
32.1631
 30
0.0000
  0
VERTEX
  8
0
 10
-1.3766
 20
32.4617
 30
0.0000
  0
VERTEX
  8
0
 10
-0.9762
 20
32.6882
 30
0.0000
  0
VERTEX
  8
0
 10
-0.5399
 20
32.8340
 30
0.0000
  0
VERTEX
  8
0
 10
-0.0838
 20
32.8941
 30
0.0000
  0
VERTEX
  8
0
 10
0.3754
 20
32.8660
 30
0.0000
  0
VERTEX
  8
0
 10
0.8208
 20
32.7509
 30
0.0000
  0
VERTEX
  8
0
 10
1.2361
 20
32.5529
 30
0.0000
  0
VERTEX
  8
0
 10
1.6059
 20
32.2794
 30
0.0000
  0
VERTEX
  8
0
 10
1.9167
 20
31.9405
 30
0.0000
  0
VERTEX
  8
0
 10
2.1571
 20
31.5484
 30
0.0000
  0
VERTEX
  8
0
 10
2.3182
 20
31.1178
 30
0.0000
  0
VERTEX
  8
0
 10
2.3942
 20
30.6643
 30
0.0000
  0
VERTEX
  8
0
 10
2.4000
 20
30.4970
 30
0.0000
  0
SEQEND
  0
LINE
  6
continous
  8
BYBLOCK
 10
-0.8660
 20
31.9991
 30
0.0000
 11
-0.8660
 21
31.9293
 31
0.0000
  0
LINE
  6
continous
  8
BYBLOCK
 10
0.8660
 20
31.9991
 30
0.0000
 11
0.8660
 21
31.9293
 31
0.0000
  0
LINE
  6
continous
  8
BYBLOCK
 10
0.8660
 20
31.9991
 30
0.0000
 11
-0.8660
 21
31.9991
 31
0.0000
  0
LINE
  6
continous
  8
BYBLOCK
 10
-0.8660
 20
31.9991
 30
0.0000
 11
-1.7321
 21
30.5000
 31
0.0000
  0
LINE
  6
continous
  8
BYBLOCK
 10
-1.7321
 20
30.5000
 30
0.0000
 11
-0.8660
 21
29.0009
 31
0.0000
  0
LINE
  6
continous
  8
BYBLOCK
 10
-0.8660
 20
29.0009
 30
0.0000
 11
0.8660
 21
29.0009
 31
0.0000
  0
LINE
  6
continous
  8
BYBLOCK
 10
0.8660
 20
29.0009
 30
0.0000
 11
1.7321
 21
30.5000
 31
0.0000
  0
LINE
  6
continous
  8
BYBLOCK
 10
1.7321
 20
30.5000
 30
0.0000
 11
0.8660
 21
31.9991
 31
0.0000
  0
POLYLINE
  6
continous
  8
BYBLOCK
 70
0
 66
1
  0
VERTEX
  8
0
 10
-2.2500
 20
30.5000
 30
0.0000
  0
VERTEX
  8
0
 10
-2.2008
 20
30.9675
 30
0.0000
  0
VERTEX
  8
0
 10
-2.0555
 20
31.4146
 30
0.0000
  0
VERTEX
  8
0
 10
-1.8203
 20
31.8217
 30
0.0000
  0
VERTEX
  8
0
 10
-1.5055
 20
32.1711
 30
0.0000
  0
VERTEX
  8
0
 10
-1.1250
 20
32.4474
 30
0.0000
  0
VERTEX
  8
0
 10
-0.6953
 20
32.6386
 30
0.0000
  0
VERTEX
  8
0
 10
-0.2352
 20
32.7363
 30
0.0000
  0
VERTEX
  8
0
 10
0.2352
 20
32.7363
 30
0.0000
  0
VERTEX
  8
0
 10
0.6953
 20
32.6386
 30
0.0000
  0
VERTEX
  8
0
 10
1.1250
 20
32.4474
 30
0.0000
  0
VERTEX
  8
0
 10
1.5055
 20
32.1711
 30
0.0000
  0
VERTEX
  8
0
 10
1.8203
 20
31.8217
 30
0.0000
  0
VERTEX
  8
0
 10
2.0555
 20
31.4146
 30
0.0000
  0
VERTEX
  8
0
 10
2.2008
 20
30.9675
 30
0.0000
  0
VERTEX
  8
0
 10
2.2500
 20
30.5000
 30
0.0000
  0
SEQEND
  0
POLYLINE
  6
continous
  8
BYBLOCK
 70
0
 66
1
  0
VERTEX
  8
0
 10
-2.2500
 20
30.5000
 30
0.0000
  0
VERTEX
  8
0
 10
-2.2008
 20
30.0325
 30
0.0000
  0
VERTEX
  8
0
 10
-2.0555
 20
29.5854
 30
0.0000
  0
VERTEX
  8
0
 10
-1.8203
 20
29.1783
 30
0.0000
  0
VERTEX
  8
0
 10
-1.5055
 20
28.8289
 30
0.0000
  0
VERTEX
  8
0
 10
-1.1250
 20
28.5526
 30
0.0000
  0
VERTEX
  8
0
 10
-0.6953
 20
28.3614
 30
0.0000
  0
VERTEX
  8
0
 10
-0.2352
 20
28.2637
 30
0.0000
  0
VERTEX
  8
0
 10
0.2352
 20
28.2637
 30
0.0000
  0
VERTEX
  8
0
 10
0.6953
 20
28.3614
 30
0.0000
  0
VERTEX
  8
0
 10
1.1250
 20
28.5526
 30
0.0000
  0
VERTEX
  8
0
 10
1.5055
 20
28.8289
 30
0.0000
  0
VERTEX
  8
0
 10
1.8203
 20
29.1783
 30
0.0000
  0
VERTEX
  8
0
 10
2.0555
 20
29.5854
 30
0.0000
  0
VERTEX
  8
0
 10
2.2008
 20
30.0325
 30
0.0000
  0
VERTEX
  8
0
 10
2.2500
 20
30.5000
 30
0.0000
  0
SEQEND
  0
LINE
  6
continous
  8
BYBLOCK
 10
2.9978
 20
30.4849
 30
0.0000
 11
2.2500
 21
30.5000
 31
0.0000
  0
LINE
  6
continous
  8
BYBLOCK
 10
-2.9978
 20
30.4849
 30
0.0000
 11
-2.2500
 21
30.5000
 31
0.0000
  0
POLYLINE
  6
continous
  8
BYBLOCK
 70
0
 66
1
  0
VERTEX
  8
0
 10
-2.9994
 20
30.5424
 30
0.0000
  0
VERTEX
  8
0
 10
-2.9440
 20
31.0615
 30
0.0000
  0
VERTEX
  8
0
 10
-2.7993
 20
31.5631
 30
0.0000
  0
VERTEX
  8
0
 10
-2.5697
 20
32.0320
 30
0.0000
  0
VERTEX
  8
0
 10
-2.2622
 20
32.4540
 30
0.0000
  0
VERTEX
  8
0
 10
-1.8862
 20
32.8163
 30
0.0000
  0
VERTEX
  8
0
 10
-1.4529
 20
33.1080
 30
0.0000
  0
VERTEX
  8
0
 10
-0.9756
 20
33.3201
 30
0.0000
  0
VERTEX
  8
0
 10
-0.4688
 20
33.4462
 30
0.0000
  0
VERTEX
  8
0
 10
0.0523
 20
33.4826
 30
0.0000
  0
VERTEX
  8
0
 10
0.5718
 20
33.4281
 30
0.0000
  0
VERTEX
  8
0
 10
1.0740
 20
33.2844
 30
0.0000
  0
VERTEX
  8
0
 10
1.5436
 20
33.0558
 30
0.0000
  0
VERTEX
  8
0
 10
1.9664
 20
32.7492
 30
0.0000
  0
VERTEX
  8
0
 10
2.3296
 20
32.3740
 30
0.0000
  0
VERTEX
  8
0
 10
2.6221
 20
31.9416
 30
0.0000
  0
VERTEX
  8
0
 10
2.8352
 20
31.4649
 30
0.0000
  0
VERTEX
  8
0
 10
2.9623
 20
30.9586
 30
0.0000
  0
VERTEX
  8
0
 10
2.9994
 20
30.5424
 30
0.0000
  0
SEQEND
  0
LINE
  6
continous
  8
BYBLOCK
 10
-0.8660
 20
31.9293
 30
0.0000
 11
-1.7119
 21
30.4651
 31
0.0000
  0
LINE
  6
continous
  8
BYBLOCK
 10
0.8660
 20
31.9293
 30
0.0000
 11
-0.8660
 21
31.9293
 31
0.0000
  0
LINE
  6
continous
  8
BYBLOCK
 10
1.7119
 20
30.4651
 30
0.0000
 11
0.8660
 21
31.9293
 31
0.0000
  0
LINE
  6
continous
  8
BYBLOCK
 10
-6.9000
 20
18.4500
 30
0.0000
 11
-7.8966
 21
19.0254
 31
0.0000
  0
ARC
  6
continous
  8
BYBLOCK
 10
-10.3000
 20
18.5500
 30
0.0000
 40
2.4500
 50
11.1878
 51
79.4162
  0
LINE
  6
continous
  8
BYBLOCK
 10
-9.8500
 20
20.9583
 30
0.0000
 11
-9.8500
 21
23.7550
 31
0.0000
  0
LINE
  6
continous
  8
BYBLOCK
 10
-9.8500
 20
23.7550
 30
0.0000
 11
-9.3550
 21
24.2500
 31
0.0000
  0
LINE
  6
continous
  8
BYBLOCK
 10
-9.3550
 20
24.2500
 30
0.0000
 11
9.3550
 21
24.2500
 31
0.0000
  0
LINE
  6
continous
  8
BYBLOCK
 10
9.3550
 20
24.2500
 30
0.0000
 11
9.8500
 21
23.7550
 31
0.0000
  0
LINE
  6
continous
  8
BYBLOCK
 10
9.8500
 20
23.7550
 30
0.0000
 11
9.8500
 21
20.9583
 31
0.0000
  0
ARC
  6
continous
  8
BYBLOCK
 10
10.3000
 20
18.5500
 30
0.0000
 40
2.4500
 50
100.5838
 51
168.8122
  0
LINE
  6
continous
  8
BYBLOCK
 10
7.8966
 20
19.0254
 30
0.0000
 11
6.9000
 21
18.4500
 31
0.0000
  0
LINE
  6
continous
  8
BYBLOCK
 10
6.9000
 20
18.4500
 30
0.0000
 11
6.9000
 21
10.7500
 31
0.0000
  0
LINE
  6
continous
  8
BYBLOCK
 10
6.9000
 20
10.7500
 30
0.0000
 11
7.8966
 21
10.1746
 31
0.0000
  0
ARC
  6
continous
  8
BYBLOCK
 10
10.3000
 20
10.6500
 30
0.0000
 40
2.4500
 50
191.1878
 51
259.4162
  0
LINE
  6
continous
  8
BYBLOCK
 10
9.8500
 20
8.2417
 30
0.0000
 11
9.8500
 21
5.9000
 31
0.0000
  0
LINE
  6
continous
  8
BYBLOCK
 10
9.8500
 20
5.9000
 30
0.0000
 11
11.5000
 21
4.9474
 31
0.0000
  0
LINE
  6
continous
  8
BYBLOCK
 10
11.5000
 20
4.9474
 30
0.0000
 11
11.5000
 21
1.2000
 31
0.0000
  0
LINE
  6
continous
  8
BYBLOCK
 10
11.5000
 20
1.2000
 30
0.0000
 11
10.3000
 21
0.0000
 31
0.0000
  0
LINE
  6
continous
  8
BYBLOCK
 10
10.3000
 20
0.0000
 30
0.0000
 11
-10.3000
 21
0.0000
 31
0.0000
  0
LINE
  6
continous
  8
BYBLOCK
 10
-10.3000
 20
0.0000
 30
0.0000
 11
-11.5000
 21
1.2000
 31
0.0000
  0
LINE
  6
continous
  8
BYBLOCK
 10
-11.5000
 20
1.2000
 30
0.0000
 11
-11.5000
 21
4.9474
 31
0.0000
  0
LINE
  6
continous
  8
BYBLOCK
 10
-11.5000
 20
4.9474
 30
0.0000
 11
-9.8500
 21
5.9000
 31
0.0000
  0
LINE
  6
continous
  8
BYBLOCK
 10
-9.8500
 20
5.9000
 30
0.0000
 11
-9.8500
 21
8.2417
 31
0.0000
  0
ARC
  6
continous
  8
BYBLOCK
 10
-10.3000
 20
10.6500
 30
0.0000
 40
2.4500
 50
280.5838
 51
348.8122
  0
LINE
  6
continous
  8
BYBLOCK
 10
-7.8966
 20
10.1746
 30
0.0000
 11
-6.9000
 21
10.7500
 31
0.0000
  0
LINE
  6
continous
  8
BYBLOCK
 10
-6.9000
 20
10.7500
 30
0.0000
 11
-6.9000
 21
18.4500
 31
0.0000
  0
LINE
  6
continous
  8
BYBLOCK
 10
-23.3134
 20
30.5000
 30
0.0000
 11
-23.3134
 21
28.1000
 31
0.0000
  0
LINE
  6
continous
  8
BYBLOCK
 10
-23.2000
 20
30.5000
 30
0.0000
 11
-23.3134
 21
30.5000
 31
0.0000
  0
LINE
  6
continous
  8
BYBLOCK
 10
-23.3134
 20
30.5000
 30
0.0000
 11
-23.2000
 21
30.5000
 31
0.0000
  0
LINE
  6
continous
  8
BYBLOCK
 10
-23.3134
 20
32.9000
 30
0.0000
 11
-23.3134
 21
30.5000
 31
0.0000
  0
LINE
  6
continous
  8
BYBLOCK
 10
-23.2000
 20
33.0964
 30
0.0000
 11
-23.4000
 21
32.7500
 31
0.0000
  0
LINE
  6
continous
  8
BYBLOCK
 10
-23.4000
 20
28.2500
 30
0.0000
 11
-23.2000
 21
27.9036
 31
0.0000
  0
LINE
  6
continous
  8
BYBLOCK
 10
-23.4000
 20
32.7500
 30
0.0000
 11
-23.4000
 21
30.5000
 31
0.0000
  0
LINE
  6
continous
  8
BYBLOCK
 10
-23.4000
 20
28.2500
 30
0.0000
 11
-23.4000
 21
30.5000
 31
0.0000
  0
LINE
  6
continous
  8
BYBLOCK
 10
-23.2000
 20
30.5000
 30
0.0000
 11
-23.4000
 21
30.5000
 31
0.0000
  0
LINE
  6
continous
  8
BYBLOCK
 10
23.3134
 20
28.1000
 30
0.0000
 11
23.3134
 21
30.5000
 31
0.0000
  0
LINE
  6
continous
  8
BYBLOCK
 10
23.3134
 20
30.5000
 30
0.0000
 11
23.2000
 21
30.5000
 31
0.0000
  0
LINE
  6
continous
  8
BYBLOCK
 10
23.3134
 20
30.5000
 30
0.0000
 11
23.3134
 21
32.9000
 31
0.0000
  0
LINE
  6
continous
  8
BYBLOCK
 10
23.2000
 20
30.5000
 30
0.0000
 11
23.3134
 21
30.5000
 31
0.0000
  0
LINE
  6
continous
  8
BYBLOCK
 10
23.4000
 20
32.7500
 30
0.0000
 11
23.2000
 21
33.0964
 31
0.0000
  0
LINE
  6
continous
  8
BYBLOCK
 10
23.2000
 20
27.9036
 30
0.0000
 11
23.4000
 21
28.2500
 31
0.0000
  0
LINE
  6
continous
  8
BYBLOCK
 10
23.4000
 20
30.5000
 30
0.0000
 11
23.4000
 21
32.7500
 31
0.0000
  0
LINE
  6
continous
  8
BYBLOCK
 10
23.4000
 20
30.5000
 30
0.0000
 11
23.4000
 21
28.2500
 31
0.0000
  0
LINE
  6
continous
  8
BYBLOCK
 10
23.2000
 20
30.5000
 30
0.0000
 11
23.4000
 21
30.5000
 31
0.0000
  0
POLYLINE
  6
continous
  8
BYBLOCK
 70
0
 66
1
  0
VERTEX
  8
0
 10
-20.3500
 20
24.6000
 30
0.0000
  0
VERTEX
  8
0
 10
-20.3212
 20
24.3388
 30
0.0000
  0
VERTEX
  8
0
 10
-20.2363
 20
24.0901
 30
0.0000
  0
VERTEX
  8
0
 10
-20.0992
 20
23.8658
 30
0.0000
  0
VERTEX
  8
0
 10
-19.9166
 20
23.6768
 30
0.0000
  0
VERTEX
  8
0
 10
-19.6973
 20
23.5321
 30
0.0000
  0
VERTEX
  8
0
 10
-19.4516
 20
23.4385
 30
0.0000
  0
VERTEX
  8
0
 10
-19.1916
 20
23.4007
 30
0.0000
  0
VERTEX
  8
0
 10
-18.9295
 20
23.4204
 30
0.0000
  0
VERTEX
  8
0
 10
-18.6780
 20
23.4967
 30
0.0000
  0
VERTEX
  8
0
 10
-18.4492
 20
23.6259
 30
0.0000
  0
VERTEX
  8
0
 10
-18.2539
 20
23.8019
 30
0.0000
  0
VERTEX
  8
0
 10
-18.1017
 20
24.0161
 30
0.0000
  0
VERTEX
  8
0
 10
-17.9997
 20
24.2583
 30
0.0000
  0
VERTEX
  8
0
 10
-17.9529
 20
24.5169
 30
0.0000
  0
VERTEX
  8
0
 10
-17.9500
 20
24.6000
 30
0.0000
  0
SEQEND
  0
ARC
  6
continous
  8
BYBLOCK
 10
-19.1500
 20
24.6000
 30
0.0000
 40
1.5000
 50
0.0000
 51
180.0000
  0
ARC
  6
continous
  8
BYBLOCK
 10
-19.1500
 20
24.6000
 30
0.0000
 40
1.5000
 50
180.0000
 51
360.0000
  0
POLYLINE
  6
continous
  8
BYBLOCK
 70
0
 66
1
  0
VERTEX
  8
0
 10
17.9500
 20
24.6000
 30
0.0000
  0
VERTEX
  8
0
 10
17.9788
 20
24.3388
 30
0.0000
  0
VERTEX
  8
0
 10
18.0637
 20
24.0901
 30
0.0000
  0
VERTEX
  8
0
 10
18.2008
 20
23.8658
 30
0.0000
  0
VERTEX
  8
0
 10
18.3834
 20
23.6768
 30
0.0000
  0
VERTEX
  8
0
 10
18.6027
 20
23.5321
 30
0.0000
  0
VERTEX
  8
0
 10
18.8484
 20
23.4385
 30
0.0000
  0
VERTEX
  8
0
 10
19.1084
 20
23.4007
 30
0.0000
  0
VERTEX
  8
0
 10
19.3705
 20
23.4204
 30
0.0000
  0
VERTEX
  8
0
 10
19.6220
 20
23.4967
 30
0.0000
  0
VERTEX
  8
0
 10
19.8508
 20
23.6259
 30
0.0000
  0
VERTEX
  8
0
 10
20.0461
 20
23.8019
 30
0.0000
  0
VERTEX
  8
0
 10
20.1983
 20
24.0161
 30
0.0000
  0
VERTEX
  8
0
 10
20.3003
 20
24.2583
 30
0.0000
  0
VERTEX
  8
0
 10
20.3471
 20
24.5169
 30
0.0000
  0
VERTEX
  8
0
 10
20.3500
 20
24.6000
 30
0.0000
  0
SEQEND
  0
ARC
  6
continous
  8
BYBLOCK
 10
19.1500
 20
24.6000
 30
0.0000
 40
1.5000
 50
0.0000
 51
180.0000
  0
ARC
  6
continous
  8
BYBLOCK
 10
19.1500
 20
24.6000
 30
0.0000
 40
1.5000
 50
180.0000
 51
360.0000
  0
LINE
  6
continous
  8
BYBLOCK
 10
23.2000
 20
34.3232
 30
0.0000
 11
23.4000
 21
34.3232
 31
0.0000
  0
LINE
  6
continous
  8
BYBLOCK
 10
23.4000
 20
26.9887
 30
0.0000
 11
23.2000
 21
26.9887
 31
0.0000
  0
LINE
  6
continous
  8
BYBLOCK
 10
-23.4000
 20
34.3232
 30
0.0000
 11
-23.2000
 21
34.3232
 31
0.0000
  0
LINE
  6
continous
  8
BYBLOCK
 10
-23.2000
 20
26.9887
 30
0.0000
 11
-23.4000
 21
26.9887
 31
0.0000
  0
LINE
  6
continous
  8
BYBLOCK
 10
-19.1500
 20
24.6000
 30
0.0000
 11
-17.9500
 21
24.6000
 31
0.0000
  0
LINE
  6
continous
  8
BYBLOCK
 10
-19.1500
 20
24.6000
 30
0.0000
 11
-20.3500
 21
24.6000
 31
0.0000
  0
LINE
  6
continous
  8
BYBLOCK
 10
19.1500
 20
24.6000
 30
0.0000
 11
20.3500
 21
24.6000
 31
0.0000
  0
LINE
  6
continous
  8
BYBLOCK
 10
19.1500
 20
24.6000
 30
0.0000
 11
17.9500
 21
24.6000
 31
0.0000
  0
ARC
  6
continous
  8
BYBLOCK
 10
-19.1500
 20
24.6000
 30
0.0000
 40
3.9500
 50
180.0000
 51
360.0000
  0
ARC
  6
continous
  8
BYBLOCK
 10
-19.1500
 20
24.6000
 30
0.0000
 40
3.9500
 50
0.0000
 51
180.0000
  0
LINE
  6
continous
  8
BYBLOCK
 10
-23.4000
 20
22.3750
 30
0.0000
 11
-23.0038
 21
22.3750
 31
0.0000
  0
LINE
  6
continous
  8
BYBLOCK
 10
-23.4000
 20
26.8250
 30
0.0000
 11
-23.0038
 21
26.8250
 31
0.0000
  0
ARC
  6
continous
  8
BYBLOCK
 10
-19.1500
 20
24.6000
 30
0.0000
 40
4.4500
 50
360.0000
 51
150.0000
  0
LINE
  6
continous
  8
BYBLOCK
 10
5.9858
 20
34.5500
 30
0.0000
 11
5.7358
 21
34.8000
 31
0.0000
  0
LINE
  6
continous
  8
BYBLOCK
 10
5.7358
 20
34.8000
 30
0.0000
 11
-5.7358
 21
34.8000
 31
0.0000
  0
LINE
  6
continous
  8
BYBLOCK
 10
-5.7358
 20
34.8000
 30
0.0000
 11
-5.9858
 21
34.5500
 31
0.0000
  0
ARC
  6
continous
  8
BYBLOCK
 10
-22.9000
 20
35.3000
 30
0.0000
 40
0.5000
 50
150.0000
 51
180.0000
  0
LINE
  6
continous
  8
BYBLOCK
 10
-23.3330
 20
35.5500
 30
0.0000
 11
-6.4000
 21
35.5500
 31
0.0000
  0
LINE
  6
continous
  8
BYBLOCK
 10
-6.4000
 20
35.5500
 30
0.0000
 11
-6.1500
 21
35.8000
 31
0.0000
  0
LINE
  6
continous
  8
BYBLOCK
 10
6.1500
 20
35.8000
 30
0.0000
 11
-6.1500
 21
35.8000
 31
0.0000
  0
LINE
  6
continous
  8
BYBLOCK
 10
23.4000
 20
34.5500
 30
0.0000
 11
5.9858
 21
34.5500
 31
0.0000
  0
ARC
  6
continous
  8
BYBLOCK
 10
19.1500
 20
24.6000
 30
0.0000
 40
3.9500
 50
180.0000
 51
360.0000
  0
ARC
  6
continous
  8
BYBLOCK
 10
19.1500
 20
24.6000
 30
0.0000
 40
3.9500
 50
0.0000
 51
180.0000
  0
ARC
  6
continous
  8
BYBLOCK
 10
19.1500
 20
24.6000
 30
0.0000
 40
4.4500
 50
30.0000
 51
180.0000
  0
LINE
  6
continous
  8
BYBLOCK
 10
23.4000
 20
26.8250
 30
0.0000
 11
23.0038
 21
26.8250
 31
0.0000
  0
LINE
  6
continous
  8
BYBLOCK
 10
23.4000
 20
22.3750
 30
0.0000
 11
23.0038
 21
22.3750
 31
0.0000
  0
LINE
  6
continous
  8
BYBLOCK
 10
20.4929
 20
6.9071
 30
0.0000
 11
23.4000
 21
9.8142
 31
0.0000
  0
LINE
  6
continous
  8
BYBLOCK
 10
21.2000
 20
6.2000
 30
0.0000
 11
23.4000
 21
8.4000
 31
0.0000
  0
LINE
  6
continous
  8
BYBLOCK
 10
9.8500
 20
6.2000
 30
0.0000
 11
21.2000
 21
6.2000
 31
0.0000
  0
LINE
  6
continous
  8
BYBLOCK
 10
9.8500
 20
8.2417
 30
0.0000
 11
9.8500
 21
8.3417
 31
0.0000
  0
ARC
  6
continous
  8
BYBLOCK
 10
10.3000
 20
10.7500
 30
0.0000
 40
2.4500
 50
191.1878
 51
259.4162
  0
LINE
  6
continous
  8
BYBLOCK
 10
7.8966
 20
10.2746
 30
0.0000
 11
6.9000
 21
10.8500
 31
0.0000
  0
LINE
  6
continous
  8
BYBLOCK
 10
9.8500
 20
23.7550
 30
0.0000
 11
9.8500
 21
23.8550
 31
0.0000
  0
LINE
  6
continous
  8
BYBLOCK
 10
9.8500
 20
23.8550
 30
0.0000
 11
9.3550
 21
24.3500
 31
0.0000
  0
LINE
  6
continous
  8
BYBLOCK
 10
9.3550
 20
24.3500
 30
0.0000
 11
-9.3550
 21
24.3500
 31
0.0000
  0
LINE
  6
continous
  8
BYBLOCK
 10
-9.3550
 20
24.3500
 30
0.0000
 11
-9.8500
 21
23.8550
 31
0.0000
  0
LINE
  6
continous
  8
BYBLOCK
 10
-9.8500
 20
23.8550
 30
0.0000
 11
-9.8500
 21
21.0583
 31
0.0000
  0
LINE
  6
continous
  8
BYBLOCK
 10
-6.9000
 20
18.4500
 30
0.0000
 11
-6.9000
 21
10.8500
 31
0.0000
  0
LINE
  6
continous
  8
BYBLOCK
 10
-6.9000
 20
10.8500
 30
0.0000
 11
-7.8966
 21
10.2746
 31
0.0000
  0
ARC
  6
continous
  8
BYBLOCK
 10
-10.3000
 20
10.7500
 30
0.0000
 40
2.4500
 50
280.5838
 51
348.8122
  0
LINE
  6
continous
  8
BYBLOCK
 10
-9.8500
 20
6.2000
 30
0.0000
 11
-9.8500
 21
8.3417
 31
0.0000
  0
LINE
  6
continous
  8
BYBLOCK
 10
-21.2000
 20
6.2000
 30
0.0000
 11
-9.8500
 21
6.2000
 31
0.0000
  0
LINE
  6
continous
  8
BYBLOCK
 10
-23.4000
 20
8.4000
 30
0.0000
 11
-21.2000
 21
6.2000
 31
0.0000
  0
LINE
  6
continous
  8
BYBLOCK
 10
-23.4000
 20
9.8142
 30
0.0000
 11
-20.4929
 21
6.9071
 31
0.0000
  0
LINE
  6
continous
  8
BYBLOCK
 10
-20.4929
 20
6.9071
 30
0.0000
 11
-10.3500
 21
6.9071
 31
0.0000
  0
LINE
  6
continous
  8
BYBLOCK
 10
-10.3500
 20
6.9071
 30
0.0000
 11
-10.3500
 21
8.8006
 31
0.0000
  0
ARC
  6
continous
  8
BYBLOCK
 10
-10.3000
 20
10.7500
 30
0.0000
 40
1.9500
 50
268.5307
 51
355.1819
  0
LINE
  6
continous
  8
BYBLOCK
 10
-8.3569
 20
10.5862
 30
0.0000
 11
-7.4000
 21
11.1387
 31
0.0000
  0
LINE
  6
continous
  8
BYBLOCK
 10
-7.4000
 20
11.1387
 30
0.0000
 11
-7.4000
 21
18.2613
 31
0.0000
  0
LINE
  6
continous
  8
BYBLOCK
 10
-7.4000
 20
18.2613
 30
0.0000
 11
-8.3569
 21
18.8138
 31
0.0000
  0
ARC
  6
continous
  8
BYBLOCK
 10
-10.3000
 20
18.6500
 30
0.0000
 40
1.9500
 50
4.8181
 51
91.4693
  0
LINE
  6
continous
  8
BYBLOCK
 10
-10.3500
 20
20.5994
 30
0.0000
 11
-10.3500
 21
24.0621
 31
0.0000
  0
LINE
  6
continous
  8
BYBLOCK
 10
-10.3500
 20
24.0621
 30
0.0000
 11
-9.5621
 21
24.8500
 31
0.0000
  0
LINE
  6
continous
  8
BYBLOCK
 10
-9.5621
 20
24.8500
 30
0.0000
 11
9.5621
 21
24.8500
 31
0.0000
  0
LINE
  6
continous
  8
BYBLOCK
 10
9.5621
 20
24.8500
 30
0.0000
 11
10.3500
 21
24.0621
 31
0.0000
  0
LINE
  6
continous
  8
BYBLOCK
 10
10.3500
 20
24.0621
 30
0.0000
 11
10.3500
 21
20.5994
 31
0.0000
  0
ARC
  6
continous
  8
BYBLOCK
 10
10.3000
 20
18.6500
 30
0.0000
 40
1.9500
 50
88.5307
 51
175.1819
  0
LINE
  6
continous
  8
BYBLOCK
 10
8.3569
 20
18.8138
 30
0.0000
 11
7.4000
 21
18.2613
 31
0.0000
  0
LINE
  6
continous
  8
BYBLOCK
 10
7.4000
 20
18.2613
 30
0.0000
 11
7.4000
 21
11.1387
 31
0.0000
  0
LINE
  6
continous
  8
BYBLOCK
 10
7.4000
 20
11.1387
 30
0.0000
 11
8.3569
 21
10.5862
 31
0.0000
  0
ARC
  6
continous
  8
BYBLOCK
 10
10.3000
 20
10.7500
 30
0.0000
 40
1.9500
 50
184.8181
 51
271.4693
  0
LINE
  6
continous
  8
BYBLOCK
 10
10.3500
 20
8.8006
 30
0.0000
 11
10.3500
 21
6.9071
 31
0.0000
  0
LINE
  6
continous
  8
BYBLOCK
 10
10.3500
 20
6.9071
 30
0.0000
 11
20.4929
 21
6.9071
 31
0.0000
  0
ARC
  6
continous
  8
BYBLOCK
 10
-19.1500
 20
24.6000
 30
0.0000
 40
1.2000
 50
0.0000
 51
180.0000
  0
ARC
  6
continous
  8
BYBLOCK
 10
-19.1500
 20
24.6000
 30
0.0000
 40
1.2000
 50
180.0000
 51
360.0000
  0
LINE
  6
continous
  8
BYBLOCK
 10
-16.2632
 20
24.6000
 30
0.0000
 11
-17.7066
 21
22.1000
 31
0.0000
  0
LINE
  6
continous
  8
BYBLOCK
 10
-17.7066
 20
22.1000
 30
0.0000
 11
-20.5934
 21
22.1000
 31
0.0000
  0
LINE
  6
continous
  8
BYBLOCK
 10
-20.5934
 20
22.1000
 30
0.0000
 11
-22.0368
 21
24.6000
 31
0.0000
  0
LINE
  6
continous
  8
BYBLOCK
 10
-22.0368
 20
24.6000
 30
0.0000
 11
-20.5934
 21
27.1000
 31
0.0000
  0
LINE
  6
continous
  8
BYBLOCK
 10
-20.5934
 20
27.1000
 30
0.0000
 11
-17.7066
 21
27.1000
 31
0.0000
  0
LINE
  6
continous
  8
BYBLOCK
 10
-17.7066
 20
27.1000
 30
0.0000
 11
-16.2632
 21
24.6000
 31
0.0000
  0
ARC
  6
continous
  8
BYBLOCK
 10
19.1500
 20
24.6000
 30
0.0000
 40
1.2000
 50
0.0000
 51
180.0000
  0
ARC
  6
continous
  8
BYBLOCK
 10
19.1500
 20
24.6000
 30
0.0000
 40
1.2000
 50
180.0000
 51
360.0000
  0
LINE
  6
continous
  8
BYBLOCK
 10
20.5934
 20
27.1000
 30
0.0000
 11
22.0368
 21
24.6000
 31
0.0000
  0
LINE
  6
continous
  8
BYBLOCK
 10
22.0368
 20
24.6000
 30
0.0000
 11
20.5934
 21
22.1000
 31
0.0000
  0
LINE
  6
continous
  8
BYBLOCK
 10
20.5934
 20
22.1000
 30
0.0000
 11
17.7066
 21
22.1000
 31
0.0000
  0
LINE
  6
continous
  8
BYBLOCK
 10
17.7066
 20
22.1000
 30
0.0000
 11
16.2632
 21
24.6000
 31
0.0000
  0
LINE
  6
continous
  8
BYBLOCK
 10
16.2632
 20
24.6000
 30
0.0000
 11
17.7066
 21
27.1000
 31
0.0000
  0
LINE
  6
continous
  8
BYBLOCK
 10
17.7066
 20
27.1000
 30
0.0000
 11
20.5934
 21
27.1000
 31
0.0000
  0
LINE
  6
continous
  8
BYBLOCK
 10
-23.4000
 20
34.5500
 30
0.0000
 11
-5.9858
 21
34.5500
 31
0.0000
  0
LINE
  6
continous
  8
BYBLOCK
 10
-23.4000
 20
26.8250
 30
0.0000
 11
-23.4000
 21
22.3750
 31
0.0000
  0
LINE
  6
continous
  8
BYBLOCK
 10
-23.4000
 20
22.3750
 30
0.0000
 11
-23.4000
 21
21.3750
 31
0.0000
  0
LINE
  6
continous
  8
BYBLOCK
 10
-23.4000
 20
9.8142
 30
0.0000
 11
-23.4000
 21
8.4000
 31
0.0000
  0
LINE
  6
continous
  8
BYBLOCK
 10
-23.4000
 20
35.3000
 30
0.0000
 11
-23.4000
 21
34.5500
 31
0.0000
  0
LINE
  6
continous
  8
BYBLOCK
 10
-23.4000
 20
34.3232
 30
0.0000
 11
-23.4000
 21
34.5500
 31
0.0000
  0
LINE
  6
continous
  8
BYBLOCK
 10
-23.4000
 20
34.3232
 30
0.0000
 11
-23.4000
 21
30.6000
 31
0.0000
  0
LINE
  6
continous
  8
BYBLOCK
 10
-23.4000
 20
26.8250
 30
0.0000
 11
-23.4000
 21
26.9887
 31
0.0000
  0
LINE
  6
continous
  8
BYBLOCK
 10
2.9978
 20
30.6000
 30
0.0000
 11
3.0000
 21
30.6000
 31
0.0000
  0
LINE
  6
continous
  8
BYBLOCK
 10
-2.9978
 20
30.6000
 30
0.0000
 11
-3.0000
 21
30.6000
 31
0.0000
  0
ARC
  6
continous
  8
BYBLOCK
 10
-0.0000
 20
30.6000
 30
0.0000
 40
3.0000
 50
0.0000
 51
180.0000
  0
ARC
  6
continous
  8
BYBLOCK
 10
-0.0000
 20
30.6000
 30
0.0000
 40
3.0000
 50
180.0000
 51
360.0000
  0
LINE
  6
continous
  8
BYBLOCK
 10
23.2000
 20
26.8250
 30
0.0000
 11
23.2000
 21
34.5500
 31
0.0000
  0
LINE
  6
continous
  8
BYBLOCK
 10
23.2000
 20
9.8142
 30
0.0000
 11
23.2000
 21
22.3750
 31
0.0000
  0
LINE
  6
continous
  8
BYBLOCK
 10
-23.2000
 20
9.8142
 30
0.0000
 11
-23.2000
 21
22.3750
 31
0.0000
  0
LINE
  6
continous
  8
BYBLOCK
 10
-23.2000
 20
26.8250
 30
0.0000
 11
-23.2000
 21
34.5500
 31
0.0000
  0
LINE
  6
continous
  8
BYBLOCK
 10
23.4000
 20
9.8142
 30
0.0000
 11
23.2000
 21
9.8142
 31
0.0000
  0
LINE
  6
continous
  8
BYBLOCK
 10
23.4000
 20
21.3750
 30
0.0000
 11
23.4000
 21
22.3750
 31
0.0000
  0
LINE
  6
continous
  8
BYBLOCK
 10
23.4000
 20
22.3750
 30
0.0000
 11
23.4000
 21
26.8250
 31
0.0000
  0
LINE
  6
continous
  8
BYBLOCK
 10
23.4000
 20
26.9887
 30
0.0000
 11
23.4000
 21
26.8250
 31
0.0000
  0
LINE
  6
continous
  8
BYBLOCK
 10
23.4000
 20
32.7500
 30
0.0000
 11
23.4000
 21
34.3232
 31
0.0000
  0
LINE
  6
continous
  8
BYBLOCK
 10
23.4000
 20
34.5500
 30
0.0000
 11
23.4000
 21
34.3232
 31
0.0000
  0
LINE
  6
continous
  8
BYBLOCK
 10
23.4000
 20
34.5500
 30
0.0000
 11
23.4000
 21
35.3000
 31
0.0000
  0
LINE
  6
continous
  8
BYBLOCK
 10
23.4000
 20
8.4000
 30
0.0000
 11
23.4000
 21
9.8142
 31
0.0000
  0
LINE
  6
continous
  8
BYBLOCK
 10
23.4000
 20
9.8142
 30
0.0000
 11
23.4000
 21
20.8752
 31
0.0000
  0
ARC
  6
continous
  8
BYBLOCK
 10
22.9000
 20
35.3000
 30
0.0000
 40
0.5000
 50
0.0000
 51
30.0000
  0
LINE
  6
continous
  8
BYBLOCK
 10
23.3330
 20
35.5500
 30
0.0000
 11
6.4000
 21
35.5500
 31
0.0000
  0
LINE
  6
continous
  8
BYBLOCK
 10
6.1500
 20
35.8000
 30
0.0000
 11
6.4000
 21
35.5500
 31
0.0000
  0
LINE
  6
continous
  8
BYBLOCK
 10
-23.4000
 20
30.6000
 30
0.0000
 11
-23.4000
 21
26.9101
 31
0.0000
  0
ARC
  6
continous
  8
BYBLOCK
 10
19.1500
 20
24.6000
 30
0.0000
 40
4.4500
 50
180.0000
 51
330.0000
  0
LINE
  6
continous
  8
BYBLOCK
 10
23.4000
 20
26.9887
 30
0.0000
 11
23.4000
 21
28.2500
 31
0.0000
  0
LINE
  6
continous
  8
BYBLOCK
 10
23.4000
 20
20.8752
 30
0.0000
 11
23.2000
 21
20.8752
 31
0.0000
  0
LINE
  6
continous
  8
BYBLOCK
 10
23.4000
 20
20.8752
 30
0.0000
 11
23.4000
 21
21.3750
 31
0.0000
  0
ARC
  6
continous
  8
BYBLOCK
 10
-19.1500
 20
24.6000
 30
0.0000
 40
4.4500
 50
210.0000
 51
360.0000
  0
LINE
  6
continous
  8
BYBLOCK
 10
-23.4000
 20
21.3750
 30
0.0000
 11
-23.4000
 21
20.8752
 31
0.0000
  0
LINE
  6
continous
  8
BYBLOCK
 10
-23.4000
 20
20.8752
 30
0.0000
 11
-23.2000
 21
20.8752
 31
0.0000
  0
LINE
  6
continous
  8
BYBLOCK
 10
-23.4000
 20
9.8142
 30
0.0000
 11
-23.2000
 21
9.8142
 31
0.0000
  0
LINE
  6
continous
  8
BYBLOCK
 10
-23.4000
 20
20.8752
 30
0.0000
 11
-23.4000
 21
9.8142
 31
0.0000
  0
LINE
  6
continous
  8
BYBLOCK
 10
-23.7000
 20
8.3000
 30
0.0000
 11
-21.5000
 21
6.1000
 31
0.0000
  0
LINE
  6
continous
  8
BYBLOCK
 10
-23.7000
 20
28.5000
 30
0.0000
 11
-23.7000
 21
8.3000
 31
0.0000
  0
LINE
  6
continous
  8
BYBLOCK
 10
-24.0000
 20
28.8000
 30
0.0000
 11
-23.7000
 21
28.5000
 31
0.0000
  0
LINE
  6
continous
  8
BYBLOCK
 10
-24.0000
 20
35.0000
 30
0.0000
 11
-24.0000
 21
28.8000
 31
0.0000
  0
LINE
  6
continous
  8
BYBLOCK
 10
-23.0000
 20
36.0000
 30
0.0000
 11
-24.0000
 21
35.0000
 31
0.0000
  0
LINE
  6
continous
  8
BYBLOCK
 10
23.0000
 20
36.0000
 30
0.0000
 11
-23.0000
 21
36.0000
 31
0.0000
  0
LINE
  6
continous
  8
BYBLOCK
 10
24.0000
 20
35.0000
 30
0.0000
 11
23.0000
 21
36.0000
 31
0.0000
  0
LINE
  6
continous
  8
BYBLOCK
 10
24.0000
 20
8.6000
 30
0.0000
 11
24.0000
 21
35.0000
 31
0.0000
  0
LINE
  6
continous
  8
BYBLOCK
 10
21.5000
 20
6.1000
 30
0.0000
 11
24.0000
 21
8.6000
 31
0.0000
  0
LINE
  6
continous
  8
BYBLOCK
 10
10.7500
 20
6.1000
 30
0.0000
 11
10.7500
 21
6.2000
 31
0.0000
  0
LINE
  6
continous
  8
BYBLOCK
 10
-21.5000
 20
6.1000
 30
0.0000
 11
-10.7500
 21
6.1000
 31
0.0000
  0
LINE
  6
continous
  8
BYBLOCK
 10
10.7500
 20
6.1000
 30
0.0000
 11
21.5000
 21
6.1000
 31
0.0000
  0
LINE
  6
continous
  8
BYBLOCK
 10
-10.7500
 20
6.1000
 30
0.0000
 11
-10.7500
 21
6.2000
 31
0.0000
  0
ENDBLK
  8
0
  0
BLOCK
  8
REX_7
  2
1REX_MID_Jan_15_23-12-05
 70
0
 10
0.0000
 20
0.0000
 30
0.0000
  3
1REX_MID_Jan_15_23-12-05
  0
ENDBLK
  8
0
  0
BLOCK
  8
REX_1
  2
_VIEW_1_Jan_15_23-12-05
 70
0
 10
0.0000
 20
0.0000
 30
0.0000
  3
_VIEW_1_Jan_15_23-12-05
  0
INSERT
  8
REX_6
  2
1REX_MID_Jan_15_23-12-05
 10
0.0000
 20
0.0000
 30
0.0000
  0
LINE
  6
continous
  8
BYBLOCK
 10
-43.0135
 20
30.4970
 30
0.0000
 11
-43.0640
 21
29.0500
 31
0.0000
  0
LINE
  6
continous
  8
BYBLOCK
 10
-42.9000
 20
30.4930
 30
0.0000
 11
-43.0135
 21
30.4970
 31
0.0000
  0
LINE
  6
continous
  8
BYBLOCK
 10
-43.0135
 20
30.4970
 30
0.0000
 11
-42.9000
 21
30.4930
 31
0.0000
  0
LINE
  6
continous
  8
BYBLOCK
 10
-42.9297
 20
32.8955
 30
0.0000
 11
-43.0135
 21
30.4970
 31
0.0000
  0
LINE
  6
continous
  8
BYBLOCK
 10
-42.9000
 20
32.9431
 30
0.0000
 11
-43.0215
 21
32.7486
 31
0.0000
  0
LINE
  6
continous
  8
BYBLOCK
 10
-43.1785
 20
28.2514
 30
0.0000
 11
-43.0997
 21
28.1031
 31
0.0000
  0
LINE
  6
continous
  8
BYBLOCK
 10
-43.0215
 20
32.7486
 30
0.0000
 11
-43.1000
 21
30.5000
 31
0.0000
  0
LINE
  6
continous
  8
BYBLOCK
 10
-43.1785
 20
28.2514
 30
0.0000
 11
-43.1000
 21
30.5000
 31
0.0000
  0
LINE
  6
continous
  8
BYBLOCK
 10
-42.9000
 20
30.4930
 30
0.0000
 11
-43.1000
 21
30.5000
 31
0.0000
  0
LINE
  6
continous
  8
BYBLOCK
 10
43.0134
 20
29.0500
 30
0.0000
 11
43.0134
 21
30.5000
 31
0.0000
  0
LINE
  6
continous
  8
BYBLOCK
 10
43.0134
 20
30.5000
 30
0.0000
 11
42.9000
 21
30.5000
 31
0.0000
  0
LINE
  6
continous
  8
BYBLOCK
 10
43.0134
 20
30.5000
 30
0.0000
 11
43.0134
 21
32.9000
 31
0.0000
  0
LINE
  6
continous
  8
BYBLOCK
 10
42.9000
 20
30.5000
 30
0.0000
 11
43.0134
 21
30.5000
 31
0.0000
  0
LINE
  6
continous
  8
BYBLOCK
 10
43.1000
 20
32.7500
 30
0.0000
 11
42.9000
 21
33.0964
 31
0.0000
  0
LINE
  6
continous
  8
BYBLOCK
 10
43.1000
 20
30.5000
 30
0.0000
 11
43.1000
 21
32.7500
 31
0.0000
  0
LINE
  6
continous
  8
BYBLOCK
 10
43.1000
 20
30.5000
 30
0.0000
 11
43.1000
 21
29.0500
 31
0.0000
  0
LINE
  6
continous
  8
BYBLOCK
 10
42.9000
 20
30.5000
 30
0.0000
 11
43.1000
 21
30.5000
 31
0.0000
  0
LINE
  6
continous
  8
BYBLOCK
 10
43.1000
 20
20.9583
 30
0.0000
 11
67.2340
 21
20.9583
 31
0.0000
  0
LINE
  6
continous
  8
BYBLOCK
 10
-68.1000
 20
20.9583
 30
0.0000
 11
-43.1000
 21
20.9583
 31
0.0000
  0
LINE
  6
continous
  8
BYBLOCK
 10
67.2340
 20
0.0000
 30
0.0000
 11
68.1000
 21
0.5000
 31
0.0000
  0
LINE
  6
continous
  8
BYBLOCK
 10
-68.1000
 20
0.0000
 30
0.0000
 11
67.2340
 21
0.0000
 31
0.0000
  0
LINE
  6
continous
  8
BYBLOCK
 10
67.2340
 20
1.2000
 30
0.0000
 11
67.2340
 21
0.0000
 31
0.0000
  0
LINE
  6
continous
  8
BYBLOCK
 10
-68.1000
 20
1.2000
 30
0.0000
 11
67.2340
 21
1.2000
 31
0.0000
  0
LINE
  6
continous
  8
BYBLOCK
 10
67.2340
 20
1.2000
 30
0.0000
 11
68.1000
 21
1.4071
 31
0.0000
  0
LINE
  6
continous
  8
BYBLOCK
 10
67.2340
 20
4.9474
 30
0.0000
 11
67.2340
 21
1.2000
 31
0.0000
  0
LINE
  6
continous
  8
BYBLOCK
 10
67.2340
 20
4.9474
 30
0.0000
 11
68.1000
 21
4.6587
 31
0.0000
  0
LINE
  6
continous
  8
BYBLOCK
 10
-68.1000
 20
4.9474
 30
0.0000
 11
67.2340
 21
4.9474
 31
0.0000
  0
LINE
  6
continous
  8
BYBLOCK
 10
67.2340
 20
5.9000
 30
0.0000
 11
67.2340
 21
4.9474
 31
0.0000
  0
LINE
  6
continous
  8
BYBLOCK
 10
-68.1000
 20
5.9000
 30
0.0000
 11
67.2340
 21
5.9000
 31
0.0000
  0
LINE
  6
continous
  8
BYBLOCK
 10
67.2340
 20
5.9000
 30
0.0000
 11
68.1000
 21
5.6113
 31
0.0000
  0
LINE
  6
continous
  8
BYBLOCK
 10
67.2340
 20
8.2417
 30
0.0000
 11
67.2340
 21
5.9000
 31
0.0000
  0
POLYLINE
  6
continous
  8
BYBLOCK
 70
0
 66
1
  0
VERTEX
  8
0
 10
67.2340
 20
8.2417
 30
0.0000
  0
VERTEX
  8
0
 10
68.1000
 20
7.8572
 30
0.0000
  0
SEQEND
  0
LINE
  6
continous
  8
BYBLOCK
 10
43.1000
 20
8.2417
 30
0.0000
 11
67.2340
 21
8.2417
 31
0.0000
  0
LINE
  6
continous
  8
BYBLOCK
 10
-68.1000
 20
8.2417
 30
0.0000
 11
-43.1000
 21
8.2417
 31
0.0000
  0
LINE
  6
continous
  8
BYBLOCK
 10
67.2340
 20
8.2417
 30
0.0000
 11
67.2340
 21
10.1746
 31
0.0000
  0
LINE
  6
continous
  8
BYBLOCK
 10
43.1000
 20
10.1746
 30
0.0000
 11
67.2340
 21
10.1746
 31
0.0000
  0
LINE
  6
continous
  8
BYBLOCK
 10
-68.1000
 20
10.1746
 30
0.0000
 11
-43.1000
 21
10.1746
 31
0.0000
  0
POLYLINE
  6
continous
  8
BYBLOCK
 70
0
 66
1
  0
VERTEX
  8
0
 10
67.2340
 20
10.1746
 30
0.0000
  0
VERTEX
  8
0
 10
68.1000
 20
9.8488
 30
0.0000
  0
SEQEND
  0
LINE
  6
continous
  8
BYBLOCK
 10
67.2340
 20
10.7500
 30
0.0000
 11
67.2340
 21
10.1746
 31
0.0000
  0
LINE
  6
continous
  8
BYBLOCK
 10
67.2340
 20
10.7500
 30
0.0000
 11
68.1000
 21
10.4613
 31
0.0000
  0
LINE
  6
continous
  8
BYBLOCK
 10
43.1000
 20
10.7500
 30
0.0000
 11
67.2340
 21
10.7500
 31
0.0000
  0
LINE
  6
continous
  8
BYBLOCK
 10
-68.1000
 20
10.7500
 30
0.0000
 11
-43.1000
 21
10.7500
 31
0.0000
  0
LINE
  6
continous
  8
BYBLOCK
 10
67.2340
 20
18.4500
 30
0.0000
 11
67.2340
 21
10.7500
 31
0.0000
  0
LINE
  6
continous
  8
BYBLOCK
 10
43.1000
 20
18.4500
 30
0.0000
 11
67.2340
 21
18.4500
 31
0.0000
  0
LINE
  6
continous
  8
BYBLOCK
 10
-68.1000
 20
18.4500
 30
0.0000
 11
-43.1000
 21
18.4500
 31
0.0000
  0
LINE
  6
continous
  8
BYBLOCK
 10
43.1000
 20
19.0254
 30
0.0000
 11
67.2340
 21
19.0254
 31
0.0000
  0
LINE
  6
continous
  8
BYBLOCK
 10
-68.1000
 20
19.0254
 30
0.0000
 11
-43.1000
 21
19.0254
 31
0.0000
  0
LINE
  6
continous
  8
BYBLOCK
 10
67.2340
 20
18.4500
 30
0.0000
 11
68.1000
 21
18.7387
 31
0.0000
  0
LINE
  6
continous
  8
BYBLOCK
 10
67.2340
 20
19.0254
 30
0.0000
 11
67.2340
 21
18.4500
 31
0.0000
  0
POLYLINE
  6
continous
  8
BYBLOCK
 70
0
 66
1
  0
VERTEX
  8
0
 10
67.2340
 20
19.0254
 30
0.0000
  0
VERTEX
  8
0
 10
68.1000
 20
19.3512
 30
0.0000
  0
SEQEND
  0
LINE
  6
continous
  8
BYBLOCK
 10
67.2340
 20
19.0254
 30
0.0000
 11
67.2340
 21
20.9583
 31
0.0000
  0
POLYLINE
  6
continous
  8
BYBLOCK
 70
0
 66
1
  0
VERTEX
  8
0
 10
67.2340
 20
20.9583
 30
0.0000
  0
VERTEX
  8
0
 10
68.1000
 20
21.3428
 30
0.0000
  0
SEQEND
  0
LINE
  6
continous
  8
BYBLOCK
 10
67.2340
 20
23.7550
 30
0.0000
 11
67.2340
 21
20.9583
 31
0.0000
  0
LINE
  6
continous
  8
BYBLOCK
 10
67.2340
 20
23.7550
 30
0.0000
 11
67.6626
 21
24.0025
 31
0.0000
  0
LINE
  6
continous
  8
BYBLOCK
 10
43.1000
 20
23.7550
 30
0.0000
 11
67.2340
 21
23.7550
 31
0.0000
  0
LINE
  6
continous
  8
BYBLOCK
 10
-68.1000
 20
23.7550
 30
0.0000
 11
-43.1000
 21
23.7550
 31
0.0000
  0
LINE
  6
continous
  8
BYBLOCK
 10
43.1000
 20
24.2500
 30
0.0000
 11
67.2340
 21
24.2500
 31
0.0000
  0
LINE
  6
continous
  8
BYBLOCK
 10
-68.1000
 20
24.2500
 30
0.0000
 11
-43.1000
 21
24.2500
 31
0.0000
  0
LINE
  6
continous
  8
BYBLOCK
 10
67.6626
 20
24.0025
 30
0.0000
 11
68.1000
 21
23.7500
 31
0.0000
  0
LINE
  6
continous
  8
BYBLOCK
 10
67.6626
 20
24.0025
 30
0.0000
 11
67.2340
 21
24.2500
 31
0.0000
  0
LINE
  6
continous
  8
BYBLOCK
 10
68.1000
 20
1.4071
 30
0.0000
 11
68.1000
 21
0.5000
 31
0.0000
  0
LINE
  6
continous
  8
BYBLOCK
 10
68.1000
 20
4.6587
 30
0.0000
 11
68.1000
 21
1.4071
 31
0.0000
  0
LINE
  6
continous
  8
BYBLOCK
 10
68.1000
 20
5.6113
 30
0.0000
 11
68.1000
 21
4.6587
 31
0.0000
  0
LINE
  6
continous
  8
BYBLOCK
 10
68.1000
 20
7.8572
 30
0.0000
 11
68.1000
 21
5.6113
 31
0.0000
  0
LINE
  6
continous
  8
BYBLOCK
 10
68.1000
 20
9.8488
 30
0.0000
 11
68.1000
 21
7.8572
 31
0.0000
  0
LINE
  6
continous
  8
BYBLOCK
 10
68.1000
 20
10.4613
 30
0.0000
 11
68.1000
 21
9.8488
 31
0.0000
  0
LINE
  6
continous
  8
BYBLOCK
 10
68.1000
 20
18.7387
 30
0.0000
 11
68.1000
 21
10.4613
 31
0.0000
  0
LINE
  6
continous
  8
BYBLOCK
 10
68.1000
 20
19.3512
 30
0.0000
 11
68.1000
 21
18.7387
 31
0.0000
  0
LINE
  6
continous
  8
BYBLOCK
 10
68.1000
 20
21.3428
 30
0.0000
 11
68.1000
 21
19.3512
 31
0.0000
  0
LINE
  6
continous
  8
BYBLOCK
 10
68.1000
 20
23.7500
 30
0.0000
 11
68.1000
 21
21.3428
 31
0.0000
  0
LINE
  6
continous
  8
BYBLOCK
 10
-68.1000
 20
24.2500
 30
0.0000
 11
-68.1000
 21
23.7550
 31
0.0000
  0
LINE
  6
continous
  8
BYBLOCK
 10
-68.1000
 20
23.7550
 30
0.0000
 11
-68.1000
 21
20.9583
 31
0.0000
  0
LINE
  6
continous
  8
BYBLOCK
 10
-68.1000
 20
20.9583
 30
0.0000
 11
-68.1000
 21
19.0254
 31
0.0000
  0
LINE
  6
continous
  8
BYBLOCK
 10
-68.1000
 20
19.0254
 30
0.0000
 11
-68.1000
 21
18.4500
 31
0.0000
  0
LINE
  6
continous
  8
BYBLOCK
 10
-68.1000
 20
18.4500
 30
0.0000
 11
-68.1000
 21
10.7500
 31
0.0000
  0
LINE
  6
continous
  8
BYBLOCK
 10
-68.1000
 20
10.7500
 30
0.0000
 11
-68.1000
 21
10.1746
 31
0.0000
  0
LINE
  6
continous
  8
BYBLOCK
 10
-68.1000
 20
10.1746
 30
0.0000
 11
-68.1000
 21
8.2417
 31
0.0000
  0
LINE
  6
continous
  8
BYBLOCK
 10
-68.1000
 20
8.2417
 30
0.0000
 11
-68.1000
 21
5.9000
 31
0.0000
  0
LINE
  6
continous
  8
BYBLOCK
 10
-68.1000
 20
5.9000
 30
0.0000
 11
-68.1000
 21
4.9474
 31
0.0000
  0
LINE
  6
continous
  8
BYBLOCK
 10
-68.1000
 20
4.9474
 30
0.0000
 11
-68.1000
 21
1.2000
 31
0.0000
  0
LINE
  6
continous
  8
BYBLOCK
 10
-68.1000
 20
1.2000
 30
0.0000
 11
-68.1000
 21
0.0000
 31
0.0000
  0
ARC
  6
continous
  8
BYBLOCK
 10
-36.1000
 20
30.5000
 30
0.0000
 40
2.4000
 50
180.0000
 51
360.0000
  0
ARC
  6
continous
  8
BYBLOCK
 10
-36.1000
 20
30.5000
 30
0.0000
 40
2.4000
 50
0.0000
 51
180.0000
  0
LINE
  6
continous
  8
BYBLOCK
 10
-35.2340
 20
32.0000
 30
0.0000
 11
-36.9660
 21
32.0000
 31
0.0000
  0
LINE
  6
continous
  8
BYBLOCK
 10
-36.9660
 20
32.0000
 30
0.0000
 11
-37.8321
 21
30.5000
 31
0.0000
  0
LINE
  6
continous
  8
BYBLOCK
 10
-37.8321
 20
30.5000
 30
0.0000
 11
-36.9660
 21
29.0000
 31
0.0000
  0
LINE
  6
continous
  8
BYBLOCK
 10
-36.9660
 20
29.0000
 30
0.0000
 11
-35.2340
 21
29.0000
 31
0.0000
  0
LINE
  6
continous
  8
BYBLOCK
 10
-35.2340
 20
29.0000
 30
0.0000
 11
-34.3679
 21
30.5000
 31
0.0000
  0
LINE
  6
continous
  8
BYBLOCK
 10
-34.3679
 20
30.5000
 30
0.0000
 11
-35.2340
 21
32.0000
 31
0.0000
  0
ARC
  6
continous
  8
BYBLOCK
 10
-36.1000
 20
30.5000
 30
0.0000
 40
2.2500
 50
0.0000
 51
180.0000
  0
ARC
  6
continous
  8
BYBLOCK
 10
-36.1000
 20
30.5000
 30
0.0000
 40
2.2500
 50
180.0000
 51
360.0000
  0
LINE
  6
continous
  8
BYBLOCK
 10
-33.1017
 20
30.5000
 30
0.0000
 11
-33.8500
 21
30.5000
 31
0.0000
  0
LINE
  6
continous
  8
BYBLOCK
 10
-39.0983
 20
30.5000
 30
0.0000
 11
-38.3500
 21
30.5000
 31
0.0000
  0
ARC
  6
continous
  8
BYBLOCK
 10
-36.1000
 20
30.5000
 30
0.0000
 40
3.0000
 50
0.9549
 51
179.0449
  0
ARC
  6
continous
  8
BYBLOCK
 10
36.1000
 20
30.5000
 30
0.0000
 40
2.4000
 50
180.0000
 51
360.0000
  0
ARC
  6
continous
  8
BYBLOCK
 10
36.1000
 20
30.5000
 30
0.0000
 40
2.4000
 50
0.0000
 51
180.0000
  0
LINE
  6
continous
  8
BYBLOCK
 10
36.9660
 20
32.0000
 30
0.0000
 11
35.2340
 21
32.0000
 31
0.0000
  0
LINE
  6
continous
  8
BYBLOCK
 10
35.2340
 20
32.0000
 30
0.0000
 11
34.3679
 21
30.5000
 31
0.0000
  0
LINE
  6
continous
  8
BYBLOCK
 10
34.3679
 20
30.5000
 30
0.0000
 11
35.2340
 21
29.0000
 31
0.0000
  0
LINE
  6
continous
  8
BYBLOCK
 10
35.2340
 20
29.0000
 30
0.0000
 11
36.9660
 21
29.0000
 31
0.0000
  0
LINE
  6
continous
  8
BYBLOCK
 10
36.9660
 20
29.0000
 30
0.0000
 11
37.8321
 21
30.5000
 31
0.0000
  0
LINE
  6
continous
  8
BYBLOCK
 10
37.8321
 20
30.5000
 30
0.0000
 11
36.9660
 21
32.0000
 31
0.0000
  0
ARC
  6
continous
  8
BYBLOCK
 10
36.1000
 20
30.5000
 30
0.0000
 40
2.2500
 50
0.0000
 51
180.0000
  0
ARC
  6
continous
  8
BYBLOCK
 10
36.1000
 20
30.5000
 30
0.0000
 40
2.2500
 50
180.0000
 51
360.0000
  0
LINE
  6
continous
  8
BYBLOCK
 10
39.0983
 20
30.5000
 30
0.0000
 11
38.3500
 21
30.5000
 31
0.0000
  0
LINE
  6
continous
  8
BYBLOCK
 10
33.1017
 20
30.5000
 30
0.0000
 11
33.8500
 21
30.5000
 31
0.0000
  0
ARC
  6
continous
  8
BYBLOCK
 10
36.1000
 20
30.5000
 30
0.0000
 40
3.0000
 50
0.9549
 51
179.0449
  0
LINE
  6
continous
  8
BYBLOCK
 10
-43.1000
 20
24.6000
 30
0.0000
 11
-43.1000
 21
24.6000
 31
0.0000
  0
LINE
  6
continous
  8
BYBLOCK
 10
-43.1000
 20
24.2500
 30
0.0000
 11
-43.1000
 21
24.6000
 31
0.0000
  0
LINE
  6
continous
  8
BYBLOCK
 10
-43.1000
 20
24.6000
 30
0.0000
 11
-43.1000
 21
24.2500
 31
0.0000
  0
LINE
  6
continous
  8
BYBLOCK
 10
-43.1000
 20
24.6000
 30
0.0000
 11
-43.1000
 21
24.6000
 31
0.0000
  0
LINE
  6
continous
  8
BYBLOCK
 10
-43.1000
 20
24.6000
 30
0.0000
 11
-43.1000
 21
24.6000
 31
0.0000
  0
LINE
  6
continous
  8
BYBLOCK
 10
-42.9000
 20
29.0500
 30
0.0000
 11
-43.1000
 21
29.0500
 31
0.0000
  0
LINE
  6
continous
  8
BYBLOCK
 10
-43.1000
 20
20.1500
 30
0.0000
 11
-42.9000
 21
20.1500
 31
0.0000
  0
LINE
  6
continous
  8
BYBLOCK
 10
-39.1000
 20
30.6000
 30
0.0000
 11
-39.0983
 21
30.6000
 31
0.0000
  0
LINE
  6
continous
  8
BYBLOCK
 10
-33.1000
 20
30.6000
 30
0.0000
 11
-33.1017
 21
30.6000
 31
0.0000
  0
ARC
  6
continous
  8
BYBLOCK
 10
-36.1000
 20
30.6000
 30
0.0000
 40
3.0000
 50
0.0000
 51
180.0000
  0
ARC
  6
continous
  8
BYBLOCK
 10
-36.1000
 20
30.6000
 30
0.0000
 40
3.0000
 50
-180.0000
 51
0.0000
  0
LINE
  6
continous
  8
BYBLOCK
 10
-28.9000
 20
6.2000
 30
0.0000
 11
-43.1000
 21
6.2000
 31
0.0000
  0
LINE
  6
continous
  8
BYBLOCK
 10
-43.1000
 20
18.8138
 30
0.0000
 11
-42.9000
 21
18.8138
 31
0.0000
  0
LINE
  6
continous
  8
BYBLOCK
 10
-43.1000
 20
18.2613
 30
0.0000
 11
-42.9000
 21
18.2613
 31
0.0000
  0
LINE
  6
continous
  8
BYBLOCK
 10
-43.1000
 20
11.1387
 30
0.0000
 11
-42.9000
 21
11.1387
 31
0.0000
  0
LINE
  6
continous
  8
BYBLOCK
 10
-43.1000
 20
10.5862
 30
0.0000
 11
-42.9000
 21
10.5862
 31
0.0000
  0
LINE
  6
continous
  8
BYBLOCK
 10
-43.1000
 20
26.8250
 30
0.0000
 11
-43.1000
 21
29.0500
 31
0.0000
  0
LINE
  6
continous
  8
BYBLOCK
 10
-43.1000
 20
6.2000
 30
0.0000
 11
-43.1000
 21
8.4000
 31
0.0000
  0
LINE
  6
continous
  8
BYBLOCK
 10
-43.1000
 20
24.8500
 30
0.0000
 11
-43.1000
 21
24.0621
 31
0.0000
  0
LINE
  6
continous
  8
BYBLOCK
 10
-43.1000
 20
24.0621
 30
0.0000
 11
-43.1000
 21
20.5994
 31
0.0000
  0
LINE
  6
continous
  8
BYBLOCK
 10
-43.1000
 20
20.6000
 30
0.0000
 11
-43.1000
 21
18.8138
 31
0.0000
  0
LINE
  6
continous
  8
BYBLOCK
 10
-43.1000
 20
18.8138
 30
0.0000
 11
-43.1000
 21
18.2613
 31
0.0000
  0
LINE
  6
continous
  8
BYBLOCK
 10
-43.1000
 20
18.2613
 30
0.0000
 11
-43.1000
 21
11.1387
 31
0.0000
  0
LINE
  6
continous
  8
BYBLOCK
 10
-43.1000
 20
11.1387
 30
0.0000
 11
-43.1000
 21
10.5862
 31
0.0000
  0
LINE
  6
continous
  8
BYBLOCK
 10
-43.1000
 20
10.5862
 30
0.0000
 11
-43.1000
 21
9.2976
 31
0.0000
  0
LINE
  6
continous
  8
BYBLOCK
 10
-43.1000
 20
27.1000
 30
0.0000
 11
-43.1000
 21
24.6000
 31
0.0000
  0
LINE
  6
continous
  8
BYBLOCK
 10
-43.1000
 20
24.6000
 30
0.0000
 11
-43.1000
 21
22.1000
 31
0.0000
  0
LINE
  6
continous
  8
BYBLOCK
 10
-42.9000
 20
26.8250
 30
0.0000
 11
-42.9000
 21
34.5500
 31
0.0000
  0
LINE
  6
continous
  8
BYBLOCK
 10
-42.9000
 20
9.8142
 30
0.0000
 11
-42.9000
 21
22.3750
 31
0.0000
  0
ARC
  6
continous
  8
BYBLOCK
 10
-37.3828
 20
21.3750
 30
0.0000
 40
1.0000
 50
360.0000
 51
90.0000
  0
LINE
  6
continous
  8
BYBLOCK
 10
-43.1000
 20
22.3750
 30
0.0000
 11
-37.3828
 21
22.3750
 31
0.0000
  0
LINE
  6
continous
  8
BYBLOCK
 10
-43.1000
 20
22.3750
 30
0.0000
 11
-43.1000
 21
26.8250
 31
0.0000
  0
LINE
  6
continous
  8
BYBLOCK
 10
-43.1000
 20
26.8250
 30
0.0000
 11
-42.9000
 21
26.8250
 31
0.0000
  0
ARC
  6
continous
  8
BYBLOCK
 10
-41.0982
 20
16.9887
 30
0.0000
 40
10.0000
 50
69.8364
 51
100.3804
  0
ARC
  6
continous
  8
BYBLOCK
 10
-36.1000
 20
30.6000
 30
0.0000
 40
4.5000
 50
360.0000
 51
108.8394
  0
ARC
  6
continous
  8
BYBLOCK
 10
-40.7823
 20
44.3232
 30
0.0000
 40
10.0000
 50
257.7739
 51
288.8394
  0
LINE
  6
continous
  8
BYBLOCK
 10
-43.1000
 20
34.5500
 30
0.0000
 11
-42.9000
 21
34.5500
 31
0.0000
  0
LINE
  6
continous
  8
BYBLOCK
 10
-43.1000
 20
34.5500
 30
0.0000
 11
-43.1000
 21
35.3000
 31
0.0000
  0
LINE
  6
continous
  8
BYBLOCK
 10
-28.9000
 20
8.4000
 30
0.0000
 11
-43.1000
 21
8.4000
 31
0.0000
  0
LINE
  6
continous
  8
BYBLOCK
 10
-43.1000
 20
8.4000
 30
0.0000
 11
-43.1000
 21
9.8142
 31
0.0000
  0
LINE
  6
continous
  8
BYBLOCK
 10
-43.1000
 20
9.8142
 30
0.0000
 11
-42.9000
 21
9.8142
 31
0.0000
  0
LINE
  6
continous
  8
BYBLOCK
 10
-42.9000
 20
9.8142
 30
0.0000
 11
-36.5167
 21
20.8752
 31
0.0000
  0
LINE
  6
continous
  8
BYBLOCK
 10
-43.1000
 20
35.3000
 30
0.0000
 11
-28.9000
 21
35.3000
 31
0.0000
  0
LINE
  6
continous
  8
BYBLOCK
 10
-43.1000
 20
35.3000
 30
0.0000
 11
-43.1000
 21
35.5500
 31
0.0000
  0
LINE
  6
continous
  8
BYBLOCK
 10
-43.1000
 20
35.5500
 30
0.0000
 11
-28.9000
 21
35.5500
 31
0.0000
  0
LINE
  6
continous
  8
BYBLOCK
 10
-43.1000
 20
35.8000
 30
0.0000
 11
-43.1000
 21
35.5500
 31
0.0000
  0
LINE
  6
continous
  8
BYBLOCK
 10
-28.9000
 20
35.8000
 30
0.0000
 11
-43.1000
 21
35.8000
 31
0.0000
  0
LINE
  6
continous
  8
BYBLOCK
 10
-28.9000
 20
6.2000
 30
0.0000
 11
-28.9000
 21
8.4000
 31
0.0000
  0
LINE
  6
continous
  8
BYBLOCK
 10
-28.9000
 20
8.4000
 30
0.0000
 11
-28.9000
 21
35.3000
 31
0.0000
  0
LINE
  6
continous
  8
BYBLOCK
 10
-28.9000
 20
35.5500
 30
0.0000
 11
-28.9000
 21
35.3000
 31
0.0000
  0
LINE
  6
continous
  8
BYBLOCK
 10
-28.9000
 20
35.8000
 30
0.0000
 11
-28.9000
 21
35.5500
 31
0.0000
  0
LINE
  6
continous
  8
BYBLOCK
 10
-43.1000
 20
20.1500
 30
0.0000
 11
-43.1000
 21
22.3750
 31
0.0000
  0
ARC
  6
continous
  8
BYBLOCK
 10
-36.1000
 20
30.6000
 30
0.0000
 40
4.5000
 50
249.8364
 51
360.0000
  0
ARC
  6
continous
  8
BYBLOCK
 10
-37.3828
 20
21.3750
 30
0.0000
 40
1.0000
 50
330.0105
 51
360.0000
  0
LINE
  6
continous
  8
BYBLOCK
 10
43.1000
 20
29.0500
 30
0.0000
 11
42.9000
 21
29.0500
 31
0.0000
  0
LINE
  6
continous
  8
BYBLOCK
 10
42.9000
 20
20.1500
 30
0.0000
 11
43.1000
 21
20.1500
 31
0.0000
  0
LINE
  6
continous
  8
BYBLOCK
 10
28.9000
 20
35.8000
 30
0.0000
 11
43.1000
 21
35.8000
 31
0.0000
  0
LINE
  6
continous
  8
BYBLOCK
 10
43.1000
 20
35.5500
 30
0.0000
 11
28.9000
 21
35.5500
 31
0.0000
  0
LINE
  6
continous
  8
BYBLOCK
 10
28.9000
 20
6.2000
 30
0.0000
 11
43.1000
 21
6.2000
 31
0.0000
  0
LINE
  6
continous
  8
BYBLOCK
 10
43.1000
 20
10.5862
 30
0.0000
 11
42.9000
 21
10.5862
 31
0.0000
  0
LINE
  6
continous
  8
BYBLOCK
 10
43.1000
 20
11.1387
 30
0.0000
 11
42.9000
 21
11.1387
 31
0.0000
  0
LINE
  6
continous
  8
BYBLOCK
 10
43.1000
 20
18.2613
 30
0.0000
 11
42.9000
 21
18.2613
 31
0.0000
  0
LINE
  6
continous
  8
BYBLOCK
 10
43.1000
 20
18.8138
 30
0.0000
 11
42.9000
 21
18.8138
 31
0.0000
  0
LINE
  6
continous
  8
BYBLOCK
 10
43.1000
 20
29.0500
 30
0.0000
 11
43.1000
 21
26.8250
 31
0.0000
  0
LINE
  6
continous
  8
BYBLOCK
 10
43.1000
 20
35.5500
 30
0.0000
 11
43.1000
 21
35.3000
 31
0.0000
  0
LINE
  6
continous
  8
BYBLOCK
 10
43.1000
 20
35.5500
 30
0.0000
 11
43.1000
 21
35.8000
 31
0.0000
  0
LINE
  6
continous
  8
BYBLOCK
 10
43.1000
 20
8.4000
 30
0.0000
 11
43.1000
 21
6.2000
 31
0.0000
  0
LINE
  6
continous
  8
BYBLOCK
 10
43.1000
 20
9.8142
 30
0.0000
 11
43.1000
 21
10.5862
 31
0.0000
  0
LINE
  6
continous
  8
BYBLOCK
 10
43.1000
 20
10.5862
 30
0.0000
 11
43.1000
 21
11.1387
 31
0.0000
  0
LINE
  6
continous
  8
BYBLOCK
 10
43.1000
 20
11.1387
 30
0.0000
 11
43.1000
 21
18.2613
 31
0.0000
  0
LINE
  6
continous
  8
BYBLOCK
 10
43.1000
 20
18.2613
 30
0.0000
 11
43.1000
 21
18.8138
 31
0.0000
  0
LINE
  6
continous
  8
BYBLOCK
 10
43.1000
 20
18.8138
 30
0.0000
 11
43.1000
 21
20.1499
 31
0.0000
  0
LINE
  6
continous
  8
BYBLOCK
 10
43.1000
 20
26.8250
 30
0.0000
 11
42.9000
 21
26.8250
 31
0.0000
  0
LINE
  6
continous
  8
BYBLOCK
 10
43.1000
 20
26.8250
 30
0.0000
 11
43.1000
 21
22.3750
 31
0.0000
  0
LINE
  6
continous
  8
BYBLOCK
 10
37.3828
 20
22.3750
 30
0.0000
 11
43.1000
 21
22.3750
 31
0.0000
  0
ARC
  6
continous
  8
BYBLOCK
 10
37.3828
 20
21.3750
 30
0.0000
 40
1.0000
 50
90.0000
 51
180.0000
  0
LINE
  6
continous
  8
BYBLOCK
 10
43.1000
 20
9.8142
 30
0.0000
 11
42.9000
 21
9.8142
 31
0.0000
  0
LINE
  6
continous
  8
BYBLOCK
 10
43.1000
 20
9.8142
 30
0.0000
 11
43.1000
 21
8.4000
 31
0.0000
  0
LINE
  6
continous
  8
BYBLOCK
 10
28.9000
 20
8.4000
 30
0.0000
 11
43.1000
 21
8.4000
 31
0.0000
  0
LINE
  6
continous
  8
BYBLOCK
 10
43.1000
 20
35.3000
 30
0.0000
 11
28.9000
 21
35.3000
 31
0.0000
  0
LINE
  6
continous
  8
BYBLOCK
 10
43.1000
 20
35.3000
 30
0.0000
 11
43.1000
 21
34.5500
 31
0.0000
  0
LINE
  6
continous
  8
BYBLOCK
 10
43.1000
 20
34.5500
 30
0.0000
 11
42.9000
 21
34.5500
 31
0.0000
  0
ARC
  6
continous
  8
BYBLOCK
 10
40.7823
 20
44.3232
 30
0.0000
 40
10.0000
 50
251.1606
 51
282.2261
  0
ARC
  6
continous
  8
BYBLOCK
 10
36.1000
 20
30.6000
 30
0.0000
 40
4.5000
 50
71.1606
 51
180.0000
  0
ARC
  6
continous
  8
BYBLOCK
 10
41.0982
 20
16.9887
 30
0.0000
 40
10.0000
 50
79.6196
 51
110.1636
  0
LINE
  6
continous
  8
BYBLOCK
 10
39.0983
 20
30.6000
 30
0.0000
 11
39.1000
 21
30.6000
 31
0.0000
  0
LINE
  6
continous
  8
BYBLOCK
 10
33.1017
 20
30.6000
 30
0.0000
 11
33.1000
 21
30.6000
 31
0.0000
  0
ARC
  6
continous
  8
BYBLOCK
 10
36.1000
 20
30.6000
 30
0.0000
 40
3.0000
 50
0.0000
 51
180.0000
  0
ARC
  6
continous
  8
BYBLOCK
 10
36.1000
 20
30.6000
 30
0.0000
 40
3.0000
 50
180.0000
 51
360.0000
  0
LINE
  6
continous
  8
BYBLOCK
 10
42.9000
 20
9.8142
 30
0.0000
 11
42.9000
 21
22.3750
 31
0.0000
  0
LINE
  6
continous
  8
BYBLOCK
 10
42.9000
 20
26.8250
 30
0.0000
 11
42.9000
 21
34.5500
 31
0.0000
  0
ARC
  6
continous
  8
BYBLOCK
 10
36.1000
 20
30.6000
 30
0.0000
 40
4.5000
 50
180.0000
 51
290.1636
  0
LINE
  6
continous
  8
BYBLOCK
 10
43.1000
 20
22.3750
 30
0.0000
 11
43.1000
 21
20.1500
 31
0.0000
  0
ARC
  6
continous
  8
BYBLOCK
 10
37.3828
 20
21.3750
 30
0.0000
 40
1.0000
 50
180.0000
 51
209.9895
  0
LINE
  6
continous
  8
BYBLOCK
 10
36.5167
 20
20.8752
 30
0.0000
 11
42.9000
 21
9.8142
 31
0.0000
  0
LINE
  6
continous
  8
BYBLOCK
 10
28.9000
 20
8.6000
 30
0.0000
 11
-28.9000
 21
8.6000
 31
0.0000
  0
LINE
  6
continous
  8
BYBLOCK
 10
28.9000
 20
35.0000
 30
0.0000
 11
-28.9000
 21
35.0000
 31
0.0000
  0
LINE
  6
continous
  8
BYBLOCK
 10
28.9000
 20
36.0000
 30
0.0000
 11
-28.9000
 21
36.0000
 31
0.0000
  0
LINE
  6
continous
  8
BYBLOCK
 10
-28.9000
 20
35.0000
 30
0.0000
 11
-28.9000
 21
36.0000
 31
0.0000
  0
LINE
  6
continous
  8
BYBLOCK
 10
-28.9000
 20
8.6000
 30
0.0000
 11
-28.9000
 21
35.0000
 31
0.0000
  0
LINE
  6
continous
  8
BYBLOCK
 10
-28.9000
 20
6.1000
 30
0.0000
 11
-28.9000
 21
8.6000
 31
0.0000
  0
LINE
  6
continous
  8
BYBLOCK
 10
28.9000
 20
6.1000
 30
0.0000
 11
-28.9000
 21
6.1000
 31
0.0000
  0
LINE
  6
continous
  8
BYBLOCK
 10
28.9000
 20
6.1000
 30
0.0000
 11
28.9000
 21
8.6000
 31
0.0000
  0
LINE
  6
continous
  8
BYBLOCK
 10
28.9000
 20
8.6000
 30
0.0000
 11
28.9000
 21
35.0000
 31
0.0000
  0
LINE
  6
continous
  8
BYBLOCK
 10
28.9000
 20
35.0000
 30
0.0000
 11
28.9000
 21
36.0000
 31
0.0000
  0
ENDBLK
  8
0
  0
BLOCK
  8
REX_7
  2
5REX_MID_Jan_15_23-12-05
 70
0
 10
0.0000
 20
0.0000
 30
0.0000
  3
5REX_MID_Jan_15_23-12-05
  0
ENDBLK
  8
0
  0
BLOCK
  8
REX_1
  2
_VIEW_5_Jan_15_23-12-05
 70
0
 10
0.0000
 20
0.0000
 30
0.0000
  3
_VIEW_5_Jan_15_23-12-05
  0
INSERT
  8
REX_6
  2
5REX_MID_Jan_15_23-12-05
 10
0.0000
 20
0.0000
 30
0.0000
  0
ARC
  6
continous
  8
BYBLOCK
 10
0.0000
 20
30.5000
 30
0.0000
 40
2.4000
 50
180.0000
 51
360.0000
  0
ARC
  6
continous
  8
BYBLOCK
 10
0.0000
 20
30.5000
 30
0.0000
 40
2.4000
 50
0.0000
 51
180.0000
  0
LINE
  6
continous
  8
BYBLOCK
 10
0.8660
 20
32.0000
 30
0.0000
 11
-0.8660
 21
32.0000
 31
0.0000
  0
LINE
  6
continous
  8
BYBLOCK
 10
-0.8660
 20
32.0000
 30
0.0000
 11
-1.7321
 21
30.5000
 31
0.0000
  0
LINE
  6
continous
  8
BYBLOCK
 10
-1.7321
 20
30.5000
 30
0.0000
 11
-0.8660
 21
29.0000
 31
0.0000
  0
LINE
  6
continous
  8
BYBLOCK
 10
-0.8660
 20
29.0000
 30
0.0000
 11
0.8660
 21
29.0000
 31
0.0000
  0
LINE
  6
continous
  8
BYBLOCK
 10
0.8660
 20
29.0000
 30
0.0000
 11
1.7321
 21
30.5000
 31
0.0000
  0
LINE
  6
continous
  8
BYBLOCK
 10
1.7321
 20
30.5000
 30
0.0000
 11
0.8660
 21
32.0000
 31
0.0000
  0
ARC
  6
continous
  8
BYBLOCK
 10
0.0000
 20
30.5000
 30
0.0000
 40
2.2500
 50
0.0000
 51
180.0000
  0
ARC
  6
continous
  8
BYBLOCK
 10
0.0000
 20
30.5000
 30
0.0000
 40
2.2500
 50
180.0000
 51
360.0000
  0
LINE
  6
continous
  8
BYBLOCK
 10
2.9983
 20
30.5000
 30
0.0000
 11
2.2500
 21
30.5000
 31
0.0000
  0
LINE
  6
continous
  8
BYBLOCK
 10
-2.9983
 20
30.5000
 30
0.0000
 11
-2.2500
 21
30.5000
 31
0.0000
  0
ARC
  6
continous
  8
BYBLOCK
 10
0.0000
 20
30.5000
 30
0.0000
 40
3.0000
 50
0.9549
 51
179.0449
  0
ARC
  6
continous
  8
BYBLOCK
 10
10.3000
 20
18.5500
 30
0.0000
 40
2.4500
 50
100.5838
 51
168.8122
  0
POLYLINE
  6
continous
  8
BYBLOCK
 70
0
 66
1
  0
VERTEX
  8
0
 10
9.8500
 20
20.9583
 30
0.0000
  0
VERTEX
  8
0
 10
9.3500
 20
21.3428
 30
0.0000
  0
SEQEND
  0
LINE
  6
continous
  8
BYBLOCK
 10
9.8500
 20
20.9583
 30
0.0000
 11
9.8500
 21
23.7550
 31
0.0000
  0
LINE
  6
continous
  8
BYBLOCK
 10
9.6025
 20
24.0025
 30
0.0000
 11
9.8500
 21
23.7550
 31
0.0000
  0
ARC
  6
continous
  8
BYBLOCK
 10
10.3000
 20
10.6500
 30
0.0000
 40
2.4500
 50
191.1879
 51
259.4162
  0
POLYLINE
  6
continous
  8
BYBLOCK
 70
0
 66
1
  0
VERTEX
  8
0
 10
9.8500
 20
8.2417
 30
0.0000
  0
VERTEX
  8
0
 10
9.3500
 20
7.8572
 30
0.0000
  0
SEQEND
  0
LINE
  6
continous
  8
BYBLOCK
 10
9.8500
 20
5.9000
 30
0.0000
 11
9.8500
 21
8.2417
 31
0.0000
  0
LINE
  6
continous
  8
BYBLOCK
 10
9.8500
 20
5.9000
 30
0.0000
 11
9.3500
 21
5.6113
 31
0.0000
  0
LINE
  6
continous
  8
BYBLOCK
 10
11.5000
 20
4.9474
 30
0.0000
 11
9.8500
 21
5.9000
 31
0.0000
  0
LINE
  6
continous
  8
BYBLOCK
 10
11.5000
 20
4.9474
 30
0.0000
 11
11.0000
 21
4.6587
 31
0.0000
  0
LINE
  6
continous
  8
BYBLOCK
 10
11.5000
 20
1.2000
 30
0.0000
 11
11.5000
 21
4.9474
 31
0.0000
  0
LINE
  6
continous
  8
BYBLOCK
 10
11.5000
 20
1.2000
 30
0.0000
 11
11.0000
 21
1.4071
 31
0.0000
  0
LINE
  6
continous
  8
BYBLOCK
 10
10.3000
 20
0.0000
 30
0.0000
 11
11.5000
 21
1.2000
 31
0.0000
  0
LINE
  6
continous
  8
BYBLOCK
 10
10.3000
 20
0.0000
 30
0.0000
 11
10.0929
 21
0.5000
 31
0.0000
  0
LINE
  6
continous
  8
BYBLOCK
 10
-10.3000
 20
0.0000
 30
0.0000
 11
10.3000
 21
0.0000
 31
0.0000
  0
LINE
  6
continous
  8
BYBLOCK
 10
-10.3000
 20
0.0000
 30
0.0000
 11
-10.0929
 21
0.5000
 31
0.0000
  0
LINE
  6
continous
  8
BYBLOCK
 10
-11.5000
 20
1.2000
 30
0.0000
 11
-10.3000
 21
0.0000
 31
0.0000
  0
LINE
  6
continous
  8
BYBLOCK
 10
-11.5000
 20
1.2000
 30
0.0000
 11
-11.0000
 21
1.4071
 31
0.0000
  0
LINE
  6
continous
  8
BYBLOCK
 10
-11.5000
 20
4.9474
 30
0.0000
 11
-11.5000
 21
1.2000
 31
0.0000
  0
LINE
  6
continous
  8
BYBLOCK
 10
-11.5000
 20
4.9474
 30
0.0000
 11
-11.0000
 21
4.6587
 31
0.0000
  0
LINE
  6
continous
  8
BYBLOCK
 10
-9.8500
 20
5.9000
 30
0.0000
 11
-11.5000
 21
4.9474
 31
0.0000
  0
LINE
  6
continous
  8
BYBLOCK
 10
-9.8500
 20
5.9000
 30
0.0000
 11
-9.3500
 21
5.6113
 31
0.0000
  0
LINE
  6
continous
  8
BYBLOCK
 10
-9.8500
 20
8.2417
 30
0.0000
 11
-9.8500
 21
5.9000
 31
0.0000
  0
POLYLINE
  6
continous
  8
BYBLOCK
 70
0
 66
1
  0
VERTEX
  8
0
 10
-9.8500
 20
8.2417
 30
0.0000
  0
VERTEX
  8
0
 10
-9.3500
 20
7.8572
 30
0.0000
  0
SEQEND
  0
ARC
  6
continous
  8
BYBLOCK
 10
-10.3000
 20
10.6500
 30
0.0000
 40
2.4500
 50
280.5838
 51
348.8122
  0
POLYLINE
  6
continous
  8
BYBLOCK
 70
0
 66
1
  0
VERTEX
  8
0
 10
-7.8966
 20
10.1746
 30
0.0000
  0
VERTEX
  8
0
 10
-7.4609
 20
9.8488
 30
0.0000
  0
SEQEND
  0
LINE
  6
continous
  8
BYBLOCK
 10
-6.9000
 20
10.7500
 30
0.0000
 11
-7.8966
 21
10.1746
 31
0.0000
  0
LINE
  6
continous
  8
BYBLOCK
 10
-6.9000
 20
10.7500
 30
0.0000
 11
-6.4000
 21
10.4613
 31
0.0000
  0
LINE
  6
continous
  8
BYBLOCK
 10
-6.9000
 20
18.4500
 30
0.0000
 11
-6.9000
 21
10.7500
 31
0.0000
  0
LINE
  6
continous
  8
BYBLOCK
 10
-6.9000
 20
18.4500
 30
0.0000
 11
-6.4000
 21
18.7387
 31
0.0000
  0
LINE
  6
continous
  8
BYBLOCK
 10
-7.8966
 20
19.0254
 30
0.0000
 11
-6.9000
 21
18.4500
 31
0.0000
  0
POLYLINE
  6
continous
  8
BYBLOCK
 70
0
 66
1
  0
VERTEX
  8
0
 10
-7.8966
 20
19.0254
 30
0.0000
  0
VERTEX
  8
0
 10
-7.4609
 20
19.3512
 30
0.0000
  0
SEQEND
  0
ARC
  6
continous
  8
BYBLOCK
 10
-10.3000
 20
18.5500
 30
0.0000
 40
2.4500
 50
11.1879
 51
79.4162
  0
POLYLINE
  6
continous
  8
BYBLOCK
 70
0
 66
1
  0
VERTEX
  8
0
 10
-9.8500
 20
20.9583
 30
0.0000
  0
VERTEX
  8
0
 10
-9.3500
 20
21.3428
 30
0.0000
  0
SEQEND
  0
LINE
  6
continous
  8
BYBLOCK
 10
-9.8500
 20
23.7550
 30
0.0000
 11
-9.8500
 21
20.9583
 31
0.0000
  0
LINE
  6
continous
  8
BYBLOCK
 10
-9.8500
 20
23.7550
 30
0.0000
 11
-9.6025
 21
24.0025
 31
0.0000
  0
LINE
  6
continous
  8
BYBLOCK
 10
9.3550
 20
24.2500
 30
0.0000
 11
-9.3550
 21
24.2500
 31
0.0000
  0
LINE
  6
continous
  8
BYBLOCK
 10
9.3550
 20
24.2500
 30
0.0000
 11
9.6025
 21
24.0025
 31
0.0000
  0
LINE
  6
continous
  8
BYBLOCK
 10
9.6025
 20
24.0025
 30
0.0000
 11
9.3500
 21
23.7500
 31
0.0000
  0
LINE
  6
continous
  8
BYBLOCK
 10
-9.6025
 20
24.0025
 30
0.0000
 11
-9.3500
 21
23.7500
 31
0.0000
  0
LINE
  6
continous
  8
BYBLOCK
 10
-9.6025
 20
24.0025
 30
0.0000
 11
-9.3550
 21
24.2500
 31
0.0000
  0
LINE
  6
continous
  8
BYBLOCK
 10
9.3500
 20
21.3428
 30
0.0000
 11
9.3500
 21
23.7500
 31
0.0000
  0
ARC
  6
continous
  8
BYBLOCK
 10
10.3000
 20
18.5500
 30
0.0000
 40
2.9500
 50
108.7860
 51
164.2415
  0
ARC
  6
continous
  8
BYBLOCK
 10
10.3000
 20
10.6500
 30
0.0000
 40
2.9500
 50
195.7586
 51
251.2140
  0
LINE
  6
continous
  8
BYBLOCK
 10
9.3500
 20
5.6113
 30
0.0000
 11
9.3500
 21
7.8572
 31
0.0000
  0
LINE
  6
continous
  8
BYBLOCK
 10
11.0000
 20
4.6587
 30
0.0000
 11
9.3500
 21
5.6113
 31
0.0000
  0
LINE
  6
continous
  8
BYBLOCK
 10
11.0000
 20
1.4071
 30
0.0000
 11
11.0000
 21
4.6587
 31
0.0000
  0
LINE
  6
continous
  8
BYBLOCK
 10
10.0929
 20
0.5000
 30
0.0000
 11
11.0000
 21
1.4071
 31
0.0000
  0
LINE
  6
continous
  8
BYBLOCK
 10
-10.0929
 20
0.5000
 30
0.0000
 11
10.0929
 21
0.5000
 31
0.0000
  0
LINE
  6
continous
  8
BYBLOCK
 10
-11.0000
 20
1.4071
 30
0.0000
 11
-10.0929
 21
0.5000
 31
0.0000
  0
LINE
  6
continous
  8
BYBLOCK
 10
-11.0000
 20
4.6587
 30
0.0000
 11
-11.0000
 21
1.4071
 31
0.0000
  0
LINE
  6
continous
  8
BYBLOCK
 10
-9.3500
 20
5.6113
 30
0.0000
 11
-11.0000
 21
4.6587
 31
0.0000
  0
LINE
  6
continous
  8
BYBLOCK
 10
-9.3500
 20
7.8572
 30
0.0000
 11
-9.3500
 21
5.6113
 31
0.0000
  0
ARC
  6
continous
  8
BYBLOCK
 10
-10.3000
 20
10.6500
 30
0.0000
 40
2.9500
 50
288.7860
 51
344.2415
  0
LINE
  6
continous
  8
BYBLOCK
 10
-6.4000
 20
10.4613
 30
0.0000
 11
-7.4609
 21
9.8488
 31
0.0000
  0
LINE
  6
continous
  8
BYBLOCK
 10
-6.4000
 20
18.7387
 30
0.0000
 11
-6.4000
 21
10.4613
 31
0.0000
  0
LINE
  6
continous
  8
BYBLOCK
 10
-7.4609
 20
19.3512
 30
0.0000
 11
-6.4000
 21
18.7387
 31
0.0000
  0
ARC
  6
continous
  8
BYBLOCK
 10
-10.3000
 20
18.5500
 30
0.0000
 40
2.9500
 50
15.7586
 51
71.2140
  0
LINE
  6
continous
  8
BYBLOCK
 10
-9.3500
 20
23.7500
 30
0.0000
 11
-9.3500
 21
21.3428
 31
0.0000
  0
LINE
  6
continous
  8
BYBLOCK
 10
9.3500
 20
23.7500
 30
0.0000
 11
-9.3500
 21
23.7500
 31
0.0000
  0
LINE
  6
continous
  8
BYBLOCK
 10
7.8966
 20
10.1746
 30
0.0000
 11
6.9000
 21
10.7500
 31
0.0000
  0
POLYLINE
  6
continous
  8
BYBLOCK
 70
0
 66
1
  0
VERTEX
  8
0
 10
7.8966
 20
10.1746
 30
0.0000
  0
VERTEX
  8
0
 10
7.4609
 20
9.8488
 30
0.0000
  0
SEQEND
  0
LINE
  6
continous
  8
BYBLOCK
 10
7.4609
 20
9.8488
 30
0.0000
 11
6.4000
 21
10.4613
 31
0.0000
  0
LINE
  6
continous
  8
BYBLOCK
 10
6.9000
 20
10.7500
 30
0.0000
 11
6.4000
 21
10.4613
 31
0.0000
  0
LINE
  6
continous
  8
BYBLOCK
 10
6.4000
 20
10.4613
 30
0.0000
 11
6.4000
 21
18.7387
 31
0.0000
  0
LINE
  6
continous
  8
BYBLOCK
 10
6.9000
 20
10.7500
 30
0.0000
 11
6.9000
 21
18.4500
 31
0.0000
  0
LINE
  6
continous
  8
BYBLOCK
 10
6.9000
 20
18.4500
 30
0.0000
 11
6.4000
 21
18.7387
 31
0.0000
  0
LINE
  6
continous
  8
BYBLOCK
 10
6.4000
 20
18.7387
 30
0.0000
 11
7.4609
 21
19.3512
 31
0.0000
  0
POLYLINE
  6
continous
  8
BYBLOCK
 70
0
 66
1
  0
VERTEX
  8
0
 10
7.8966
 20
19.0254
 30
0.0000
  0
VERTEX
  8
0
 10
7.4609
 20
19.3512
 30
0.0000
  0
SEQEND
  0
LINE
  6
continous
  8
BYBLOCK
 10
6.9000
 20
18.4500
 30
0.0000
 11
7.8966
 21
19.0254
 31
0.0000
  0
LINE
  6
continous
  8
BYBLOCK
 10
23.3134
 20
28.1000
 30
0.0000
 11
23.3134
 21
30.5000
 31
0.0000
  0
LINE
  6
continous
  8
BYBLOCK
 10
23.3134
 20
30.5000
 30
0.0000
 11
23.2000
 21
30.5000
 31
0.0000
  0
LINE
  6
continous
  8
BYBLOCK
 10
23.3134
 20
30.5000
 30
0.0000
 11
23.3134
 21
32.9000
 31
0.0000
  0
LINE
  6
continous
  8
BYBLOCK
 10
23.2000
 20
30.5000
 30
0.0000
 11
23.3134
 21
30.5000
 31
0.0000
  0
LINE
  6
continous
  8
BYBLOCK
 10
23.4000
 20
32.7500
 30
0.0000
 11
23.2000
 21
33.0964
 31
0.0000
  0
LINE
  6
continous
  8
BYBLOCK
 10
23.2000
 20
27.9036
 30
0.0000
 11
23.4000
 21
28.2500
 31
0.0000
  0
LINE
  6
continous
  8
BYBLOCK
 10
23.4000
 20
30.5000
 30
0.0000
 11
23.4000
 21
32.7500
 31
0.0000
  0
LINE
  6
continous
  8
BYBLOCK
 10
23.4000
 20
30.5000
 30
0.0000
 11
23.4000
 21
28.2500
 31
0.0000
  0
LINE
  6
continous
  8
BYBLOCK
 10
23.2000
 20
30.5000
 30
0.0000
 11
23.4000
 21
30.5000
 31
0.0000
  0
LINE
  6
continous
  8
BYBLOCK
 10
-23.3134
 20
30.5000
 30
0.0000
 11
-23.3134
 21
28.1000
 31
0.0000
  0
LINE
  6
continous
  8
BYBLOCK
 10
-23.2000
 20
30.5000
 30
0.0000
 11
-23.3134
 21
30.5000
 31
0.0000
  0
LINE
  6
continous
  8
BYBLOCK
 10
-23.3134
 20
30.5000
 30
0.0000
 11
-23.2000
 21
30.5000
 31
0.0000
  0
LINE
  6
continous
  8
BYBLOCK
 10
-23.3134
 20
32.9000
 30
0.0000
 11
-23.3134
 21
30.5000
 31
0.0000
  0
LINE
  6
continous
  8
BYBLOCK
 10
-23.2000
 20
33.0964
 30
0.0000
 11
-23.4000
 21
32.7500
 31
0.0000
  0
LINE
  6
continous
  8
BYBLOCK
 10
-23.4000
 20
28.2500
 30
0.0000
 11
-23.2000
 21
27.9036
 31
0.0000
  0
LINE
  6
continous
  8
BYBLOCK
 10
-23.4000
 20
32.7500
 30
0.0000
 11
-23.4000
 21
30.5000
 31
0.0000
  0
LINE
  6
continous
  8
BYBLOCK
 10
-23.4000
 20
28.2500
 30
0.0000
 11
-23.4000
 21
30.5000
 31
0.0000
  0
LINE
  6
continous
  8
BYBLOCK
 10
-23.2000
 20
30.5000
 30
0.0000
 11
-23.4000
 21
30.5000
 31
0.0000
  0
POLYLINE
  6
continous
  8
BYBLOCK
 70
0
 66
1
  0
VERTEX
  8
0
 10
-17.9500
 20
24.6000
 30
0.0000
  0
VERTEX
  8
0
 10
-17.9788
 20
24.8612
 30
0.0000
  0
VERTEX
  8
0
 10
-18.0637
 20
25.1099
 30
0.0000
  0
VERTEX
  8
0
 10
-18.2008
 20
25.3342
 30
0.0000
  0
VERTEX
  8
0
 10
-18.3834
 20
25.5232
 30
0.0000
  0
VERTEX
  8
0
 10
-18.6027
 20
25.6679
 30
0.0000
  0
VERTEX
  8
0
 10
-18.8484
 20
25.7615
 30
0.0000
  0
VERTEX
  8
0
 10
-19.1084
 20
25.7993
 30
0.0000
  0
VERTEX
  8
0
 10
-19.3705
 20
25.7796
 30
0.0000
  0
VERTEX
  8
0
 10
-19.6220
 20
25.7033
 30
0.0000
  0
VERTEX
  8
0
 10
-19.8508
 20
25.5741
 30
0.0000
  0
VERTEX
  8
0
 10
-20.0461
 20
25.3981
 30
0.0000
  0
VERTEX
  8
0
 10
-20.1983
 20
25.1839
 30
0.0000
  0
VERTEX
  8
0
 10
-20.3003
 20
24.9417
 30
0.0000
  0
VERTEX
  8
0
 10
-20.3471
 20
24.6831
 30
0.0000
  0
VERTEX
  8
0
 10
-20.3500
 20
24.6000
 30
0.0000
  0
SEQEND
  0
ARC
  6
continous
  8
BYBLOCK
 10
-19.1500
 20
24.6000
 30
0.0000
 40
1.5000
 50
0.0000
 51
180.0000
  0
ARC
  6
continous
  8
BYBLOCK
 10
-19.1500
 20
24.6000
 30
0.0000
 40
1.5000
 50
180.0000
 51
360.0000
  0
POLYLINE
  6
continous
  8
BYBLOCK
 70
0
 66
1
  0
VERTEX
  8
0
 10
20.3500
 20
24.6000
 30
0.0000
  0
VERTEX
  8
0
 10
20.3212
 20
24.8612
 30
0.0000
  0
VERTEX
  8
0
 10
20.2363
 20
25.1099
 30
0.0000
  0
VERTEX
  8
0
 10
20.0992
 20
25.3342
 30
0.0000
  0
VERTEX
  8
0
 10
19.9166
 20
25.5232
 30
0.0000
  0
VERTEX
  8
0
 10
19.6973
 20
25.6679
 30
0.0000
  0
VERTEX
  8
0
 10
19.4516
 20
25.7615
 30
0.0000
  0
VERTEX
  8
0
 10
19.1916
 20
25.7993
 30
0.0000
  0
VERTEX
  8
0
 10
18.9295
 20
25.7796
 30
0.0000
  0
VERTEX
  8
0
 10
18.6780
 20
25.7033
 30
0.0000
  0
VERTEX
  8
0
 10
18.4492
 20
25.5741
 30
0.0000
  0
VERTEX
  8
0
 10
18.2539
 20
25.3981
 30
0.0000
  0
VERTEX
  8
0
 10
18.1017
 20
25.1839
 30
0.0000
  0
VERTEX
  8
0
 10
17.9997
 20
24.9417
 30
0.0000
  0
VERTEX
  8
0
 10
17.9529
 20
24.6831
 30
0.0000
  0
VERTEX
  8
0
 10
17.9500
 20
24.6000
 30
0.0000
  0
SEQEND
  0
ARC
  6
continous
  8
BYBLOCK
 10
19.1500
 20
24.6000
 30
0.0000
 40
1.5000
 50
0.0000
 51
180.0000
  0
ARC
  6
continous
  8
BYBLOCK
 10
19.1500
 20
24.6000
 30
0.0000
 40
1.5000
 50
180.0000
 51
360.0000
  0
LINE
  6
continous
  8
BYBLOCK
 10
23.2000
 20
34.3232
 30
0.0000
 11
23.4000
 21
34.3232
 31
0.0000
  0
LINE
  6
continous
  8
BYBLOCK
 10
23.4000
 20
26.9887
 30
0.0000
 11
23.2000
 21
26.9887
 31
0.0000
  0
LINE
  6
continous
  8
BYBLOCK
 10
-23.4000
 20
34.3232
 30
0.0000
 11
-23.2000
 21
34.3232
 31
0.0000
  0
LINE
  6
continous
  8
BYBLOCK
 10
-23.2000
 20
26.9887
 30
0.0000
 11
-23.4000
 21
26.9887
 31
0.0000
  0
LINE
  6
continous
  8
BYBLOCK
 10
-19.1500
 20
24.6000
 30
0.0000
 11
-17.9500
 21
24.6000
 31
0.0000
  0
LINE
  6
continous
  8
BYBLOCK
 10
-19.1500
 20
24.6000
 30
0.0000
 11
-20.3500
 21
24.6000
 31
0.0000
  0
LINE
  6
continous
  8
BYBLOCK
 10
19.1500
 20
24.6000
 30
0.0000
 11
20.3500
 21
24.6000
 31
0.0000
  0
LINE
  6
continous
  8
BYBLOCK
 10
19.1500
 20
24.6000
 30
0.0000
 11
17.9500
 21
24.6000
 31
0.0000
  0
ARC
  6
continous
  8
BYBLOCK
 10
-19.1500
 20
24.6000
 30
0.0000
 40
3.9500
 50
180.0000
 51
360.0000
  0
ARC
  6
continous
  8
BYBLOCK
 10
-19.1500
 20
24.6000
 30
0.0000
 40
3.9500
 50
0.0000
 51
180.0000
  0
LINE
  6
continous
  8
BYBLOCK
 10
-23.4000
 20
22.3750
 30
0.0000
 11
-23.0038
 21
22.3750
 31
0.0000
  0
LINE
  6
continous
  8
BYBLOCK
 10
-23.4000
 20
26.8250
 30
0.0000
 11
-23.0038
 21
26.8250
 31
0.0000
  0
ARC
  6
continous
  8
BYBLOCK
 10
-19.1500
 20
24.6000
 30
0.0000
 40
4.4500
 50
360.0000
 51
150.0000
  0
LINE
  6
continous
  8
BYBLOCK
 10
5.9858
 20
34.5500
 30
0.0000
 11
5.7358
 21
34.8000
 31
0.0000
  0
LINE
  6
continous
  8
BYBLOCK
 10
5.7358
 20
34.8000
 30
0.0000
 11
-5.7358
 21
34.8000
 31
0.0000
  0
LINE
  6
continous
  8
BYBLOCK
 10
-5.7358
 20
34.8000
 30
0.0000
 11
-5.9858
 21
34.5500
 31
0.0000
  0
ARC
  6
continous
  8
BYBLOCK
 10
-22.9000
 20
35.3000
 30
0.0000
 40
0.5000
 50
150.0000
 51
180.0000
  0
LINE
  6
continous
  8
BYBLOCK
 10
-23.3330
 20
35.5500
 30
0.0000
 11
-6.4000
 21
35.5500
 31
0.0000
  0
LINE
  6
continous
  8
BYBLOCK
 10
-6.4000
 20
35.5500
 30
0.0000
 11
-6.1500
 21
35.8000
 31
0.0000
  0
LINE
  6
continous
  8
BYBLOCK
 10
6.1500
 20
35.8000
 30
0.0000
 11
-6.1500
 21
35.8000
 31
0.0000
  0
LINE
  6
continous
  8
BYBLOCK
 10
23.4000
 20
34.5500
 30
0.0000
 11
5.9858
 21
34.5500
 31
0.0000
  0
ARC
  6
continous
  8
BYBLOCK
 10
19.1500
 20
24.6000
 30
0.0000
 40
3.9500
 50
180.0000
 51
360.0000
  0
ARC
  6
continous
  8
BYBLOCK
 10
19.1500
 20
24.6000
 30
0.0000
 40
3.9500
 50
0.0000
 51
180.0000
  0
ARC
  6
continous
  8
BYBLOCK
 10
19.1500
 20
24.6000
 30
0.0000
 40
4.4500
 50
30.0000
 51
180.0000
  0
LINE
  6
continous
  8
BYBLOCK
 10
23.4000
 20
26.8250
 30
0.0000
 11
23.0038
 21
26.8250
 31
0.0000
  0
LINE
  6
continous
  8
BYBLOCK
 10
23.4000
 20
22.3750
 30
0.0000
 11
23.0038
 21
22.3750
 31
0.0000
  0
LINE
  6
continous
  8
BYBLOCK
 10
20.4929
 20
6.9071
 30
0.0000
 11
23.4000
 21
9.8142
 31
0.0000
  0
LINE
  6
continous
  8
BYBLOCK
 10
21.2000
 20
6.2000
 30
0.0000
 11
23.4000
 21
8.4000
 31
0.0000
  0
LINE
  6
continous
  8
BYBLOCK
 10
9.8500
 20
6.2000
 30
0.0000
 11
21.2000
 21
6.2000
 31
0.0000
  0
LINE
  6
continous
  8
BYBLOCK
 10
9.8500
 20
8.2417
 30
0.0000
 11
9.8500
 21
8.3417
 31
0.0000
  0
ARC
  6
continous
  8
BYBLOCK
 10
10.3000
 20
10.7500
 30
0.0000
 40
2.4500
 50
191.1878
 51
259.4162
  0
LINE
  6
continous
  8
BYBLOCK
 10
7.8966
 20
10.2746
 30
0.0000
 11
6.9000
 21
10.8500
 31
0.0000
  0
LINE
  6
continous
  8
BYBLOCK
 10
9.8500
 20
23.7551
 30
0.0000
 11
9.8500
 21
23.8550
 31
0.0000
  0
LINE
  6
continous
  8
BYBLOCK
 10
9.8500
 20
23.8550
 30
0.0000
 11
9.3550
 21
24.3500
 31
0.0000
  0
LINE
  6
continous
  8
BYBLOCK
 10
9.3550
 20
24.3500
 30
0.0000
 11
-9.3550
 21
24.3500
 31
0.0000
  0
LINE
  6
continous
  8
BYBLOCK
 10
-9.3550
 20
24.3500
 30
0.0000
 11
-9.8500
 21
23.8550
 31
0.0000
  0
LINE
  6
continous
  8
BYBLOCK
 10
-9.8500
 20
23.8550
 30
0.0000
 11
-9.8500
 21
21.0583
 31
0.0000
  0
LINE
  6
continous
  8
BYBLOCK
 10
-6.9000
 20
18.4500
 30
0.0000
 11
-6.9000
 21
10.8500
 31
0.0000
  0
LINE
  6
continous
  8
BYBLOCK
 10
-6.9000
 20
10.8500
 30
0.0000
 11
-7.8966
 21
10.2746
 31
0.0000
  0
ARC
  6
continous
  8
BYBLOCK
 10
-10.3000
 20
10.7500
 30
0.0000
 40
2.4500
 50
280.5838
 51
348.8122
  0
LINE
  6
continous
  8
BYBLOCK
 10
-9.8500
 20
6.2000
 30
0.0000
 11
-9.8500
 21
8.3417
 31
0.0000
  0
LINE
  6
continous
  8
BYBLOCK
 10
-21.2000
 20
6.2000
 30
0.0000
 11
-9.8500
 21
6.2000
 31
0.0000
  0
LINE
  6
continous
  8
BYBLOCK
 10
-23.4000
 20
8.4000
 30
0.0000
 11
-21.2000
 21
6.2000
 31
0.0000
  0
LINE
  6
continous
  8
BYBLOCK
 10
-23.4000
 20
9.8142
 30
0.0000
 11
-20.4929
 21
6.9071
 31
0.0000
  0
LINE
  6
continous
  8
BYBLOCK
 10
-20.4929
 20
6.9071
 30
0.0000
 11
-10.3500
 21
6.9071
 31
0.0000
  0
LINE
  6
continous
  8
BYBLOCK
 10
-10.3500
 20
6.9071
 30
0.0000
 11
-10.3500
 21
8.8006
 31
0.0000
  0
ARC
  6
continous
  8
BYBLOCK
 10
-10.3000
 20
10.7500
 30
0.0000
 40
1.9500
 50
268.5307
 51
355.1819
  0
LINE
  6
continous
  8
BYBLOCK
 10
-8.3569
 20
10.5862
 30
0.0000
 11
-7.4000
 21
11.1387
 31
0.0000
  0
LINE
  6
continous
  8
BYBLOCK
 10
-7.4000
 20
11.1387
 30
0.0000
 11
-7.4000
 21
18.2613
 31
0.0000
  0
LINE
  6
continous
  8
BYBLOCK
 10
-7.4000
 20
18.2613
 30
0.0000
 11
-8.3569
 21
18.8138
 31
0.0000
  0
ARC
  6
continous
  8
BYBLOCK
 10
-10.3000
 20
18.6500
 30
0.0000
 40
1.9500
 50
4.8181
 51
91.4693
  0
LINE
  6
continous
  8
BYBLOCK
 10
-10.3500
 20
20.5994
 30
0.0000
 11
-10.3500
 21
24.0621
 31
0.0000
  0
LINE
  6
continous
  8
BYBLOCK
 10
-10.3500
 20
24.0621
 30
0.0000
 11
-9.5621
 21
24.8500
 31
0.0000
  0
LINE
  6
continous
  8
BYBLOCK
 10
-9.5621
 20
24.8500
 30
0.0000
 11
9.5621
 21
24.8500
 31
0.0000
  0
LINE
  6
continous
  8
BYBLOCK
 10
9.5621
 20
24.8500
 30
0.0000
 11
10.3500
 21
24.0621
 31
0.0000
  0
LINE
  6
continous
  8
BYBLOCK
 10
10.3500
 20
24.0621
 30
0.0000
 11
10.3500
 21
20.5994
 31
0.0000
  0
ARC
  6
continous
  8
BYBLOCK
 10
10.3000
 20
18.6500
 30
0.0000
 40
1.9500
 50
88.5307
 51
175.1819
  0
LINE
  6
continous
  8
BYBLOCK
 10
8.3569
 20
18.8138
 30
0.0000
 11
7.4000
 21
18.2613
 31
0.0000
  0
LINE
  6
continous
  8
BYBLOCK
 10
7.4000
 20
18.2613
 30
0.0000
 11
7.4000
 21
11.1387
 31
0.0000
  0
LINE
  6
continous
  8
BYBLOCK
 10
7.4000
 20
11.1387
 30
0.0000
 11
8.3569
 21
10.5862
 31
0.0000
  0
ARC
  6
continous
  8
BYBLOCK
 10
10.3000
 20
10.7500
 30
0.0000
 40
1.9500
 50
184.8181
 51
271.4693
  0
LINE
  6
continous
  8
BYBLOCK
 10
10.3500
 20
8.8006
 30
0.0000
 11
10.3500
 21
6.9071
 31
0.0000
  0
LINE
  6
continous
  8
BYBLOCK
 10
10.3500
 20
6.9071
 30
0.0000
 11
20.4929
 21
6.9071
 31
0.0000
  0
ARC
  6
continous
  8
BYBLOCK
 10
-19.1500
 20
24.6000
 30
0.0000
 40
1.2000
 50
0.0000
 51
180.0000
  0
ARC
  6
continous
  8
BYBLOCK
 10
-19.1500
 20
24.6000
 30
0.0000
 40
1.2000
 50
180.0000
 51
360.0000
  0
LINE
  6
continous
  8
BYBLOCK
 10
-16.2632
 20
24.6000
 30
0.0000
 11
-17.7066
 21
22.1000
 31
0.0000
  0
LINE
  6
continous
  8
BYBLOCK
 10
-17.7066
 20
22.1000
 30
0.0000
 11
-20.5934
 21
22.1000
 31
0.0000
  0
LINE
  6
continous
  8
BYBLOCK
 10
-20.5934
 20
22.1000
 30
0.0000
 11
-22.0368
 21
24.6000
 31
0.0000
  0
LINE
  6
continous
  8
BYBLOCK
 10
-22.0368
 20
24.6000
 30
0.0000
 11
-20.5934
 21
27.1000
 31
0.0000
  0
LINE
  6
continous
  8
BYBLOCK
 10
-20.5934
 20
27.1000
 30
0.0000
 11
-17.7066
 21
27.1000
 31
0.0000
  0
LINE
  6
continous
  8
BYBLOCK
 10
-17.7066
 20
27.1000
 30
0.0000
 11
-16.2632
 21
24.6000
 31
0.0000
  0
ARC
  6
continous
  8
BYBLOCK
 10
19.1500
 20
24.6000
 30
0.0000
 40
1.2000
 50
0.0000
 51
180.0000
  0
ARC
  6
continous
  8
BYBLOCK
 10
19.1500
 20
24.6000
 30
0.0000
 40
1.2000
 50
180.0000
 51
360.0000
  0
LINE
  6
continous
  8
BYBLOCK
 10
20.5934
 20
27.1000
 30
0.0000
 11
22.0368
 21
24.6000
 31
0.0000
  0
LINE
  6
continous
  8
BYBLOCK
 10
22.0368
 20
24.6000
 30
0.0000
 11
20.5934
 21
22.1000
 31
0.0000
  0
LINE
  6
continous
  8
BYBLOCK
 10
20.5934
 20
22.1000
 30
0.0000
 11
17.7066
 21
22.1000
 31
0.0000
  0
LINE
  6
continous
  8
BYBLOCK
 10
17.7066
 20
22.1000
 30
0.0000
 11
16.2632
 21
24.6000
 31
0.0000
  0
LINE
  6
continous
  8
BYBLOCK
 10
16.2632
 20
24.6000
 30
0.0000
 11
17.7066
 21
27.1000
 31
0.0000
  0
LINE
  6
continous
  8
BYBLOCK
 10
17.7066
 20
27.1000
 30
0.0000
 11
20.5934
 21
27.1000
 31
0.0000
  0
LINE
  6
continous
  8
BYBLOCK
 10
-23.4000
 20
34.5500
 30
0.0000
 11
-5.9858
 21
34.5500
 31
0.0000
  0
LINE
  6
continous
  8
BYBLOCK
 10
-23.4000
 20
26.8250
 30
0.0000
 11
-23.4000
 21
22.3750
 31
0.0000
  0
LINE
  6
continous
  8
BYBLOCK
 10
-23.4000
 20
22.3750
 30
0.0000
 11
-23.4000
 21
21.3750
 31
0.0000
  0
LINE
  6
continous
  8
BYBLOCK
 10
-23.4000
 20
9.8142
 30
0.0000
 11
-23.4000
 21
8.4000
 31
0.0000
  0
LINE
  6
continous
  8
BYBLOCK
 10
-23.4000
 20
35.3000
 30
0.0000
 11
-23.4000
 21
34.5500
 31
0.0000
  0
LINE
  6
continous
  8
BYBLOCK
 10
-23.4000
 20
34.3232
 30
0.0000
 11
-23.4000
 21
34.5500
 31
0.0000
  0
LINE
  6
continous
  8
BYBLOCK
 10
-23.4000
 20
34.3232
 30
0.0000
 11
-23.4000
 21
30.6000
 31
0.0000
  0
LINE
  6
continous
  8
BYBLOCK
 10
-23.4000
 20
26.8250
 30
0.0000
 11
-23.4000
 21
26.9887
 31
0.0000
  0
LINE
  6
continous
  8
BYBLOCK
 10
2.9983
 20
30.6000
 30
0.0000
 11
3.0000
 21
30.6000
 31
0.0000
  0
LINE
  6
continous
  8
BYBLOCK
 10
-2.9983
 20
30.6000
 30
0.0000
 11
-3.0000
 21
30.6000
 31
0.0000
  0
ARC
  6
continous
  8
BYBLOCK
 10
0.0000
 20
30.6000
 30
0.0000
 40
3.0000
 50
0.0000
 51
180.0000
  0
ARC
  6
continous
  8
BYBLOCK
 10
0.0000
 20
30.6000
 30
0.0000
 40
3.0000
 50
180.0000
 51
360.0000
  0
LINE
  6
continous
  8
BYBLOCK
 10
23.2000
 20
26.8250
 30
0.0000
 11
23.2000
 21
34.5500
 31
0.0000
  0
LINE
  6
continous
  8
BYBLOCK
 10
23.2000
 20
9.8142
 30
0.0000
 11
23.2000
 21
22.3750
 31
0.0000
  0
LINE
  6
continous
  8
BYBLOCK
 10
-23.2000
 20
9.8142
 30
0.0000
 11
-23.2000
 21
22.3750
 31
0.0000
  0
LINE
  6
continous
  8
BYBLOCK
 10
-23.2000
 20
26.8250
 30
0.0000
 11
-23.2000
 21
34.5500
 31
0.0000
  0
LINE
  6
continous
  8
BYBLOCK
 10
23.4000
 20
9.8142
 30
0.0000
 11
23.2000
 21
9.8142
 31
0.0000
  0
LINE
  6
continous
  8
BYBLOCK
 10
23.4000
 20
21.3750
 30
0.0000
 11
23.4000
 21
22.3750
 31
0.0000
  0
LINE
  6
continous
  8
BYBLOCK
 10
23.4000
 20
22.3750
 30
0.0000
 11
23.4000
 21
26.8250
 31
0.0000
  0
LINE
  6
continous
  8
BYBLOCK
 10
23.4000
 20
26.9887
 30
0.0000
 11
23.4000
 21
26.8250
 31
0.0000
  0
LINE
  6
continous
  8
BYBLOCK
 10
23.4000
 20
32.7500
 30
0.0000
 11
23.4000
 21
34.3232
 31
0.0000
  0
LINE
  6
continous
  8
BYBLOCK
 10
23.4000
 20
34.5500
 30
0.0000
 11
23.4000
 21
34.3232
 31
0.0000
  0
LINE
  6
continous
  8
BYBLOCK
 10
23.4000
 20
34.5500
 30
0.0000
 11
23.4000
 21
35.3000
 31
0.0000
  0
LINE
  6
continous
  8
BYBLOCK
 10
23.4000
 20
8.4000
 30
0.0000
 11
23.4000
 21
9.8142
 31
0.0000
  0
LINE
  6
continous
  8
BYBLOCK
 10
23.4000
 20
9.8142
 30
0.0000
 11
23.4000
 21
20.8752
 31
0.0000
  0
ARC
  6
continous
  8
BYBLOCK
 10
22.9000
 20
35.3000
 30
0.0000
 40
0.5000
 50
0.0000
 51
30.0000
  0
LINE
  6
continous
  8
BYBLOCK
 10
23.3330
 20
35.5500
 30
0.0000
 11
6.4000
 21
35.5500
 31
0.0000
  0
LINE
  6
continous
  8
BYBLOCK
 10
6.1500
 20
35.8000
 30
0.0000
 11
6.4000
 21
35.5500
 31
0.0000
  0
LINE
  6
continous
  8
BYBLOCK
 10
-23.4000
 20
30.6000
 30
0.0000
 11
-23.4000
 21
26.9101
 31
0.0000
  0
ARC
  6
continous
  8
BYBLOCK
 10
19.1500
 20
24.6000
 30
0.0000
 40
4.4500
 50
180.0000
 51
330.0000
  0
LINE
  6
continous
  8
BYBLOCK
 10
23.4000
 20
26.9887
 30
0.0000
 11
23.4000
 21
28.2500
 31
0.0000
  0
LINE
  6
continous
  8
BYBLOCK
 10
23.4000
 20
20.8752
 30
0.0000
 11
23.2000
 21
20.8752
 31
0.0000
  0
LINE
  6
continous
  8
BYBLOCK
 10
23.4000
 20
20.8752
 30
0.0000
 11
23.4000
 21
21.3750
 31
0.0000
  0
ARC
  6
continous
  8
BYBLOCK
 10
-19.1500
 20
24.6000
 30
0.0000
 40
4.4500
 50
210.0000
 51
360.0000
  0
LINE
  6
continous
  8
BYBLOCK
 10
-23.4000
 20
21.3750
 30
0.0000
 11
-23.4000
 21
20.8752
 31
0.0000
  0
LINE
  6
continous
  8
BYBLOCK
 10
-23.4000
 20
20.8752
 30
0.0000
 11
-23.2000
 21
20.8752
 31
0.0000
  0
LINE
  6
continous
  8
BYBLOCK
 10
-23.4000
 20
9.8142
 30
0.0000
 11
-23.2000
 21
9.8142
 31
0.0000
  0
LINE
  6
continous
  8
BYBLOCK
 10
-23.4000
 20
20.8752
 30
0.0000
 11
-23.4000
 21
9.8142
 31
0.0000
  0
LINE
  6
continous
  8
BYBLOCK
 10
-10.7500
 20
6.1000
 30
0.0000
 11
-10.7500
 21
6.2000
 31
0.0000
  0
LINE
  6
continous
  8
BYBLOCK
 10
-10.7500
 20
6.1000
 30
0.0000
 11
-21.5000
 21
6.1000
 31
0.0000
  0
LINE
  6
continous
  8
BYBLOCK
 10
-21.5000
 20
6.1000
 30
0.0000
 11
-24.0000
 21
8.6000
 31
0.0000
  0
LINE
  6
continous
  8
BYBLOCK
 10
-24.0000
 20
8.6000
 30
0.0000
 11
-24.0000
 21
35.0000
 31
0.0000
  0
LINE
  6
continous
  8
BYBLOCK
 10
-24.0000
 20
35.0000
 30
0.0000
 11
-23.0000
 21
36.0000
 31
0.0000
  0
LINE
  6
continous
  8
BYBLOCK
 10
-23.0000
 20
36.0000
 30
0.0000
 11
23.0000
 21
36.0000
 31
0.0000
  0
LINE
  6
continous
  8
BYBLOCK
 10
23.0000
 20
36.0000
 30
0.0000
 11
24.0000
 21
35.0000
 31
0.0000
  0
LINE
  6
continous
  8
BYBLOCK
 10
24.0000
 20
35.0000
 30
0.0000
 11
24.0000
 21
28.8000
 31
0.0000
  0
LINE
  6
continous
  8
BYBLOCK
 10
24.0000
 20
28.8000
 30
0.0000
 11
23.7000
 21
28.5000
 31
0.0000
  0
LINE
  6
continous
  8
BYBLOCK
 10
23.7000
 20
28.5000
 30
0.0000
 11
23.7000
 21
8.3000
 31
0.0000
  0
LINE
  6
continous
  8
BYBLOCK
 10
23.7000
 20
8.3000
 30
0.0000
 11
21.5000
 21
6.1000
 31
0.0000
  0
LINE
  6
continous
  8
BYBLOCK
 10
21.5000
 20
6.1000
 30
0.0000
 11
10.7500
 21
6.1000
 31
0.0000
  0
LINE
  6
continous
  8
BYBLOCK
 10
10.7500
 20
6.1000
 30
0.0000
 11
10.7500
 21
6.2000
 31
0.0000
  0
ENDBLK
  8
0
  0
BLOCK
  8
REX_7
  2
2REX_MID_Jan_15_23-12-05
 70
0
 10
0.0000
 20
0.0000
 30
0.0000
  3
2REX_MID_Jan_15_23-12-05
  0
ENDBLK
  8
0
  0
BLOCK
  8
REX_1
  2
_VIEW_2_Jan_15_23-12-05
 70
0
 10
0.0000
 20
0.0000
 30
0.0000
  3
_VIEW_2_Jan_15_23-12-05
  0
INSERT
  8
REX_6
  2
2REX_MID_Jan_15_23-12-05
 10
0.0000
 20
0.0000
 30
0.0000
  0
LINE
  6
continous
  8
BYBLOCK
 10
43.0640
 20
29.0500
 30
0.0000
 11
43.0135
 21
30.4970
 31
0.0000
  0
LINE
  6
continous
  8
BYBLOCK
 10
43.0135
 20
30.4970
 30
0.0000
 11
42.9000
 21
30.4930
 31
0.0000
  0
LINE
  6
continous
  8
BYBLOCK
 10
43.0135
 20
30.4970
 30
0.0000
 11
42.9297
 21
32.8955
 31
0.0000
  0
LINE
  6
continous
  8
BYBLOCK
 10
42.9000
 20
30.4930
 30
0.0000
 11
43.0135
 21
30.4970
 31
0.0000
  0
LINE
  6
continous
  8
BYBLOCK
 10
43.0215
 20
32.7486
 30
0.0000
 11
42.9000
 21
32.9430
 31
0.0000
  0
LINE
  6
continous
  8
BYBLOCK
 10
43.0998
 20
28.1033
 30
0.0000
 11
43.1785
 21
28.2514
 31
0.0000
  0
LINE
  6
continous
  8
BYBLOCK
 10
43.1000
 20
30.5000
 30
0.0000
 11
43.0215
 21
32.7486
 31
0.0000
  0
LINE
  6
continous
  8
BYBLOCK
 10
43.1000
 20
30.5000
 30
0.0000
 11
43.1785
 21
28.2514
 31
0.0000
  0
LINE
  6
continous
  8
BYBLOCK
 10
42.9000
 20
30.4930
 30
0.0000
 11
43.1000
 21
30.5000
 31
0.0000
  0
LINE
  6
continous
  8
BYBLOCK
 10
-43.0134
 20
30.5000
 30
0.0000
 11
-43.0134
 21
29.0500
 31
0.0000
  0
LINE
  6
continous
  8
BYBLOCK
 10
-42.9000
 20
30.5000
 30
0.0000
 11
-43.0134
 21
30.5000
 31
0.0000
  0
LINE
  6
continous
  8
BYBLOCK
 10
-43.0134
 20
30.5000
 30
0.0000
 11
-42.9000
 21
30.5000
 31
0.0000
  0
LINE
  6
continous
  8
BYBLOCK
 10
-43.0134
 20
32.9000
 30
0.0000
 11
-43.0134
 21
30.5000
 31
0.0000
  0
LINE
  6
continous
  8
BYBLOCK
 10
-42.9000
 20
33.0964
 30
0.0000
 11
-43.1000
 21
32.7500
 31
0.0000
  0
LINE
  6
continous
  8
BYBLOCK
 10
-43.1000
 20
32.7500
 30
0.0000
 11
-43.1000
 21
30.5000
 31
0.0000
  0
LINE
  6
continous
  8
BYBLOCK
 10
-43.1000
 20
29.0500
 30
0.0000
 11
-43.1000
 21
30.5000
 31
0.0000
  0
LINE
  6
continous
  8
BYBLOCK
 10
-42.9000
 20
30.5000
 30
0.0000
 11
-43.1000
 21
30.5000
 31
0.0000
  0
LINE
  6
continous
  8
BYBLOCK
 10
-43.1000
 20
19.0254
 30
0.0000
 11
-67.2340
 21
19.0254
 31
0.0000
  0
LINE
  6
continous
  8
BYBLOCK
 10
68.1000
 20
19.0254
 30
0.0000
 11
43.1000
 21
19.0254
 31
0.0000
  0
LINE
  6
continous
  8
BYBLOCK
 10
-67.2340
 20
20.9583
 30
0.0000
 11
-67.2340
 21
19.0254
 31
0.0000
  0
POLYLINE
  6
continous
  8
BYBLOCK
 70
0
 66
1
  0
VERTEX
  8
0
 10
-67.2340
 20
20.9583
 30
0.0000
  0
VERTEX
  8
0
 10
-68.1000
 20
21.3428
 30
0.0000
  0
SEQEND
  0
LINE
  6
continous
  8
BYBLOCK
 10
-43.1000
 20
20.9583
 30
0.0000
 11
-67.2340
 21
20.9583
 31
0.0000
  0
LINE
  6
continous
  8
BYBLOCK
 10
68.1000
 20
20.9583
 30
0.0000
 11
43.1000
 21
20.9583
 31
0.0000
  0
LINE
  6
continous
  8
BYBLOCK
 10
-67.2340
 20
20.9583
 30
0.0000
 11
-67.2340
 21
23.7550
 31
0.0000
  0
LINE
  6
continous
  8
BYBLOCK
 10
-43.1000
 20
23.7550
 30
0.0000
 11
-67.2340
 21
23.7550
 31
0.0000
  0
LINE
  6
continous
  8
BYBLOCK
 10
68.1000
 20
23.7550
 30
0.0000
 11
43.1000
 21
23.7550
 31
0.0000
  0
LINE
  6
continous
  8
BYBLOCK
 10
-67.6626
 20
24.0025
 30
0.0000
 11
-67.2340
 21
23.7550
 31
0.0000
  0
LINE
  6
continous
  8
BYBLOCK
 10
-43.1000
 20
24.2500
 30
0.0000
 11
-67.2340
 21
24.2500
 31
0.0000
  0
LINE
  6
continous
  8
BYBLOCK
 10
68.1000
 20
24.2500
 30
0.0000
 11
43.1000
 21
24.2500
 31
0.0000
  0
LINE
  6
continous
  8
BYBLOCK
 10
-43.1000
 20
10.1746
 30
0.0000
 11
-67.2340
 21
10.1746
 31
0.0000
  0
LINE
  6
continous
  8
BYBLOCK
 10
68.1000
 20
10.1746
 30
0.0000
 11
43.1000
 21
10.1746
 31
0.0000
  0
LINE
  6
continous
  8
BYBLOCK
 10
-67.2340
 20
10.1746
 30
0.0000
 11
-67.2340
 21
8.2417
 31
0.0000
  0
LINE
  6
continous
  8
BYBLOCK
 10
-43.1000
 20
8.2417
 30
0.0000
 11
-67.2340
 21
8.2417
 31
0.0000
  0
LINE
  6
continous
  8
BYBLOCK
 10
68.1000
 20
8.2417
 30
0.0000
 11
43.1000
 21
8.2417
 31
0.0000
  0
POLYLINE
  6
continous
  8
BYBLOCK
 70
0
 66
1
  0
VERTEX
  8
0
 10
-67.2340
 20
8.2417
 30
0.0000
  0
VERTEX
  8
0
 10
-68.1000
 20
7.8572
 30
0.0000
  0
SEQEND
  0
LINE
  6
continous
  8
BYBLOCK
 10
-67.2340
 20
5.9000
 30
0.0000
 11
-67.2340
 21
8.2417
 31
0.0000
  0
LINE
  6
continous
  8
BYBLOCK
 10
-67.2340
 20
5.9000
 30
0.0000
 11
-68.1000
 21
5.6113
 31
0.0000
  0
LINE
  6
continous
  8
BYBLOCK
 10
68.1000
 20
5.9000
 30
0.0000
 11
-67.2340
 21
5.9000
 31
0.0000
  0
LINE
  6
continous
  8
BYBLOCK
 10
-67.2340
 20
4.9474
 30
0.0000
 11
-67.2340
 21
5.9000
 31
0.0000
  0
LINE
  6
continous
  8
BYBLOCK
 10
68.1000
 20
4.9474
 30
0.0000
 11
-67.2340
 21
4.9474
 31
0.0000
  0
LINE
  6
continous
  8
BYBLOCK
 10
-67.2340
 20
4.9474
 30
0.0000
 11
-68.1000
 21
4.6587
 31
0.0000
  0
LINE
  6
continous
  8
BYBLOCK
 10
-67.2340
 20
1.2000
 30
0.0000
 11
-67.2340
 21
4.9474
 31
0.0000
  0
LINE
  6
continous
  8
BYBLOCK
 10
-67.2340
 20
1.2000
 30
0.0000
 11
-68.1000
 21
1.4071
 31
0.0000
  0
LINE
  6
continous
  8
BYBLOCK
 10
68.1000
 20
1.2000
 30
0.0000
 11
-67.2340
 21
1.2000
 31
0.0000
  0
LINE
  6
continous
  8
BYBLOCK
 10
-67.2340
 20
0.0000
 30
0.0000
 11
-67.2340
 21
1.2000
 31
0.0000
  0
LINE
  6
continous
  8
BYBLOCK
 10
68.1000
 20
0.0000
 30
0.0000
 11
-67.2340
 21
0.0000
 31
0.0000
  0
LINE
  6
continous
  8
BYBLOCK
 10
-67.2340
 20
0.0000
 30
0.0000
 11
-68.1000
 21
0.5000
 31
0.0000
  0
LINE
  6
continous
  8
BYBLOCK
 10
-67.2340
 20
24.2500
 30
0.0000
 11
-67.6626
 21
24.0025
 31
0.0000
  0
LINE
  6
continous
  8
BYBLOCK
 10
-67.6626
 20
24.0025
 30
0.0000
 11
-68.1000
 21
23.7500
 31
0.0000
  0
LINE
  6
continous
  8
BYBLOCK
 10
-68.1000
 20
21.3428
 30
0.0000
 11
-68.1000
 21
23.7500
 31
0.0000
  0
LINE
  6
continous
  8
BYBLOCK
 10
-68.1000
 20
19.3512
 30
0.0000
 11
-68.1000
 21
21.3428
 31
0.0000
  0
LINE
  6
continous
  8
BYBLOCK
 10
-68.1000
 20
7.8572
 30
0.0000
 11
-68.1000
 21
9.8488
 31
0.0000
  0
LINE
  6
continous
  8
BYBLOCK
 10
-68.1000
 20
5.6113
 30
0.0000
 11
-68.1000
 21
7.8572
 31
0.0000
  0
LINE
  6
continous
  8
BYBLOCK
 10
-68.1000
 20
4.6587
 30
0.0000
 11
-68.1000
 21
5.6113
 31
0.0000
  0
LINE
  6
continous
  8
BYBLOCK
 10
-68.1000
 20
1.4071
 30
0.0000
 11
-68.1000
 21
4.6587
 31
0.0000
  0
LINE
  6
continous
  8
BYBLOCK
 10
-68.1000
 20
0.5000
 30
0.0000
 11
-68.1000
 21
1.4071
 31
0.0000
  0
LINE
  6
continous
  8
BYBLOCK
 10
-67.2340
 20
10.1746
 30
0.0000
 11
-67.2340
 21
10.7500
 31
0.0000
  0
POLYLINE
  6
continous
  8
BYBLOCK
 70
0
 66
1
  0
VERTEX
  8
0
 10
-67.2340
 20
10.1746
 30
0.0000
  0
VERTEX
  8
0
 10
-68.1000
 20
9.8488
 30
0.0000
  0
SEQEND
  0
LINE
  6
continous
  8
BYBLOCK
 10
-68.1000
 20
9.8488
 30
0.0000
 11
-68.1000
 21
10.4613
 31
0.0000
  0
LINE
  6
continous
  8
BYBLOCK
 10
-67.2340
 20
10.7500
 30
0.0000
 11
-68.1000
 21
10.4613
 31
0.0000
  0
LINE
  6
continous
  8
BYBLOCK
 10
-68.1000
 20
10.4613
 30
0.0000
 11
-68.1000
 21
18.7387
 31
0.0000
  0
LINE
  6
continous
  8
BYBLOCK
 10
-43.1000
 20
18.4500
 30
0.0000
 11
-67.2340
 21
18.4500
 31
0.0000
  0
LINE
  6
continous
  8
BYBLOCK
 10
68.1000
 20
18.4500
 30
0.0000
 11
43.1000
 21
18.4500
 31
0.0000
  0
LINE
  6
continous
  8
BYBLOCK
 10
-43.1000
 20
10.7500
 30
0.0000
 11
-67.2340
 21
10.7500
 31
0.0000
  0
LINE
  6
continous
  8
BYBLOCK
 10
68.1000
 20
10.7500
 30
0.0000
 11
43.1000
 21
10.7500
 31
0.0000
  0
LINE
  6
continous
  8
BYBLOCK
 10
-67.2340
 20
10.7500
 30
0.0000
 11
-67.2340
 21
18.4500
 31
0.0000
  0
LINE
  6
continous
  8
BYBLOCK
 10
68.1000
 20
18.4500
 30
0.0000
 11
68.1000
 21
19.0254
 31
0.0000
  0
LINE
  6
continous
  8
BYBLOCK
 10
68.1000
 20
19.0254
 30
0.0000
 11
68.1000
 21
20.9583
 31
0.0000
  0
LINE
  6
continous
  8
BYBLOCK
 10
68.1000
 20
20.9583
 30
0.0000
 11
68.1000
 21
23.7550
 31
0.0000
  0
LINE
  6
continous
  8
BYBLOCK
 10
68.1000
 20
23.7550
 30
0.0000
 11
68.1000
 21
24.2500
 31
0.0000
  0
LINE
  6
continous
  8
BYBLOCK
 10
68.1000
 20
0.0000
 30
0.0000
 11
68.1000
 21
1.2000
 31
0.0000
  0
LINE
  6
continous
  8
BYBLOCK
 10
68.1000
 20
1.2000
 30
0.0000
 11
68.1000
 21
4.9474
 31
0.0000
  0
LINE
  6
continous
  8
BYBLOCK
 10
68.1000
 20
4.9474
 30
0.0000
 11
68.1000
 21
5.9000
 31
0.0000
  0
LINE
  6
continous
  8
BYBLOCK
 10
68.1000
 20
5.9000
 30
0.0000
 11
68.1000
 21
8.2417
 31
0.0000
  0
LINE
  6
continous
  8
BYBLOCK
 10
68.1000
 20
8.2417
 30
0.0000
 11
68.1000
 21
10.1746
 31
0.0000
  0
LINE
  6
continous
  8
BYBLOCK
 10
68.1000
 20
10.1746
 30
0.0000
 11
68.1000
 21
10.7500
 31
0.0000
  0
LINE
  6
continous
  8
BYBLOCK
 10
68.1000
 20
10.7500
 30
0.0000
 11
68.1000
 21
18.4500
 31
0.0000
  0
LINE
  6
continous
  8
BYBLOCK
 10
-67.2340
 20
18.4500
 30
0.0000
 11
-68.1000
 21
18.7387
 31
0.0000
  0
LINE
  6
continous
  8
BYBLOCK
 10
-68.1000
 20
18.7387
 30
0.0000
 11
-68.1000
 21
19.3512
 31
0.0000
  0
POLYLINE
  6
continous
  8
BYBLOCK
 70
0
 66
1
  0
VERTEX
  8
0
 10
-67.2340
 20
19.0254
 30
0.0000
  0
VERTEX
  8
0
 10
-68.1000
 20
19.3512
 30
0.0000
  0
SEQEND
  0
LINE
  6
continous
  8
BYBLOCK
 10
-67.2340
 20
18.4500
 30
0.0000
 11
-67.2340
 21
19.0254
 31
0.0000
  0
ARC
  6
continous
  8
BYBLOCK
 10
36.1000
 20
30.5000
 30
0.0000
 40
2.4000
 50
180.0000
 51
360.0000
  0
ARC
  6
continous
  8
BYBLOCK
 10
36.1000
 20
30.5000
 30
0.0000
 40
2.4000
 50
0.0000
 51
180.0000
  0
LINE
  6
continous
  8
BYBLOCK
 10
36.9660
 20
32.0000
 30
0.0000
 11
35.2340
 21
32.0000
 31
0.0000
  0
LINE
  6
continous
  8
BYBLOCK
 10
35.2340
 20
32.0000
 30
0.0000
 11
34.3679
 21
30.5000
 31
0.0000
  0
LINE
  6
continous
  8
BYBLOCK
 10
34.3679
 20
30.5000
 30
0.0000
 11
35.2340
 21
29.0000
 31
0.0000
  0
LINE
  6
continous
  8
BYBLOCK
 10
35.2340
 20
29.0000
 30
0.0000
 11
36.9660
 21
29.0000
 31
0.0000
  0
LINE
  6
continous
  8
BYBLOCK
 10
36.9660
 20
29.0000
 30
0.0000
 11
37.8321
 21
30.5000
 31
0.0000
  0
LINE
  6
continous
  8
BYBLOCK
 10
37.8321
 20
30.5000
 30
0.0000
 11
36.9660
 21
32.0000
 31
0.0000
  0
ARC
  6
continous
  8
BYBLOCK
 10
36.1000
 20
30.5000
 30
0.0000
 40
2.2500
 50
0.0000
 51
180.0000
  0
ARC
  6
continous
  8
BYBLOCK
 10
36.1000
 20
30.5000
 30
0.0000
 40
2.2500
 50
180.0000
 51
360.0000
  0
LINE
  6
continous
  8
BYBLOCK
 10
39.0983
 20
30.5000
 30
0.0000
 11
38.3500
 21
30.5000
 31
0.0000
  0
LINE
  6
continous
  8
BYBLOCK
 10
33.1017
 20
30.5000
 30
0.0000
 11
33.8500
 21
30.5000
 31
0.0000
  0
ARC
  6
continous
  8
BYBLOCK
 10
36.1000
 20
30.5000
 30
0.0000
 40
3.0000
 50
0.9549
 51
179.0449
  0
ARC
  6
continous
  8
BYBLOCK
 10
-36.1000
 20
30.5000
 30
0.0000
 40
2.4000
 50
180.0000
 51
360.0000
  0
ARC
  6
continous
  8
BYBLOCK
 10
-36.1000
 20
30.5000
 30
0.0000
 40
2.4000
 50
0.0000
 51
180.0000
  0
LINE
  6
continous
  8
BYBLOCK
 10
-35.2340
 20
32.0000
 30
0.0000
 11
-36.9660
 21
32.0000
 31
0.0000
  0
LINE
  6
continous
  8
BYBLOCK
 10
-36.9660
 20
32.0000
 30
0.0000
 11
-37.8321
 21
30.5000
 31
0.0000
  0
LINE
  6
continous
  8
BYBLOCK
 10
-37.8321
 20
30.5000
 30
0.0000
 11
-36.9660
 21
29.0000
 31
0.0000
  0
LINE
  6
continous
  8
BYBLOCK
 10
-36.9660
 20
29.0000
 30
0.0000
 11
-35.2340
 21
29.0000
 31
0.0000
  0
LINE
  6
continous
  8
BYBLOCK
 10
-35.2340
 20
29.0000
 30
0.0000
 11
-34.3679
 21
30.5000
 31
0.0000
  0
LINE
  6
continous
  8
BYBLOCK
 10
-34.3679
 20
30.5000
 30
0.0000
 11
-35.2340
 21
32.0000
 31
0.0000
  0
ARC
  6
continous
  8
BYBLOCK
 10
-36.1000
 20
30.5000
 30
0.0000
 40
2.2500
 50
0.0000
 51
180.0000
  0
ARC
  6
continous
  8
BYBLOCK
 10
-36.1000
 20
30.5000
 30
0.0000
 40
2.2500
 50
180.0000
 51
360.0000
  0
LINE
  6
continous
  8
BYBLOCK
 10
-33.1017
 20
30.5000
 30
0.0000
 11
-33.8500
 21
30.5000
 31
0.0000
  0
LINE
  6
continous
  8
BYBLOCK
 10
-39.0983
 20
30.5000
 30
0.0000
 11
-38.3500
 21
30.5000
 31
0.0000
  0
ARC
  6
continous
  8
BYBLOCK
 10
-36.1000
 20
30.5000
 30
0.0000
 40
3.0000
 50
0.9549
 51
179.0449
  0
LINE
  6
continous
  8
BYBLOCK
 10
43.1000
 20
29.0500
 30
0.0000
 11
42.9000
 21
29.0500
 31
0.0000
  0
LINE
  6
continous
  8
BYBLOCK
 10
42.9000
 20
20.1500
 30
0.0000
 11
43.1000
 21
20.1500
 31
0.0000
  0
LINE
  6
continous
  8
BYBLOCK
 10
28.9000
 20
35.8000
 30
0.0000
 11
43.1000
 21
35.8000
 31
0.0000
  0
LINE
  6
continous
  8
BYBLOCK
 10
43.1000
 20
35.5500
 30
0.0000
 11
28.9000
 21
35.5500
 31
0.0000
  0
LINE
  6
continous
  8
BYBLOCK
 10
28.9000
 20
6.2000
 30
0.0000
 11
43.1000
 21
6.2000
 31
0.0000
  0
LINE
  6
continous
  8
BYBLOCK
 10
43.1000
 20
10.5862
 30
0.0000
 11
42.9000
 21
10.5862
 31
0.0000
  0
LINE
  6
continous
  8
BYBLOCK
 10
43.1000
 20
11.1387
 30
0.0000
 11
42.9000
 21
11.1387
 31
0.0000
  0
LINE
  6
continous
  8
BYBLOCK
 10
43.1000
 20
18.2613
 30
0.0000
 11
42.9000
 21
18.2613
 31
0.0000
  0
LINE
  6
continous
  8
BYBLOCK
 10
43.1000
 20
18.8138
 30
0.0000
 11
42.9000
 21
18.8138
 31
0.0000
  0
LINE
  6
continous
  8
BYBLOCK
 10
43.1000
 20
29.0500
 30
0.0000
 11
43.1000
 21
26.8250
 31
0.0000
  0
LINE
  6
continous
  8
BYBLOCK
 10
43.1000
 20
35.5500
 30
0.0000
 11
43.1000
 21
35.3000
 31
0.0000
  0
LINE
  6
continous
  8
BYBLOCK
 10
43.1000
 20
35.5500
 30
0.0000
 11
43.1000
 21
35.8000
 31
0.0000
  0
LINE
  6
continous
  8
BYBLOCK
 10
43.1000
 20
8.4000
 30
0.0000
 11
43.1000
 21
6.2000
 31
0.0000
  0
LINE
  6
continous
  8
BYBLOCK
 10
43.1000
 20
9.8142
 30
0.0000
 11
43.1000
 21
10.5862
 31
0.0000
  0
LINE
  6
continous
  8
BYBLOCK
 10
43.1000
 20
10.5862
 30
0.0000
 11
43.1000
 21
11.1387
 31
0.0000
  0
LINE
  6
continous
  8
BYBLOCK
 10
43.1000
 20
11.1387
 30
0.0000
 11
43.1000
 21
18.2613
 31
0.0000
  0
LINE
  6
continous
  8
BYBLOCK
 10
43.1000
 20
18.2613
 30
0.0000
 11
43.1000
 21
18.8138
 31
0.0000
  0
LINE
  6
continous
  8
BYBLOCK
 10
43.1000
 20
18.8138
 30
0.0000
 11
43.1000
 21
20.1499
 31
0.0000
  0
LINE
  6
continous
  8
BYBLOCK
 10
43.1000
 20
26.8250
 30
0.0000
 11
42.9000
 21
26.8250
 31
0.0000
  0
LINE
  6
continous
  8
BYBLOCK
 10
43.1000
 20
26.8250
 30
0.0000
 11
43.1000
 21
22.3750
 31
0.0000
  0
LINE
  6
continous
  8
BYBLOCK
 10
37.3828
 20
22.3750
 30
0.0000
 11
43.1000
 21
22.3750
 31
0.0000
  0
ARC
  6
continous
  8
BYBLOCK
 10
37.3828
 20
21.3750
 30
0.0000
 40
1.0000
 50
90.0000
 51
180.0000
  0
LINE
  6
continous
  8
BYBLOCK
 10
43.1000
 20
9.8142
 30
0.0000
 11
42.9000
 21
9.8142
 31
0.0000
  0
LINE
  6
continous
  8
BYBLOCK
 10
43.1000
 20
9.8142
 30
0.0000
 11
43.1000
 21
8.4000
 31
0.0000
  0
LINE
  6
continous
  8
BYBLOCK
 10
28.9000
 20
8.4000
 30
0.0000
 11
43.1000
 21
8.4000
 31
0.0000
  0
LINE
  6
continous
  8
BYBLOCK
 10
43.1000
 20
35.3000
 30
0.0000
 11
28.9000
 21
35.3000
 31
0.0000
  0
LINE
  6
continous
  8
BYBLOCK
 10
43.1000
 20
35.3000
 30
0.0000
 11
43.1000
 21
34.5500
 31
0.0000
  0
LINE
  6
continous
  8
BYBLOCK
 10
43.1000
 20
34.5500
 30
0.0000
 11
42.9000
 21
34.5500
 31
0.0000
  0
ARC
  6
continous
  8
BYBLOCK
 10
40.7823
 20
44.3232
 30
0.0000
 40
10.0000
 50
251.1606
 51
282.2261
  0
ARC
  6
continous
  8
BYBLOCK
 10
36.1000
 20
30.6000
 30
0.0000
 40
4.5000
 50
71.1606
 51
180.0000
  0
ARC
  6
continous
  8
BYBLOCK
 10
41.0982
 20
16.9887
 30
0.0000
 40
10.0000
 50
79.6196
 51
110.1636
  0
LINE
  6
continous
  8
BYBLOCK
 10
39.0983
 20
30.6000
 30
0.0000
 11
39.1000
 21
30.6000
 31
0.0000
  0
LINE
  6
continous
  8
BYBLOCK
 10
33.1017
 20
30.6000
 30
0.0000
 11
33.1000
 21
30.6000
 31
0.0000
  0
ARC
  6
continous
  8
BYBLOCK
 10
36.1000
 20
30.6000
 30
0.0000
 40
3.0000
 50
0.0000
 51
180.0000
  0
ARC
  6
continous
  8
BYBLOCK
 10
36.1000
 20
30.6000
 30
0.0000
 40
3.0000
 50
180.0000
 51
360.0000
  0
LINE
  6
continous
  8
BYBLOCK
 10
42.9000
 20
9.8142
 30
0.0000
 11
42.9000
 21
22.3750
 31
0.0000
  0
LINE
  6
continous
  8
BYBLOCK
 10
42.9000
 20
26.8250
 30
0.0000
 11
42.9000
 21
34.5500
 31
0.0000
  0
ARC
  6
continous
  8
BYBLOCK
 10
36.1000
 20
30.6000
 30
0.0000
 40
4.5000
 50
180.0000
 51
290.1636
  0
LINE
  6
continous
  8
BYBLOCK
 10
43.1000
 20
22.3750
 30
0.0000
 11
43.1000
 21
20.1500
 31
0.0000
  0
ARC
  6
continous
  8
BYBLOCK
 10
37.3828
 20
21.3750
 30
0.0000
 40
1.0000
 50
180.0000
 51
209.9895
  0
LINE
  6
continous
  8
BYBLOCK
 10
36.5167
 20
20.8752
 30
0.0000
 11
42.9000
 21
9.8142
 31
0.0000
  0
LINE
  6
continous
  8
BYBLOCK
 10
-43.1000
 20
24.6000
 30
0.0000
 11
-43.1000
 21
24.6000
 31
0.0000
  0
LINE
  6
continous
  8
BYBLOCK
 10
-43.1000
 20
24.2500
 30
0.0000
 11
-43.1000
 21
24.6000
 31
0.0000
  0
LINE
  6
continous
  8
BYBLOCK
 10
-43.1000
 20
24.6000
 30
0.0000
 11
-43.1000
 21
24.2500
 31
0.0000
  0
LINE
  6
continous
  8
BYBLOCK
 10
-43.1000
 20
24.6000
 30
0.0000
 11
-43.1000
 21
24.6000
 31
0.0000
  0
LINE
  6
continous
  8
BYBLOCK
 10
-43.1000
 20
24.6000
 30
0.0000
 11
-43.1000
 21
24.6000
 31
0.0000
  0
LINE
  6
continous
  8
BYBLOCK
 10
-43.1000
 20
29.0500
 30
0.0000
 11
-43.1000
 21
29.0500
 31
0.0000
  0
LINE
  6
continous
  8
BYBLOCK
 10
-42.9000
 20
29.0500
 30
0.0000
 11
-43.1000
 21
29.0500
 31
0.0000
  0
LINE
  6
continous
  8
BYBLOCK
 10
-43.1000
 20
20.1500
 30
0.0000
 11
-42.9000
 21
20.1500
 31
0.0000
  0
LINE
  6
continous
  8
BYBLOCK
 10
-39.1000
 20
30.6000
 30
0.0000
 11
-39.0983
 21
30.6000
 31
0.0000
  0
LINE
  6
continous
  8
BYBLOCK
 10
-33.1000
 20
30.6000
 30
0.0000
 11
-33.1017
 21
30.6000
 31
0.0000
  0
ARC
  6
continous
  8
BYBLOCK
 10
-36.1000
 20
30.6000
 30
0.0000
 40
3.0000
 50
0.0000
 51
180.0000
  0
ARC
  6
continous
  8
BYBLOCK
 10
-36.1000
 20
30.6000
 30
0.0000
 40
3.0000
 50
-180.0000
 51
0.0000
  0
LINE
  6
continous
  8
BYBLOCK
 10
-28.9000
 20
6.2000
 30
0.0000
 11
-43.1000
 21
6.2000
 31
0.0000
  0
LINE
  6
continous
  8
BYBLOCK
 10
-43.1000
 20
18.8138
 30
0.0000
 11
-42.9000
 21
18.8138
 31
0.0000
  0
LINE
  6
continous
  8
BYBLOCK
 10
-43.1000
 20
18.2613
 30
0.0000
 11
-42.9000
 21
18.2613
 31
0.0000
  0
LINE
  6
continous
  8
BYBLOCK
 10
-43.1000
 20
11.1387
 30
0.0000
 11
-42.9000
 21
11.1387
 31
0.0000
  0
LINE
  6
continous
  8
BYBLOCK
 10
-43.1000
 20
10.5862
 30
0.0000
 11
-42.9000
 21
10.5862
 31
0.0000
  0
LINE
  6
continous
  8
BYBLOCK
 10
-43.1000
 20
26.8250
 30
0.0000
 11
-43.1000
 21
29.0500
 31
0.0000
  0
LINE
  6
continous
  8
BYBLOCK
 10
-43.1000
 20
6.2000
 30
0.0000
 11
-43.1000
 21
8.4000
 31
0.0000
  0
LINE
  6
continous
  8
BYBLOCK
 10
-43.1000
 20
24.8500
 30
0.0000
 11
-43.1000
 21
24.0621
 31
0.0000
  0
LINE
  6
continous
  8
BYBLOCK
 10
-43.1000
 20
24.0621
 30
0.0000
 11
-43.1000
 21
20.5994
 31
0.0000
  0
LINE
  6
continous
  8
BYBLOCK
 10
-43.1000
 20
20.6000
 30
0.0000
 11
-43.1000
 21
18.8138
 31
0.0000
  0
LINE
  6
continous
  8
BYBLOCK
 10
-43.1000
 20
18.8138
 30
0.0000
 11
-43.1000
 21
18.2613
 31
0.0000
  0
LINE
  6
continous
  8
BYBLOCK
 10
-43.1000
 20
18.2613
 30
0.0000
 11
-43.1000
 21
11.1387
 31
0.0000
  0
LINE
  6
continous
  8
BYBLOCK
 10
-43.1000
 20
11.1387
 30
0.0000
 11
-43.1000
 21
10.5862
 31
0.0000
  0
LINE
  6
continous
  8
BYBLOCK
 10
-43.1000
 20
10.5862
 30
0.0000
 11
-43.1000
 21
9.2976
 31
0.0000
  0
LINE
  6
continous
  8
BYBLOCK
 10
-43.1000
 20
27.1000
 30
0.0000
 11
-43.1000
 21
24.6000
 31
0.0000
  0
LINE
  6
continous
  8
BYBLOCK
 10
-43.1000
 20
24.6000
 30
0.0000
 11
-43.1000
 21
22.1000
 31
0.0000
  0
LINE
  6
continous
  8
BYBLOCK
 10
-42.9000
 20
26.8250
 30
0.0000
 11
-42.9000
 21
34.5500
 31
0.0000
  0
LINE
  6
continous
  8
BYBLOCK
 10
-42.9000
 20
9.8142
 30
0.0000
 11
-42.9000
 21
22.3750
 31
0.0000
  0
ARC
  6
continous
  8
BYBLOCK
 10
-37.3828
 20
21.3750
 30
0.0000
 40
1.0000
 50
360.0000
 51
90.0000
  0
LINE
  6
continous
  8
BYBLOCK
 10
-43.1000
 20
22.3750
 30
0.0000
 11
-37.3828
 21
22.3750
 31
0.0000
  0
LINE
  6
continous
  8
BYBLOCK
 10
-43.1000
 20
22.3750
 30
0.0000
 11
-43.1000
 21
26.8250
 31
0.0000
  0
LINE
  6
continous
  8
BYBLOCK
 10
-43.1000
 20
26.8250
 30
0.0000
 11
-42.9000
 21
26.8250
 31
0.0000
  0
ARC
  6
continous
  8
BYBLOCK
 10
-41.0982
 20
16.9887
 30
0.0000
 40
10.0000
 50
69.8364
 51
100.3804
  0
ARC
  6
continous
  8
BYBLOCK
 10
-36.1000
 20
30.6000
 30
0.0000
 40
4.5000
 50
360.0000
 51
108.8394
  0
ARC
  6
continous
  8
BYBLOCK
 10
-40.7823
 20
44.3232
 30
0.0000
 40
10.0000
 50
257.7739
 51
288.8394
  0
LINE
  6
continous
  8
BYBLOCK
 10
-43.1000
 20
34.5500
 30
0.0000
 11
-42.9000
 21
34.5500
 31
0.0000
  0
LINE
  6
continous
  8
BYBLOCK
 10
-43.1000
 20
34.5500
 30
0.0000
 11
-43.1000
 21
35.3000
 31
0.0000
  0
LINE
  6
continous
  8
BYBLOCK
 10
-28.9000
 20
8.4000
 30
0.0000
 11
-43.1000
 21
8.4000
 31
0.0000
  0
LINE
  6
continous
  8
BYBLOCK
 10
-43.1000
 20
8.4000
 30
0.0000
 11
-43.1000
 21
9.8142
 31
0.0000
  0
LINE
  6
continous
  8
BYBLOCK
 10
-43.1000
 20
9.8142
 30
0.0000
 11
-42.9000
 21
9.8142
 31
0.0000
  0
LINE
  6
continous
  8
BYBLOCK
 10
-42.9000
 20
9.8142
 30
0.0000
 11
-36.5167
 21
20.8752
 31
0.0000
  0
LINE
  6
continous
  8
BYBLOCK
 10
-43.1000
 20
35.3000
 30
0.0000
 11
-28.9000
 21
35.3000
 31
0.0000
  0
LINE
  6
continous
  8
BYBLOCK
 10
-43.1000
 20
35.3000
 30
0.0000
 11
-43.1000
 21
35.5500
 31
0.0000
  0
LINE
  6
continous
  8
BYBLOCK
 10
-43.1000
 20
35.5500
 30
0.0000
 11
-28.9000
 21
35.5500
 31
0.0000
  0
LINE
  6
continous
  8
BYBLOCK
 10
-43.1000
 20
35.8000
 30
0.0000
 11
-43.1000
 21
35.5500
 31
0.0000
  0
LINE
  6
continous
  8
BYBLOCK
 10
-28.9000
 20
35.8000
 30
0.0000
 11
-43.1000
 21
35.8000
 31
0.0000
  0
LINE
  6
continous
  8
BYBLOCK
 10
-28.9000
 20
6.2000
 30
0.0000
 11
-28.9000
 21
8.4000
 31
0.0000
  0
LINE
  6
continous
  8
BYBLOCK
 10
-28.9000
 20
8.4000
 30
0.0000
 11
-28.9000
 21
35.3000
 31
0.0000
  0
LINE
  6
continous
  8
BYBLOCK
 10
-28.9000
 20
35.5500
 30
0.0000
 11
-28.9000
 21
35.3000
 31
0.0000
  0
LINE
  6
continous
  8
BYBLOCK
 10
-28.9000
 20
35.8000
 30
0.0000
 11
-28.9000
 21
35.5500
 31
0.0000
  0
LINE
  6
continous
  8
BYBLOCK
 10
-43.1000
 20
20.1500
 30
0.0000
 11
-43.1000
 21
22.3750
 31
0.0000
  0
ARC
  6
continous
  8
BYBLOCK
 10
-36.1000
 20
30.6000
 30
0.0000
 40
4.5000
 50
249.8364
 51
360.0000
  0
ARC
  6
continous
  8
BYBLOCK
 10
-37.3828
 20
21.3750
 30
0.0000
 40
1.0000
 50
330.0105
 51
360.0000
  0
LINE
  6
continous
  8
BYBLOCK
 10
-28.9000
 20
36.0000
 30
0.0000
 11
28.9000
 21
36.0000
 31
0.0000
  0
LINE
  6
continous
  8
BYBLOCK
 10
-28.9000
 20
35.0000
 30
0.0000
 11
28.9000
 21
35.0000
 31
0.0000
  0
LINE
  6
continous
  8
BYBLOCK
 10
-28.9000
 20
28.8000
 30
0.0000
 11
28.9000
 21
28.8000
 31
0.0000
  0
LINE
  6
continous
  8
BYBLOCK
 10
-28.9000
 20
28.5000
 30
0.0000
 11
28.9000
 21
28.5000
 31
0.0000
  0
LINE
  6
continous
  8
BYBLOCK
 10
-28.9000
 20
8.3000
 30
0.0000
 11
28.9000
 21
8.3000
 31
0.0000
  0
LINE
  6
continous
  8
BYBLOCK
 10
28.9000
 20
8.3000
 30
0.0000
 11
28.9000
 21
6.1000
 31
0.0000
  0
LINE
  6
continous
  8
BYBLOCK
 10
28.9000
 20
28.5000
 30
0.0000
 11
28.9000
 21
8.3000
 31
0.0000
  0
LINE
  6
continous
  8
BYBLOCK
 10
28.9000
 20
28.8000
 30
0.0000
 11
28.9000
 21
28.5000
 31
0.0000
  0
LINE
  6
continous
  8
BYBLOCK
 10
28.9000
 20
35.0000
 30
0.0000
 11
28.9000
 21
28.8000
 31
0.0000
  0
LINE
  6
continous
  8
BYBLOCK
 10
28.9000
 20
36.0000
 30
0.0000
 11
28.9000
 21
35.0000
 31
0.0000
  0
LINE
  6
continous
  8
BYBLOCK
 10
-28.9000
 20
6.1000
 30
0.0000
 11
28.9000
 21
6.1000
 31
0.0000
  0
LINE
  6
continous
  8
BYBLOCK
 10
-28.9000
 20
36.0000
 30
0.0000
 11
-28.9000
 21
35.0000
 31
0.0000
  0
LINE
  6
continous
  8
BYBLOCK
 10
-28.9000
 20
35.0000
 30
0.0000
 11
-28.9000
 21
28.8000
 31
0.0000
  0
LINE
  6
continous
  8
BYBLOCK
 10
-28.9000
 20
28.8000
 30
0.0000
 11
-28.9000
 21
28.5000
 31
0.0000
  0
LINE
  6
continous
  8
BYBLOCK
 10
-28.9000
 20
28.5000
 30
0.0000
 11
-28.9000
 21
8.3000
 31
0.0000
  0
LINE
  6
continous
  8
BYBLOCK
 10
-28.9000
 20
8.3000
 30
0.0000
 11
-28.9000
 21
6.1000
 31
0.0000
  0
ENDBLK
  8
0
  0
BLOCK
  8
REX_7
  2
3REX_MID_Jan_15_23-12-05
 70
0
 10
0.0000
 20
0.0000
 30
0.0000
  3
3REX_MID_Jan_15_23-12-05
  0
ENDBLK
  8
0
  0
BLOCK
  8
REX_1
  2
_VIEW_3_Jan_15_23-12-05
 70
0
 10
0.0000
 20
0.0000
 30
0.0000
  3
_VIEW_3_Jan_15_23-12-05
  0
INSERT
  8
REX_6
  2
3REX_MID_Jan_15_23-12-05
 10
0.0000
 20
0.0000
 30
0.0000
  0
LINE
  6
continous
  8
BYBLOCK
 10
11.5000
 20
67.2340
 30
0.0000
 11
11.0000
 21
68.1000
 31
0.0000
  0
LINE
  6
continous
  8
BYBLOCK
 10
11.5000
 20
-68.1000
 30
0.0000
 11
11.5000
 21
67.2340
 31
0.0000
  0
LINE
  6
continous
  8
BYBLOCK
 10
10.3000
 20
67.2340
 30
0.0000
 11
11.5000
 21
67.2340
 31
0.0000
  0
LINE
  6
continous
  8
BYBLOCK
 10
10.3000
 20
-68.1000
 30
0.0000
 11
10.3000
 21
67.2340
 31
0.0000
  0
LINE
  6
continous
  8
BYBLOCK
 10
10.3000
 20
67.2340
 30
0.0000
 11
10.0929
 21
68.1000
 31
0.0000
  0
LINE
  6
continous
  8
BYBLOCK
 10
-10.3000
 20
67.2340
 30
0.0000
 11
10.3000
 21
67.2340
 31
0.0000
  0
LINE
  6
continous
  8
BYBLOCK
 10
-10.3000
 20
67.2340
 30
0.0000
 11
-10.0929
 21
68.1000
 31
0.0000
  0
LINE
  6
continous
  8
BYBLOCK
 10
-10.3000
 20
-68.1000
 30
0.0000
 11
-10.3000
 21
67.2340
 31
0.0000
  0
LINE
  6
continous
  8
BYBLOCK
 10
-11.5000
 20
67.2340
 30
0.0000
 11
-10.3000
 21
67.2340
 31
0.0000
  0
LINE
  6
continous
  8
BYBLOCK
 10
-11.5000
 20
-68.1000
 30
0.0000
 11
-11.5000
 21
67.2340
 31
0.0000
  0
LINE
  6
continous
  8
BYBLOCK
 10
-11.5000
 20
67.2340
 30
0.0000
 11
-11.0000
 21
68.1000
 31
0.0000
  0
LINE
  6
continous
  8
BYBLOCK
 10
10.0929
 20
68.1000
 30
0.0000
 11
11.0000
 21
68.1000
 31
0.0000
  0
LINE
  6
continous
  8
BYBLOCK
 10
-10.0929
 20
68.1000
 30
0.0000
 11
10.0929
 21
68.1000
 31
0.0000
  0
LINE
  6
continous
  8
BYBLOCK
 10
-11.0000
 20
68.1000
 30
0.0000
 11
-10.0929
 21
68.1000
 31
0.0000
  0
LINE
  6
continous
  8
BYBLOCK
 10
-11.5000
 20
-68.1000
 30
0.0000
 11
-10.3000
 21
-68.1000
 31
0.0000
  0
LINE
  6
continous
  8
BYBLOCK
 10
-10.3000
 20
-68.1000
 30
0.0000
 11
10.3000
 21
-68.1000
 31
0.0000
  0
LINE
  6
continous
  8
BYBLOCK
 10
10.3000
 20
-68.1000
 30
0.0000
 11
11.5000
 21
-68.1000
 31
0.0000
  0
LINE
  6
continous
  8
BYBLOCK
 10
23.4000
 20
-33.8500
 30
0.0000
 11
23.4000
 21
-38.3500
 31
0.0000
  0
LINE
  6
continous
  8
BYBLOCK
 10
23.4000
 20
38.3500
 30
0.0000
 11
23.4000
 21
33.8500
 31
0.0000
  0
LINE
  6
continous
  8
BYBLOCK
 10
20.6500
 20
-43.1000
 30
0.0000
 11
17.6500
 21
-43.1000
 31
0.0000
  0
LINE
  6
continous
  8
BYBLOCK
 10
17.6500
 20
-43.1000
 30
0.0000
 11
20.6500
 21
-43.1000
 31
0.0000
  0
LINE
  6
continous
  8
BYBLOCK
 10
-17.6500
 20
-43.1000
 30
0.0000
 11
-20.6500
 21
-43.1000
 31
0.0000
  0
LINE
  6
continous
  8
BYBLOCK
 10
-20.6500
 20
-43.1000
 30
0.0000
 11
-17.6500
 21
-43.1000
 31
0.0000
  0
LINE
  6
continous
  8
BYBLOCK
 10
21.2000
 20
-28.9000
 30
0.0000
 11
21.2000
 21
-43.1000
 31
0.0000
  0
LINE
  6
continous
  8
BYBLOCK
 10
-21.2000
 20
-28.9000
 30
0.0000
 11
-21.2000
 21
-43.1000
 31
0.0000
  0
LINE
  6
continous
  8
BYBLOCK
 10
23.4000
 20
-43.1000
 30
0.0000
 11
23.0038
 21
-43.1000
 31
0.0000
  0
LINE
  6
continous
  8
BYBLOCK
 10
-23.4000
 20
-43.1000
 30
0.0000
 11
-23.0038
 21
-43.1000
 31
0.0000
  0
LINE
  6
continous
  8
BYBLOCK
 10
-21.2000
 20
-43.1000
 30
0.0000
 11
-23.4000
 21
-43.1000
 31
0.0000
  0
LINE
  6
continous
  8
BYBLOCK
 10
-11.5000
 20
-43.1000
 30
0.0000
 11
-21.2000
 21
-43.1000
 31
0.0000
  0
LINE
  6
continous
  8
BYBLOCK
 10
21.2000
 20
-43.1000
 30
0.0000
 11
11.5000
 21
-43.1000
 31
0.0000
  0
LINE
  6
continous
  8
BYBLOCK
 10
23.4000
 20
-43.1000
 30
0.0000
 11
21.2000
 21
-43.1000
 31
0.0000
  0
LINE
  6
continous
  8
BYBLOCK
 10
16.2632
 20
-43.1000
 30
0.0000
 11
17.7066
 21
-43.1000
 31
0.0000
  0
LINE
  6
continous
  8
BYBLOCK
 10
17.7066
 20
-43.1000
 30
0.0000
 11
20.5934
 21
-43.1000
 31
0.0000
  0
LINE
  6
continous
  8
BYBLOCK
 10
20.5934
 20
-43.1000
 30
0.0000
 11
22.0368
 21
-43.1000
 31
0.0000
  0
LINE
  6
continous
  8
BYBLOCK
 10
-22.0368
 20
-43.1000
 30
0.0000
 11
-20.5934
 21
-43.1000
 31
0.0000
  0
LINE
  6
continous
  8
BYBLOCK
 10
-17.7066
 20
-43.1000
 30
0.0000
 11
-16.2632
 21
-43.1000
 31
0.0000
  0
LINE
  6
continous
  8
BYBLOCK
 10
23.4000
 20
-28.9000
 30
0.0000
 11
23.4000
 21
-43.1000
 31
0.0000
  0
LINE
  6
continous
  8
BYBLOCK
 10
-23.4000
 20
-28.9000
 30
0.0000
 11
-23.4000
 21
-43.1000
 31
0.0000
  0
LINE
  6
continous
  8
BYBLOCK
 10
23.4000
 20
-28.9000
 30
0.0000
 11
21.2000
 21
-28.9000
 31
0.0000
  0
LINE
  6
continous
  8
BYBLOCK
 10
21.2000
 20
-28.9000
 30
0.0000
 11
11.5000
 21
-28.9000
 31
0.0000
  0
LINE
  6
continous
  8
BYBLOCK
 10
-11.5000
 20
-28.9000
 30
0.0000
 11
-21.2000
 21
-28.9000
 31
0.0000
  0
LINE
  6
continous
  8
BYBLOCK
 10
-21.2000
 20
-28.9000
 30
0.0000
 11
-23.4000
 21
-28.9000
 31
0.0000
  0
LINE
  6
continous
  8
BYBLOCK
 10
-14.7000
 20
-43.1000
 30
0.0000
 11
-23.0038
 21
-43.1000
 31
0.0000
  0
LINE
  6
continous
  8
BYBLOCK
 10
23.0038
 20
-43.1000
 30
0.0000
 11
14.7000
 21
-43.1000
 31
0.0000
  0
LINE
  6
continous
  8
BYBLOCK
 10
-21.2000
 20
28.9000
 30
0.0000
 11
-21.2000
 21
43.1000
 31
0.0000
  0
LINE
  6
continous
  8
BYBLOCK
 10
21.2000
 20
28.9000
 30
0.0000
 11
21.2000
 21
43.1000
 31
0.0000
  0
LINE
  6
continous
  8
BYBLOCK
 10
21.2000
 20
43.1000
 30
0.0000
 11
23.4000
 21
43.1000
 31
0.0000
  0
LINE
  6
continous
  8
BYBLOCK
 10
11.5000
 20
43.1000
 30
0.0000
 11
21.2000
 21
43.1000
 31
0.0000
  0
LINE
  6
continous
  8
BYBLOCK
 10
-21.2000
 20
43.1000
 30
0.0000
 11
-11.5000
 21
43.1000
 31
0.0000
  0
LINE
  6
continous
  8
BYBLOCK
 10
-23.4000
 20
43.1000
 30
0.0000
 11
-21.2000
 21
43.1000
 31
0.0000
  0
LINE
  6
continous
  8
BYBLOCK
 10
-23.4000
 20
28.9000
 30
0.0000
 11
-23.4000
 21
43.1000
 31
0.0000
  0
LINE
  6
continous
  8
BYBLOCK
 10
23.4000
 20
28.9000
 30
0.0000
 11
23.4000
 21
43.1000
 31
0.0000
  0
LINE
  6
continous
  8
BYBLOCK
 10
-24.0000
 20
28.9000
 30
0.0000
 11
-24.0000
 21
-28.9000
 31
0.0000
  0
LINE
  6
continous
  8
BYBLOCK
 10
24.0000
 20
28.9000
 30
0.0000
 11
24.0000
 21
-28.9000
 31
0.0000
  0
LINE
  6
continous
  8
BYBLOCK
 10
23.7000
 20
28.9000
 30
0.0000
 11
23.7000
 21
-28.9000
 31
0.0000
  0
LINE
  6
continous
  8
BYBLOCK
 10
23.7000
 20
-28.9000
 30
0.0000
 11
21.5000
 21
-28.9000
 31
0.0000
  0
LINE
  6
continous
  8
BYBLOCK
 10
24.0000
 20
-28.9000
 30
0.0000
 11
23.7000
 21
-28.9000
 31
0.0000
  0
LINE
  6
continous
  8
BYBLOCK
 10
-21.5000
 20
-28.9000
 30
0.0000
 11
-24.0000
 21
-28.9000
 31
0.0000
  0
LINE
  6
continous
  8
BYBLOCK
 10
21.5000
 20
28.9000
 30
0.0000
 11
21.5000
 21
-28.9000
 31
0.0000
  0
LINE
  6
continous
  8
BYBLOCK
 10
21.5000
 20
-28.9000
 30
0.0000
 11
11.5000
 21
-28.9000
 31
0.0000
  0
LINE
  6
continous
  8
BYBLOCK
 10
-11.5000
 20
-28.9000
 30
0.0000
 11
-21.5000
 21
-28.9000
 31
0.0000
  0
LINE
  6
continous
  8
BYBLOCK
 10
-21.5000
 20
28.9000
 30
0.0000
 11
-21.5000
 21
-28.9000
 31
0.0000
  0
LINE
  6
continous
  8
BYBLOCK
 10
-11.5000
 20
28.9000
 30
0.0000
 11
-21.5000
 21
28.9000
 31
0.0000
  0
LINE
  6
continous
  8
BYBLOCK
 10
-21.5000
 20
28.9000
 30
0.0000
 11
-24.0000
 21
28.9000
 31
0.0000
  0
LINE
  6
continous
  8
BYBLOCK
 10
24.0000
 20
28.9000
 30
0.0000
 11
23.7000
 21
28.9000
 31
0.0000
  0
LINE
  6
continous
  8
BYBLOCK
 10
23.7000
 20
28.9000
 30
0.0000
 11
21.5000
 21
28.9000
 31
0.0000
  0
LINE
  6
continous
  8
BYBLOCK
 10
21.5000
 20
28.9000
 30
0.0000
 11
11.5000
 21
28.9000
 31
0.0000
  0
ENDBLK
  8
0
  0
BLOCK
  8
REX_1
  2
_VIEW_ALL_Jan_15_23-12-05
 70
0
 10
0.0000
 20
0.0000
 30
0.0000
  3
_VIEW_ALL_Jan_15_23-12-05
  0
INSERT
  8
REX_6
  2
_VIEW_4_Jan_15_23-12-05
 10
172.4800
 20
-271.1400
 30
0.0000
  0
INSERT
  8
REX_6
  2
_VIEW_6_Jan_15_23-12-05
 10
381.2400
 20
-187.6200
 30
0.0000
  0
INSERT
  8
REX_6
  2
_VIEW_1_Jan_15_23-12-05
 10
276.8600
 20
-187.6200
 30
0.0000
  0
INSERT
  8
REX_6
  2
_VIEW_5_Jan_15_23-12-05
 10
172.4800
 20
-187.6200
 30
0.0000
  0
INSERT
  8
REX_6
  2
_VIEW_2_Jan_15_23-12-05
 10
68.1000
 20
-187.6200
 30
0.0000
  0
INSERT
  8
REX_6
  2
_VIEW_3_Jan_15_23-12-05
 10
172.4800
 20
-68.1000
 30
0.0000
  0
ENDBLK
  8
0
  0
ENDSEC
  0
SECTION
  2
ENTITIES
  0
INSERT
  8
REX_6
  2
_VIEW_ALL_Jan_15_23-12-05
 10
0.0000
 20
0.0000
 30
0.0000
  0
ENDSEC
  0
EOF
