  0
SECTION
  2
HEADER
  9
$ACADVER
  1
AC1009
  9
$INSBASE
 10
0.0
 20
0.0
 30
0.0
  9
$EXTMIN
 10
-292.077122
 20
-207.170443
 30
1.000000E+020
  9
$EXTMAX
 10
3120.504246
 20
2223.845295
 30
-1.000000E+020
  9
$LIMMIN
 10
0.0
 20
0.0
  9
$LIMMAX
 10
420.0
 20
297.0
  9
$ORTHOMODE
 70
     0
  9
$REGENMODE
 70
     1
  9
$FILLMODE
 70
     1
  9
$QTEXTMODE
 70
     0
  9
$MIRRTEXT
 70
     1
  9
$DRAGMODE
 70
     2
  9
$LTSCALE
 40
1.000000
  9
$OSMODE
 70
   103
  9
$ATTMODE
 70
     1
  9
$TEXTSIZE
 40
2.5
  9
$TRACEWID
 40
1.0
  9
$TEXTSTYLE
  7
STANDARD
  9
$CLAYER
  8
RAHM4
  9
$CELTYPE
  6
BYLAYER
  9
$CECOLOR
 62
   256
  9
$DIMSCALE
 40
1.0
  9
$DIMASZ
 40
2.5
  9
$DIMEXO
 40
0.625
  9
$DIMDLI
 40
3.75
  9
$DIMRND
 40
0.0
  9
$DIMDLE
 40
0.0
  9
$DIMEXE
 40
1.25
  9
$DIMTP
 40
0.0
  9
$DIMTM
 40
0.0
  9
$DIMTXT
 40
2.5
  9
$DIMCEN
 40
2.5
  9
$DIMTSZ
 40
0.0
  9
$DIMTOL
 70
     0
  9
$DIMLIM
 70
     0
  9
$DIMTIH
 70
     0
  9
$DIMTOH
 70
     0
  9
$DIMSE1
 70
     0
  9
$DIMSE2
 70
     0
  9
$DIMTAD
 70
     1
  9
$DIMZIN
 70
     8
  9
$DIMBLK
  1

  9
$DIMASO
 70
     1
  9
$DIMSHO
 70
     1
  9
$DIMPOST
  1

  9
$DIMAPOST
  1

  9
$DIMALT
 70
     0
  9
$DIMALTD
 70
     3
  9
$DIMALTF
 40
0.03937
  9
$DIMLFAC
 40
1.0
  9
$DIMTOFL
 70
     1
  9
$DIMTVP
 40
0.0
  9
$DIMTIX
 70
     0
  9
$DIMSOXD
 70
     0
  9
$DIMSAH
 70
     0
  9
$DIMBLK1
  1

  9
$DIMBLK2
  1

  9
$DIMSTYLE
  2
ISO-25
  9
$DIMCLRD
 70
     0
  9
$DIMCLRE
 70
     0
  9
$DIMCLRT
 70
     0
  9
$DIMTFAC
 40
1.0
  9
$DIMGAP
 40
0.625
  9
$LUNITS
 70
     2
  9
$LUPREC
 70
     4
  9
$SKETCHINC
 40
1.0
  9
$FILLETRAD
 40
10.0
  9
$AUNITS
 70
     0
  9
$AUPREC
 70
     0
  9
$MENU
  1
.
  9
$ELEVATION
 40
0.0
  9
$PELEVATION
 40
0.0
  9
$THICKNESS
 40
0.0
  9
$LIMCHECK
 70
     0
  9
$BLIPMODE
 70
     0
  9
$CHAMFERA
 40
10.0
  9
$CHAMFERB
 40
10.0
  9
$SKPOLY
 70
     0
  9
$TDCREATE
 40
2452830.438142
  9
$TDUPDATE
 40
2453952.51541
  9
$TDINDWG
 40
0.030794
  9
$TDUSRTIMER
 40
0.030789
  9
$USRTIMER
 70
     1
  9
$ANGBASE
 50
0.0
  9
$ANGDIR
 70
     0
  9
$PDMODE
 70
     0
  9
$PDSIZE
 40
0.0
  9
$PLINEWID
 40
0.0
  9
$COORDS
 70
     1
  9
$SPLFRAME
 70
     0
  9
$SPLINETYPE
 70
     6
  9
$SPLINESEGS
 70
     8
  9
$ATTDIA
 70
     0
  9
$ATTREQ
 70
     1
  9
$SURFTAB1
 70
     6
  9
$SURFTAB2
 70
     6
  9
$SURFTYPE
 70
     6
  9
$SURFU
 70
     6
  9
$SURFV
 70
     6
  9
$UCSNAME
  2

  9
$UCSORG
 10
0.0
 20
0.0
 30
0.0
  9
$UCSXDIR
 10
1.0
 20
0.0
 30
0.0
  9
$UCSYDIR
 10
0.0
 20
1.0
 30
0.0
  9
$PUCSNAME
  2

  9
$PUCSORG
 10
0.0
 20
0.0
 30
0.0
  9
$PUCSXDIR
 10
1.0
 20
0.0
 30
0.0
  9
$PUCSYDIR
 10
0.0
 20
1.0
 30
0.0
  9
$USERI1
 70
     0
  9
$USERI2
 70
     0
  9
$USERI3
 70
     0
  9
$USERI4
 70
     0
  9
$USERI5
 70
     0
  9
$USERR1
 40
0.0
  9
$USERR2
 40
0.0
  9
$USERR3
 40
0.0
  9
$USERR4
 40
0.0
  9
$USERR5
 40
0.0
  9
$WORLDVIEW
 70
     1
  9
$SHADEDGE
 70
     3
  9
$SHADEDIF
 70
    70
  9
$TILEMODE
 70
     1
  9
$MAXACTVP
 70
    64
  9
$PLIMCHECK
 70
     0
  9
$PEXTMIN
 10
1.000000E+020
 20
1.000000E+020
 30
1.000000E+020
  9
$PEXTMAX
 10
-1.000000E+020
 20
-1.000000E+020
 30
-1.000000E+020
  9
$PLIMMIN
 10
0.0
 20
0.0
  9
$PLIMMAX
 10
420.0
 20
297.0
  9
$UNITMODE
 70
     0
  9
$VISRETAIN
 70
     1
  9
$PLINEGEN
 70
     0
  9
$PSLTSCALE
 70
     1
  0
ENDSEC
  0
SECTION
  2
TABLES
  0
TABLE
  2
VPORT
 70
     2
  0
VPORT
  2
*ACTIVE
 70
     0
 10
0.0
 20
0.0
 11
1.0
 21
1.0
 12
424.672198
 22
148.5
 13
0.0
 23
0.0
 14
10.0
 24
10.0
 15
10.0
 25
10.0
 16
0.0
 26
0.0
 36
1.0
 17
0.0
 27
0.0
 37
0.0
 40
297.194831
 41
2.858921
 42
50.0
 43
0.0
 44
0.0
 50
0.0
 51
0.0
 71
     0
 72
   100
 73
     1
 74
     3
 75
     0
 76
     0
 77
     0
 78
     0
  0
ENDTAB
  0
TABLE
  2
LTYPE
 70
     5
  0
LTYPE
  2
CONTINUOUS
  70
0
  3
Solid line
 72
65
 73
0
 40
0.0
  0
LTYPE
  2
ACAD_ISO10W100
  70
0
  3
ISO Strichpunktlinie __ . __ . __ . __ . __ . _
 72
65
 73
4
 40
18.0
 49
12.0
 49
-3.0
 49
0.0
 49
-3.0
  0
LTYPE
  2
ACAD_ISO02W100
  70
0
  3
ISO Strichlinie __ __ __ __ __ __ __ __ __ __ _
 72
65
 73
2
 40
15.0
 49
12.0
 49
-3.0
  0
LTYPE
  2
STRICHLINIE
  70
0
  3
Strichlinie __ __ __ __ __ __ __ __ __ __ __ __
 72
65
 73
2
 40
0.75
 49
0.5
 49
-0.25
  0
LTYPE
  2
STRICHPUNKT
  70
0
  3
Strichpunkt __ . __ . __ . __ . __ . __ . __ . 
 72
65
 73
4
 40
1.0
 49
0.5
 49
-0.25
 49
0.0
 49
-0.25
  0
ENDTAB
  0
TABLE
  2
LAYER
 70
    14
  0
LAYER
  2
0
 70
0
 62
7
  6
CONTINUOUS
  0
LAYER
  2
REX_1
 70
0
 62
7
  6
CONTINUOUS
  0
LAYER
  2
REX_7
 70
0
 62
5
  6
STRICHPUNKT
  0
LAYER
  2
SILHOUETTE
 70
0
 62
7
  6
CONTINUOUS
  0
LAYER
  2
REX_8
 70
0
 62
1
  6
CONTINUOUS
  0
LAYER
  2
REX_3
 70
0
 62
6
  6
STRICHLINIE
  0
LAYER
  2
REX_4
 70
0
 62
5
  6
CONTINUOUS
  0
LAYER
  2
REX_5
 70
0
 62
3
  6
CONTINUOUS
  0
LAYER
  2
REX_6
 70
0
 62
40
  6
CONTINUOUS
  0
LAYER
  2
RAHM2
 70
0
 62
7
  6
CONTINUOUS
  0
LAYER
  2
RAHM3
 70
0
 62
7
  6
CONTINUOUS
  0
LAYER
  2
RAHM4
 70
0
 62
7
  6
CONTINUOUS
  0
LAYER
  2
RAHM5
 70
0
 62
7
  6
CONTINUOUS
  0
LAYER
  2
RAHMEN
 70
0
 62
7
  6
CONTINUOUS
  0
ENDTAB
  0
TABLE
  2
STYLE
 70
     3
  0
STYLE
  2
STANDARD
 70
     0
 40
0.0
 41
1.0
 50
0.0
 71
     0
 42
2.5
  3
isocp.shx
  4

  0
STYLE
  2
LOGO
 70
     0
 40
0.0
 41
1.0
 50
0.0
 71
     0
 42
0.2
  3
isocp.shx
  4

  0
STYLE
  2

 70
     1
 40
0.0
 41
1.0
 50
0.0
 71
     0
 42
2.5
  3
ltypeshp.shx
  4

  0
ENDTAB
  0
TABLE
  2
VIEW
 70
     0
  0
ENDTAB
  0
TABLE
  2
UCS
 70
     0
  0
ENDTAB
  0
TABLE
  2
APPID
 70
2
  0
APPID
  2
ACAD
 70
     0
  0
APPID
  2
DCO15
 70
     0
  0
ENDTAB
  0
TABLE
  2
DIMSTYLE
 70
     1
  0
DIMSTYLE
  2
ISO-25
 70
     0
  3

  4

  5

  6

  7

 40
1.0
 41
2.5
 42
0.625
 43
3.75
 44
1.25
 45
0.0
 46
0.0
 47
0.0
 48
0.0
140
2.5
141
2.5
142
0.0
143
0.03937
144
1.0
145
0.0
146
1.0
147
0.625
 71
     0
 72
     0
 73
     0
 74
     0
 75
     0
 76
     0
 77
     1
 78
     8
170
     0
171
     3
172
     1
173
     0
174
     0
175
     0
176
     0
177
     0
178
     0
  0
ENDTAB
  0
ENDSEC
  0
SECTION
  2
BLOCKS
  0
BLOCK
  8
REX_7
  2
8REX_MID_Jan_16_22-23-04
 70
0
 10
0.0000
 20
0.0000
 30
0.0000
  3
8REX_MID_Jan_16_22-23-04
  0
ENDBLK
  8
0
  0
BLOCK
  8
REX_1
  2
_VIEW_CUT_Jan_16_22-23-04
 70
0
 10
0.0000
 20
0.0000
 30
0.0000
  3
_VIEW_CUT_Jan_16_22-23-04
  0
INSERT
  8
REX_6
  2
8REX_MID_Jan_16_22-23-04
 10
0.0000
 20
0.0000
 30
0.0000
  0
POLYLINE
  6
continous
  8
BYBLOCK
 70
0
 66
1
  0
VERTEX
  8
0
 10
-4.4427
 20
11.4247
 30
0.0000
  0
VERTEX
  8
0
 10
-5.2054
 20
10.5898
 30
0.0000
  0
SEQEND
  0
POLYLINE
  6
continous
  8
BYBLOCK
 70
0
 66
1
  0
VERTEX
  8
0
 10
-4.4901
 20
12.5027
 30
0.0000
  0
VERTEX
  8
0
 10
-6.5286
 20
10.1138
 30
0.0000
  0
SEQEND
  0
LINE
  6
continous
  8
BYBLOCK
 10
-6.5286
 20
10.0102
 30
0.0000
 11
-7.6953
 21
8.6878
 31
0.0000
  0
LINE
  6
continous
  8
BYBLOCK
 10
10.6066
 20
-3.1515
 30
0.0000
 11
2834.0840
 21
1993.3485
 31
0.0000
  0
LINE
  6
continous
  8
BYBLOCK
 10
10.6066
 20
-0.5017
 30
0.0000
 11
2834.0840
 21
1995.9983
 31
0.0000
  0
LINE
  6
continous
  8
BYBLOCK
 10
9.4399
 20
0.9969
 30
0.0000
 11
2832.9173
 21
1997.4969
 31
0.0000
  0
LINE
  6
continous
  8
BYBLOCK
 10
9.4399
 20
2.6527
 30
0.0000
 11
2832.9173
 21
1999.1527
 31
0.0000
  0
LINE
  6
continous
  8
BYBLOCK
 10
8.0586
 20
4.9963
 30
0.0000
 11
2831.5360
 21
2001.4963
 31
0.0000
  0
LINE
  6
continous
  8
BYBLOCK
 10
7.3539
 20
5.9014
 30
0.0000
 11
2830.8313
 21
2002.4014
 31
0.0000
  0
LINE
  6
continous
  8
BYBLOCK
 10
9.4399
 20
11.6448
 30
0.0000
 11
2832.9173
 21
2008.1448
 31
0.0000
  0
LINE
  6
continous
  8
BYBLOCK
 10
9.4399
 20
13.6223
 30
0.0000
 11
2832.9173
 21
2010.1223
 31
0.0000
  0
LINE
  6
continous
  8
BYBLOCK
 10
-4.1401
 20
23.5749
 30
0.0000
 11
-6.4342
 21
21.2607
 31
0.0000
  0
LINE
  6
continous
  8
BYBLOCK
 10
9.0899
 20
14.2198
 30
0.0000
 11
6.4342
 21
12.1613
 31
0.0000
  0
LINE
  6
continous
  8
BYBLOCK
 10
9.4399
 20
13.6223
 30
0.0000
 11
9.0899
 21
14.2198
 31
0.0000
  0
LINE
  6
continous
  8
BYBLOCK
 10
9.4399
 20
13.6223
 30
0.0000
 11
6.5286
 21
12.0002
 31
0.0000
  0
LINE
  6
continous
  8
BYBLOCK
 10
9.4399
 20
11.6448
 30
0.0000
 11
9.4399
 21
13.6223
 31
0.0000
  0
POLYLINE
  6
continous
  8
BYBLOCK
 70
0
 66
1
  0
VERTEX
  8
0
 10
9.4399
 20
11.6448
 30
0.0000
  0
VERTEX
  8
0
 10
6.5286
 20
10.5337
 30
0.0000
  0
SEQEND
  0
POLYLINE
  6
continous
  8
BYBLOCK
 70
0
 66
1
  0
VERTEX
  8
0
 10
6.4182
 20
10.5679
 30
0.0000
  0
VERTEX
  8
0
 10
5.2054
 20
10.0577
 30
0.0000
  0
SEQEND
  0
LINE
  6
continous
  8
BYBLOCK
 10
7.3539
 20
5.9014
 30
0.0000
 11
7.3539
 21
10.8544
 31
0.0000
  0
LINE
  6
continous
  8
BYBLOCK
 10
7.3539
 20
5.9014
 30
0.0000
 11
4.4426
 21
4.2080
 31
0.0000
  0
LINE
  6
continous
  8
BYBLOCK
 10
8.0586
 20
4.9963
 30
0.0000
 11
7.3539
 21
5.9014
 31
0.0000
  0
POLYLINE
  6
continous
  8
BYBLOCK
 70
0
 66
1
  0
VERTEX
  8
0
 10
8.0586
 20
4.9963
 30
0.0000
  0
VERTEX
  8
0
 10
5.2054
 20
3.2283
 30
0.0000
  0
SEQEND
  0
POLYLINE
  6
continous
  8
BYBLOCK
 70
0
 66
1
  0
VERTEX
  8
0
 10
8.0586
 20
4.9963
 30
0.0000
  0
VERTEX
  8
0
 10
8.1884
 20
4.5076
 30
0.0000
  0
VERTEX
  8
0
 10
8.4094
 20
3.9971
 30
0.0000
  0
VERTEX
  8
0
 10
8.7087
 20
3.4943
 30
0.0000
  0
VERTEX
  8
0
 10
9.0690
 20
3.0285
 30
0.0000
  0
VERTEX
  8
0
 10
9.4399
 20
2.6527
 30
0.0000
  0
SEQEND
  0
POLYLINE
  6
continous
  8
BYBLOCK
 70
0
 66
1
  0
VERTEX
  8
0
 10
9.4399
 20
2.6527
 30
0.0000
  0
VERTEX
  8
0
 10
6.5286
 20
0.8810
 30
0.0000
  0
SEQEND
  0
LINE
  6
continous
  8
BYBLOCK
 10
9.4399
 20
0.9969
 30
0.0000
 11
9.4399
 21
2.6527
 31
0.0000
  0
LINE
  6
continous
  8
BYBLOCK
 10
9.4399
 20
0.9969
 30
0.0000
 11
6.5286
 21
-0.6964
 31
0.0000
  0
LINE
  6
continous
  8
BYBLOCK
 10
10.6066
 20
-0.5017
 30
0.0000
 11
9.4399
 21
0.9969
 31
0.0000
  0
LINE
  6
continous
  8
BYBLOCK
 10
10.6066
 20
-0.5017
 30
0.0000
 11
7.6953
 21
-2.1951
 31
0.0000
  0
LINE
  6
continous
  8
BYBLOCK
 10
10.6066
 20
-3.1515
 30
0.0000
 11
10.6066
 21
-0.5017
 31
0.0000
  0
LINE
  6
continous
  8
BYBLOCK
 10
10.6066
 20
-3.1515
 30
0.0000
 11
7.6953
 21
-4.4121
 31
0.0000
  0
LINE
  6
continous
  8
BYBLOCK
 10
-7.6953
 20
6.4707
 30
0.0000
 11
-7.1024
 21
5.4586
 31
0.0000
  0
LINE
  6
continous
  8
BYBLOCK
 10
-7.6953
 20
8.6878
 30
0.0000
 11
-7.6953
 21
6.4707
 31
0.0000
  0
LINE
  6
continous
  8
BYBLOCK
 10
-6.5286
 20
8.5364
 30
0.0000
 11
-7.6953
 21
8.6878
 31
0.0000
  0
LINE
  6
continous
  8
BYBLOCK
 10
-6.5286
 20
10.1138
 30
0.0000
 11
-6.5286
 21
8.5364
 31
0.0000
  0
POLYLINE
  6
continous
  8
BYBLOCK
 70
0
 66
1
  0
VERTEX
  8
0
 10
-5.3941
 20
10.2795
 30
0.0000
  0
VERTEX
  8
0
 10
-5.6270
 20
10.1093
 30
0.0000
  0
VERTEX
  8
0
 10
-5.9184
 20
10.0301
 30
0.0000
  0
VERTEX
  8
0
 10
-6.2581
 20
10.0446
 30
0.0000
  0
VERTEX
  8
0
 10
-6.5286
 20
10.1138
 30
0.0000
  0
SEQEND
  0
POLYLINE
  6
continous
  8
BYBLOCK
 70
0
 66
1
  0
VERTEX
  8
0
 10
-5.2054
 20
10.5898
 30
0.0000
  0
VERTEX
  8
0
 10
-5.3587
 20
10.3199
 30
0.0000
  0
VERTEX
  8
0
 10
-5.3941
 20
10.2795
 30
0.0000
  0
SEQEND
  0
LINE
  6
continous
  8
BYBLOCK
 10
-4.4426
 20
10.4909
 30
0.0000
 11
-5.2054
 21
10.5898
 31
0.0000
  0
LINE
  6
continous
  8
BYBLOCK
 10
-4.4426
 20
16.4395
 30
0.0000
 11
-4.4426
 21
10.4909
 31
0.0000
  0
LINE
  6
continous
  8
BYBLOCK
 10
-5.2054
 20
17.4192
 30
0.0000
 11
-4.4426
 21
16.4395
 31
0.0000
  0
POLYLINE
  6
continous
  8
BYBLOCK
 70
0
 66
1
  0
VERTEX
  8
0
 10
-6.5286
 20
19.7666
 30
0.0000
  0
VERTEX
  8
0
 10
-6.0907
 20
19.2351
 30
0.0000
  0
VERTEX
  8
0
 10
-5.7138
 20
18.6541
 30
0.0000
  0
VERTEX
  8
0
 10
-5.4174
 20
18.0532
 30
0.0000
  0
VERTEX
  8
0
 10
-5.2166
 20
17.4633
 30
0.0000
  0
VERTEX
  8
0
 10
-5.2054
 20
17.4192
 30
0.0000
  0
SEQEND
  0
LINE
  6
continous
  8
BYBLOCK
 10
-6.4342
 20
21.2607
 30
0.0000
 11
-6.5286
 21
21.2330
 31
0.0000
  0
LINE
  6
continous
  8
BYBLOCK
 10
6.4342
 20
12.1613
 30
0.0000
 11
-6.4342
 21
21.2607
 31
0.0000
  0
LINE
  6
continous
  8
BYBLOCK
 10
6.5286
 20
12.0002
 30
0.0000
 11
6.4342
 21
12.1613
 31
0.0000
  0
LINE
  6
continous
  8
BYBLOCK
 10
6.5286
 20
10.5337
 30
0.0000
 11
6.5286
 21
12.0002
 31
0.0000
  0
POLYLINE
  6
continous
  8
BYBLOCK
 70
0
 66
1
  0
VERTEX
  8
0
 10
5.6491
 20
10.5483
 30
0.0000
  0
VERTEX
  8
0
 10
5.9459
 20
10.6199
 30
0.0000
  0
VERTEX
  8
0
 10
6.2902
 20
10.5971
 30
0.0000
  0
VERTEX
  8
0
 10
6.5286
 20
10.5337
 30
0.0000
  0
SEQEND
  0
POLYLINE
  6
continous
  8
BYBLOCK
 70
0
 66
1
  0
VERTEX
  8
0
 10
5.2054
 20
10.0577
 30
0.0000
  0
VERTEX
  8
0
 10
5.3580
 20
10.3267
 30
0.0000
  0
VERTEX
  8
0
 10
5.5782
 20
10.5128
 30
0.0000
  0
VERTEX
  8
0
 10
5.6491
 20
10.5483
 30
0.0000
  0
SEQEND
  0
LINE
  6
continous
  8
BYBLOCK
 10
4.4426
 20
10.1566
 30
0.0000
 11
5.2054
 21
10.0577
 31
0.0000
  0
LINE
  6
continous
  8
BYBLOCK
 10
4.4426
 20
4.2080
 30
0.0000
 11
4.4426
 21
10.1566
 31
0.0000
  0
LINE
  6
continous
  8
BYBLOCK
 10
5.2054
 20
3.2283
 30
0.0000
 11
4.4426
 21
4.2080
 31
0.0000
  0
POLYLINE
  6
continous
  8
BYBLOCK
 70
0
 66
1
  0
VERTEX
  8
0
 10
6.5286
 20
0.8810
 30
0.0000
  0
VERTEX
  8
0
 10
6.0907
 20
1.4124
 30
0.0000
  0
VERTEX
  8
0
 10
5.7138
 20
1.9934
 30
0.0000
  0
VERTEX
  8
0
 10
5.4174
 20
2.5943
 30
0.0000
  0
VERTEX
  8
0
 10
5.2166
 20
3.1843
 30
0.0000
  0
VERTEX
  8
0
 10
5.2054
 20
3.2283
 30
0.0000
  0
SEQEND
  0
LINE
  6
continous
  8
BYBLOCK
 10
6.5286
 20
-0.6964
 30
0.0000
 11
6.5286
 21
0.8810
 31
0.0000
  0
LINE
  6
continous
  8
BYBLOCK
 10
7.6953
 20
-2.1951
 30
0.0000
 11
6.5286
 21
-0.6964
 31
0.0000
  0
LINE
  6
continous
  8
BYBLOCK
 10
7.6953
 20
-4.4121
 30
0.0000
 11
7.6953
 21
-2.1951
 31
0.0000
  0
LINE
  6
continous
  8
BYBLOCK
 10
7.1024
 20
-4.5858
 30
0.0000
 11
7.6953
 21
-4.4121
 31
0.0000
  0
LINE
  6
continous
  8
BYBLOCK
 10
-7.1024
 20
5.4586
 30
0.0000
 11
7.1024
 21
-4.5858
 31
0.0000
  0
LINE
  6
continous
  8
BYBLOCK
 10
-4.4901
 20
23.4723
 30
0.0000
 11
-6.5286
 21
21.2330
 31
0.0000
  0
LINE
  6
continous
  8
BYBLOCK
 10
-6.5286
 20
21.2330
 30
0.0000
 11
-6.5286
 21
19.7666
 31
0.0000
  0
POLYLINE
  6
continous
  8
BYBLOCK
 70
0
 66
1
  0
VERTEX
  8
0
 10
-4.4901
 20
12.5027
 30
0.0000
  0
VERTEX
  8
0
 10
-4.4424
 20
12.4786
 30
0.0000
  0
SEQEND
  0
POLYLINE
  6
continous
  8
BYBLOCK
 70
0
 66
1
  0
VERTEX
  8
0
 10
2810.3959
 20
2009.8266
 30
0.0000
  0
VERTEX
  8
0
 10
2809.8414
 20
2009.3685
 30
0.0000
  0
VERTEX
  8
0
 10
2809.3938
 20
2008.8552
 30
0.0000
  0
VERTEX
  8
0
 10
2809.0638
 20
2008.2991
 30
0.0000
  0
VERTEX
  8
0
 10
2808.8593
 20
2007.7137
 30
0.0000
  0
VERTEX
  8
0
 10
2808.7852
 20
2007.1130
 30
0.0000
  0
SEQEND
  0
LINE
  6
continous
  8
BYBLOCK
 10
2810.3959
 20
2009.8266
 30
0.0000
 11
2810.3959
 21
2009.8973
 31
0.0000
  0
POLYLINE
  6
continous
  8
BYBLOCK
 70
0
 66
1
  0
VERTEX
  8
0
 10
2819.7848
 20
2007.1107
 30
0.0000
  0
VERTEX
  8
0
 10
2819.7101
 20
2007.7164
 30
0.0000
  0
VERTEX
  8
0
 10
2819.5027
 20
2008.3065
 30
0.0000
  0
VERTEX
  8
0
 10
2819.1679
 20
2008.8665
 30
0.0000
  0
VERTEX
  8
0
 10
2818.7137
 20
2009.3828
 30
0.0000
  0
VERTEX
  8
0
 10
2818.1513
 20
2009.8427
 30
0.0000
  0
VERTEX
  8
0
 10
2817.4944
 20
2010.2349
 30
0.0000
  0
VERTEX
  8
0
 10
2816.7590
 20
2010.5500
 30
0.0000
  0
VERTEX
  8
0
 10
2815.9632
 20
2010.7803
 30
0.0000
  0
VERTEX
  8
0
 10
2815.0317
 20
2010.9297
 30
0.0000
  0
VERTEX
  8
0
 10
2814.0777
 20
2010.9630
 30
0.0000
  0
VERTEX
  8
0
 10
2813.1299
 20
2010.8790
 30
0.0000
  0
VERTEX
  8
0
 10
2812.2170
 20
2010.6803
 30
0.0000
  0
VERTEX
  8
0
 10
2811.4480
 20
2010.4084
 30
0.0000
  0
VERTEX
  8
0
 10
2810.7483
 20
2010.0550
 30
0.0000
  0
VERTEX
  8
0
 10
2810.3959
 20
2009.8266
 30
0.0000
  0
SEQEND
  0
POLYLINE
  6
continous
  8
BYBLOCK
 70
0
 66
1
  0
VERTEX
  8
0
 10
2767.9695
 20
1979.8266
 30
0.0000
  0
VERTEX
  8
0
 10
2767.4150
 20
1979.3685
 30
0.0000
  0
VERTEX
  8
0
 10
2766.9674
 20
1978.8552
 30
0.0000
  0
VERTEX
  8
0
 10
2766.6374
 20
1978.2991
 30
0.0000
  0
VERTEX
  8
0
 10
2766.4329
 20
1977.7137
 30
0.0000
  0
VERTEX
  8
0
 10
2766.3588
 20
1977.1130
 30
0.0000
  0
SEQEND
  0
LINE
  6
continous
  8
BYBLOCK
 10
2767.9695
 20
1979.8266
 30
0.0000
 11
2767.9695
 21
1979.8973
 31
0.0000
  0
POLYLINE
  6
continous
  8
BYBLOCK
 70
0
 66
1
  0
VERTEX
  8
0
 10
2777.3584
 20
1977.1107
 30
0.0000
  0
VERTEX
  8
0
 10
2777.2836
 20
1977.7164
 30
0.0000
  0
VERTEX
  8
0
 10
2777.0763
 20
1978.3065
 30
0.0000
  0
VERTEX
  8
0
 10
2776.7415
 20
1978.8665
 30
0.0000
  0
VERTEX
  8
0
 10
2776.2873
 20
1979.3828
 30
0.0000
  0
VERTEX
  8
0
 10
2775.7249
 20
1979.8427
 30
0.0000
  0
VERTEX
  8
0
 10
2775.0679
 20
1980.2349
 30
0.0000
  0
VERTEX
  8
0
 10
2774.3326
 20
1980.5500
 30
0.0000
  0
VERTEX
  8
0
 10
2773.5368
 20
1980.7803
 30
0.0000
  0
VERTEX
  8
0
 10
2772.6053
 20
1980.9297
 30
0.0000
  0
VERTEX
  8
0
 10
2771.6513
 20
1980.9630
 30
0.0000
  0
VERTEX
  8
0
 10
2770.7035
 20
1980.8790
 30
0.0000
  0
VERTEX
  8
0
 10
2769.7906
 20
1980.6803
 30
0.0000
  0
VERTEX
  8
0
 10
2769.0216
 20
1980.4084
 30
0.0000
  0
VERTEX
  8
0
 10
2768.3219
 20
1980.0550
 30
0.0000
  0
VERTEX
  8
0
 10
2767.9695
 20
1979.8266
 30
0.0000
  0
SEQEND
  0
POLYLINE
  6
continous
  8
BYBLOCK
 70
0
 66
1
  0
VERTEX
  8
0
 10
2725.5431
 20
1949.8266
 30
0.0000
  0
VERTEX
  8
0
 10
2724.9886
 20
1949.3685
 30
0.0000
  0
VERTEX
  8
0
 10
2724.5410
 20
1948.8552
 30
0.0000
  0
VERTEX
  8
0
 10
2724.2110
 20
1948.2991
 30
0.0000
  0
VERTEX
  8
0
 10
2724.0065
 20
1947.7137
 30
0.0000
  0
VERTEX
  8
0
 10
2723.9324
 20
1947.1130
 30
0.0000
  0
SEQEND
  0
LINE
  6
continous
  8
BYBLOCK
 10
2725.5431
 20
1949.8266
 30
0.0000
 11
2725.5431
 21
1949.8973
 31
0.0000
  0
POLYLINE
  6
continous
  8
BYBLOCK
 70
0
 66
1
  0
VERTEX
  8
0
 10
2734.9320
 20
1947.1107
 30
0.0000
  0
VERTEX
  8
0
 10
2734.8572
 20
1947.7164
 30
0.0000
  0
VERTEX
  8
0
 10
2734.6499
 20
1948.3065
 30
0.0000
  0
VERTEX
  8
0
 10
2734.3151
 20
1948.8665
 30
0.0000
  0
VERTEX
  8
0
 10
2733.8609
 20
1949.3828
 30
0.0000
  0
VERTEX
  8
0
 10
2733.2985
 20
1949.8427
 30
0.0000
  0
VERTEX
  8
0
 10
2732.6415
 20
1950.2349
 30
0.0000
  0
VERTEX
  8
0
 10
2731.9062
 20
1950.5500
 30
0.0000
  0
VERTEX
  8
0
 10
2731.1104
 20
1950.7803
 30
0.0000
  0
VERTEX
  8
0
 10
2730.1789
 20
1950.9297
 30
0.0000
  0
VERTEX
  8
0
 10
2729.2249
 20
1950.9630
 30
0.0000
  0
VERTEX
  8
0
 10
2728.2771
 20
1950.8790
 30
0.0000
  0
VERTEX
  8
0
 10
2727.3642
 20
1950.6803
 30
0.0000
  0
VERTEX
  8
0
 10
2726.5952
 20
1950.4084
 30
0.0000
  0
VERTEX
  8
0
 10
2725.8955
 20
1950.0550
 30
0.0000
  0
VERTEX
  8
0
 10
2725.5431
 20
1949.8266
 30
0.0000
  0
SEQEND
  0
POLYLINE
  6
continous
  8
BYBLOCK
 70
0
 66
1
  0
VERTEX
  8
0
 10
2683.1167
 20
1919.8266
 30
0.0000
  0
VERTEX
  8
0
 10
2682.5622
 20
1919.3685
 30
0.0000
  0
VERTEX
  8
0
 10
2682.1146
 20
1918.8552
 30
0.0000
  0
VERTEX
  8
0
 10
2681.7846
 20
1918.2991
 30
0.0000
  0
VERTEX
  8
0
 10
2681.5801
 20
1917.7137
 30
0.0000
  0
VERTEX
  8
0
 10
2681.5060
 20
1917.1130
 30
0.0000
  0
SEQEND
  0
LINE
  6
continous
  8
BYBLOCK
 10
2683.1167
 20
1919.8266
 30
0.0000
 11
2683.1167
 21
1919.8973
 31
0.0000
  0
POLYLINE
  6
continous
  8
BYBLOCK
 70
0
 66
1
  0
VERTEX
  8
0
 10
2692.5056
 20
1917.1107
 30
0.0000
  0
VERTEX
  8
0
 10
2692.4308
 20
1917.7164
 30
0.0000
  0
VERTEX
  8
0
 10
2692.2235
 20
1918.3065
 30
0.0000
  0
VERTEX
  8
0
 10
2691.8887
 20
1918.8665
 30
0.0000
  0
VERTEX
  8
0
 10
2691.4345
 20
1919.3828
 30
0.0000
  0
VERTEX
  8
0
 10
2690.8721
 20
1919.8427
 30
0.0000
  0
VERTEX
  8
0
 10
2690.2151
 20
1920.2349
 30
0.0000
  0
VERTEX
  8
0
 10
2689.4798
 20
1920.5500
 30
0.0000
  0
VERTEX
  8
0
 10
2688.6839
 20
1920.7803
 30
0.0000
  0
VERTEX
  8
0
 10
2687.7525
 20
1920.9297
 30
0.0000
  0
VERTEX
  8
0
 10
2686.7985
 20
1920.9630
 30
0.0000
  0
VERTEX
  8
0
 10
2685.8507
 20
1920.8790
 30
0.0000
  0
VERTEX
  8
0
 10
2684.9378
 20
1920.6803
 30
0.0000
  0
VERTEX
  8
0
 10
2684.1688
 20
1920.4084
 30
0.0000
  0
VERTEX
  8
0
 10
2683.4691
 20
1920.0550
 30
0.0000
  0
VERTEX
  8
0
 10
2683.1167
 20
1919.8266
 30
0.0000
  0
SEQEND
  0
POLYLINE
  6
continous
  8
BYBLOCK
 70
0
 66
1
  0
VERTEX
  8
0
 10
2640.6903
 20
1889.8266
 30
0.0000
  0
VERTEX
  8
0
 10
2640.1358
 20
1889.3685
 30
0.0000
  0
VERTEX
  8
0
 10
2639.6882
 20
1888.8552
 30
0.0000
  0
VERTEX
  8
0
 10
2639.3582
 20
1888.2991
 30
0.0000
  0
VERTEX
  8
0
 10
2639.1537
 20
1887.7137
 30
0.0000
  0
VERTEX
  8
0
 10
2639.0796
 20
1887.1130
 30
0.0000
  0
SEQEND
  0
LINE
  6
continous
  8
BYBLOCK
 10
2640.6903
 20
1889.8266
 30
0.0000
 11
2640.6903
 21
1889.8973
 31
0.0000
  0
POLYLINE
  6
continous
  8
BYBLOCK
 70
0
 66
1
  0
VERTEX
  8
0
 10
2650.0792
 20
1887.1107
 30
0.0000
  0
VERTEX
  8
0
 10
2650.0044
 20
1887.7164
 30
0.0000
  0
VERTEX
  8
0
 10
2649.7971
 20
1888.3065
 30
0.0000
  0
VERTEX
  8
0
 10
2649.4623
 20
1888.8665
 30
0.0000
  0
VERTEX
  8
0
 10
2649.0081
 20
1889.3828
 30
0.0000
  0
VERTEX
  8
0
 10
2648.4456
 20
1889.8427
 30
0.0000
  0
VERTEX
  8
0
 10
2647.7887
 20
1890.2349
 30
0.0000
  0
VERTEX
  8
0
 10
2647.0534
 20
1890.5500
 30
0.0000
  0
VERTEX
  8
0
 10
2646.2575
 20
1890.7803
 30
0.0000
  0
VERTEX
  8
0
 10
2645.3261
 20
1890.9297
 30
0.0000
  0
VERTEX
  8
0
 10
2644.3721
 20
1890.9630
 30
0.0000
  0
VERTEX
  8
0
 10
2643.4243
 20
1890.8790
 30
0.0000
  0
VERTEX
  8
0
 10
2642.5114
 20
1890.6803
 30
0.0000
  0
VERTEX
  8
0
 10
2641.7424
 20
1890.4084
 30
0.0000
  0
VERTEX
  8
0
 10
2641.0427
 20
1890.0550
 30
0.0000
  0
VERTEX
  8
0
 10
2640.6903
 20
1889.8266
 30
0.0000
  0
SEQEND
  0
POLYLINE
  6
continous
  8
BYBLOCK
 70
0
 66
1
  0
VERTEX
  8
0
 10
2598.2639
 20
1859.8266
 30
0.0000
  0
VERTEX
  8
0
 10
2597.7094
 20
1859.3685
 30
0.0000
  0
VERTEX
  8
0
 10
2597.2618
 20
1858.8552
 30
0.0000
  0
VERTEX
  8
0
 10
2596.9318
 20
1858.2991
 30
0.0000
  0
VERTEX
  8
0
 10
2596.7273
 20
1857.7137
 30
0.0000
  0
VERTEX
  8
0
 10
2596.6532
 20
1857.1130
 30
0.0000
  0
SEQEND
  0
LINE
  6
continous
  8
BYBLOCK
 10
2598.2639
 20
1859.8266
 30
0.0000
 11
2598.2639
 21
1859.8973
 31
0.0000
  0
POLYLINE
  6
continous
  8
BYBLOCK
 70
0
 66
1
  0
VERTEX
  8
0
 10
2607.6527
 20
1857.1107
 30
0.0000
  0
VERTEX
  8
0
 10
2607.5780
 20
1857.7164
 30
0.0000
  0
VERTEX
  8
0
 10
2607.3707
 20
1858.3065
 30
0.0000
  0
VERTEX
  8
0
 10
2607.0359
 20
1858.8665
 30
0.0000
  0
VERTEX
  8
0
 10
2606.5817
 20
1859.3828
 30
0.0000
  0
VERTEX
  8
0
 10
2606.0192
 20
1859.8427
 30
0.0000
  0
VERTEX
  8
0
 10
2605.3623
 20
1860.2349
 30
0.0000
  0
VERTEX
  8
0
 10
2604.6270
 20
1860.5500
 30
0.0000
  0
VERTEX
  8
0
 10
2603.8311
 20
1860.7803
 30
0.0000
  0
VERTEX
  8
0
 10
2602.8997
 20
1860.9297
 30
0.0000
  0
VERTEX
  8
0
 10
2601.9457
 20
1860.9630
 30
0.0000
  0
VERTEX
  8
0
 10
2600.9979
 20
1860.8790
 30
0.0000
  0
VERTEX
  8
0
 10
2600.0850
 20
1860.6803
 30
0.0000
  0
VERTEX
  8
0
 10
2599.3160
 20
1860.4084
 30
0.0000
  0
VERTEX
  8
0
 10
2598.6163
 20
1860.0550
 30
0.0000
  0
VERTEX
  8
0
 10
2598.2639
 20
1859.8266
 30
0.0000
  0
SEQEND
  0
POLYLINE
  6
continous
  8
BYBLOCK
 70
0
 66
1
  0
VERTEX
  8
0
 10
2555.8375
 20
1829.8266
 30
0.0000
  0
VERTEX
  8
0
 10
2555.2830
 20
1829.3685
 30
0.0000
  0
VERTEX
  8
0
 10
2554.8354
 20
1828.8552
 30
0.0000
  0
VERTEX
  8
0
 10
2554.5053
 20
1828.2991
 30
0.0000
  0
VERTEX
  8
0
 10
2554.3008
 20
1827.7137
 30
0.0000
  0
VERTEX
  8
0
 10
2554.2268
 20
1827.1130
 30
0.0000
  0
SEQEND
  0
LINE
  6
continous
  8
BYBLOCK
 10
2555.8375
 20
1829.8266
 30
0.0000
 11
2555.8375
 21
1829.8973
 31
0.0000
  0
POLYLINE
  6
continous
  8
BYBLOCK
 70
0
 66
1
  0
VERTEX
  8
0
 10
2565.2263
 20
1827.1107
 30
0.0000
  0
VERTEX
  8
0
 10
2565.1516
 20
1827.7164
 30
0.0000
  0
VERTEX
  8
0
 10
2564.9443
 20
1828.3065
 30
0.0000
  0
VERTEX
  8
0
 10
2564.6094
 20
1828.8665
 30
0.0000
  0
VERTEX
  8
0
 10
2564.1553
 20
1829.3828
 30
0.0000
  0
VERTEX
  8
0
 10
2563.5928
 20
1829.8427
 30
0.0000
  0
VERTEX
  8
0
 10
2562.9359
 20
1830.2349
 30
0.0000
  0
VERTEX
  8
0
 10
2562.2006
 20
1830.5500
 30
0.0000
  0
VERTEX
  8
0
 10
2561.4047
 20
1830.7803
 30
0.0000
  0
VERTEX
  8
0
 10
2560.4732
 20
1830.9297
 30
0.0000
  0
VERTEX
  8
0
 10
2559.5193
 20
1830.9630
 30
0.0000
  0
VERTEX
  8
0
 10
2558.5715
 20
1830.8790
 30
0.0000
  0
VERTEX
  8
0
 10
2557.6586
 20
1830.6803
 30
0.0000
  0
VERTEX
  8
0
 10
2556.8896
 20
1830.4084
 30
0.0000
  0
VERTEX
  8
0
 10
2556.1898
 20
1830.0550
 30
0.0000
  0
VERTEX
  8
0
 10
2555.8375
 20
1829.8266
 30
0.0000
  0
SEQEND
  0
POLYLINE
  6
continous
  8
BYBLOCK
 70
0
 66
1
  0
VERTEX
  8
0
 10
2513.4111
 20
1799.8266
 30
0.0000
  0
VERTEX
  8
0
 10
2512.8566
 20
1799.3685
 30
0.0000
  0
VERTEX
  8
0
 10
2512.4090
 20
1798.8552
 30
0.0000
  0
VERTEX
  8
0
 10
2512.0789
 20
1798.2991
 30
0.0000
  0
VERTEX
  8
0
 10
2511.8744
 20
1797.7137
 30
0.0000
  0
VERTEX
  8
0
 10
2511.8004
 20
1797.1130
 30
0.0000
  0
SEQEND
  0
LINE
  6
continous
  8
BYBLOCK
 10
2513.4111
 20
1799.8266
 30
0.0000
 11
2513.4111
 21
1799.8973
 31
0.0000
  0
POLYLINE
  6
continous
  8
BYBLOCK
 70
0
 66
1
  0
VERTEX
  8
0
 10
2522.7999
 20
1797.1107
 30
0.0000
  0
VERTEX
  8
0
 10
2522.7252
 20
1797.7164
 30
0.0000
  0
VERTEX
  8
0
 10
2522.5179
 20
1798.3065
 30
0.0000
  0
VERTEX
  8
0
 10
2522.1830
 20
1798.8665
 30
0.0000
  0
VERTEX
  8
0
 10
2521.7289
 20
1799.3828
 30
0.0000
  0
VERTEX
  8
0
 10
2521.1664
 20
1799.8427
 30
0.0000
  0
VERTEX
  8
0
 10
2520.5095
 20
1800.2349
 30
0.0000
  0
VERTEX
  8
0
 10
2519.7741
 20
1800.5500
 30
0.0000
  0
VERTEX
  8
0
 10
2518.9783
 20
1800.7803
 30
0.0000
  0
VERTEX
  8
0
 10
2518.0468
 20
1800.9297
 30
0.0000
  0
VERTEX
  8
0
 10
2517.0928
 20
1800.9630
 30
0.0000
  0
VERTEX
  8
0
 10
2516.1451
 20
1800.8790
 30
0.0000
  0
VERTEX
  8
0
 10
2515.2322
 20
1800.6803
 30
0.0000
  0
VERTEX
  8
0
 10
2514.4631
 20
1800.4084
 30
0.0000
  0
VERTEX
  8
0
 10
2513.7634
 20
1800.0550
 30
0.0000
  0
VERTEX
  8
0
 10
2513.4111
 20
1799.8266
 30
0.0000
  0
SEQEND
  0
POLYLINE
  6
continous
  8
BYBLOCK
 70
0
 66
1
  0
VERTEX
  8
0
 10
2470.9846
 20
1769.8266
 30
0.0000
  0
VERTEX
  8
0
 10
2470.4302
 20
1769.3685
 30
0.0000
  0
VERTEX
  8
0
 10
2469.9826
 20
1768.8552
 30
0.0000
  0
VERTEX
  8
0
 10
2469.6525
 20
1768.2991
 30
0.0000
  0
VERTEX
  8
0
 10
2469.4480
 20
1767.7137
 30
0.0000
  0
VERTEX
  8
0
 10
2469.3740
 20
1767.1130
 30
0.0000
  0
SEQEND
  0
LINE
  6
continous
  8
BYBLOCK
 10
2470.9846
 20
1769.8266
 30
0.0000
 11
2470.9846
 21
1769.8973
 31
0.0000
  0
POLYLINE
  6
continous
  8
BYBLOCK
 70
0
 66
1
  0
VERTEX
  8
0
 10
2480.3735
 20
1767.1107
 30
0.0000
  0
VERTEX
  8
0
 10
2480.2988
 20
1767.7164
 30
0.0000
  0
VERTEX
  8
0
 10
2480.0915
 20
1768.3065
 30
0.0000
  0
VERTEX
  8
0
 10
2479.7566
 20
1768.8665
 30
0.0000
  0
VERTEX
  8
0
 10
2479.3024
 20
1769.3828
 30
0.0000
  0
VERTEX
  8
0
 10
2478.7400
 20
1769.8427
 30
0.0000
  0
VERTEX
  8
0
 10
2478.0831
 20
1770.2349
 30
0.0000
  0
VERTEX
  8
0
 10
2477.3477
 20
1770.5500
 30
0.0000
  0
VERTEX
  8
0
 10
2476.5519
 20
1770.7803
 30
0.0000
  0
VERTEX
  8
0
 10
2475.6204
 20
1770.9297
 30
0.0000
  0
VERTEX
  8
0
 10
2474.6664
 20
1770.9630
 30
0.0000
  0
VERTEX
  8
0
 10
2473.7187
 20
1770.8790
 30
0.0000
  0
VERTEX
  8
0
 10
2472.8058
 20
1770.6803
 30
0.0000
  0
VERTEX
  8
0
 10
2472.0367
 20
1770.4084
 30
0.0000
  0
VERTEX
  8
0
 10
2471.3370
 20
1770.0550
 30
0.0000
  0
VERTEX
  8
0
 10
2470.9846
 20
1769.8266
 30
0.0000
  0
SEQEND
  0
POLYLINE
  6
continous
  8
BYBLOCK
 70
0
 66
1
  0
VERTEX
  8
0
 10
2428.5582
 20
1739.8266
 30
0.0000
  0
VERTEX
  8
0
 10
2428.0038
 20
1739.3685
 30
0.0000
  0
VERTEX
  8
0
 10
2427.5562
 20
1738.8552
 30
0.0000
  0
VERTEX
  8
0
 10
2427.2261
 20
1738.2991
 30
0.0000
  0
VERTEX
  8
0
 10
2427.0216
 20
1737.7137
 30
0.0000
  0
VERTEX
  8
0
 10
2426.9476
 20
1737.1130
 30
0.0000
  0
SEQEND
  0
LINE
  6
continous
  8
BYBLOCK
 10
2428.5582
 20
1739.8266
 30
0.0000
 11
2428.5582
 21
1739.8973
 31
0.0000
  0
POLYLINE
  6
continous
  8
BYBLOCK
 70
0
 66
1
  0
VERTEX
  8
0
 10
2437.9471
 20
1737.1107
 30
0.0000
  0
VERTEX
  8
0
 10
2437.8724
 20
1737.7164
 30
0.0000
  0
VERTEX
  8
0
 10
2437.6651
 20
1738.3065
 30
0.0000
  0
VERTEX
  8
0
 10
2437.3302
 20
1738.8665
 30
0.0000
  0
VERTEX
  8
0
 10
2436.8760
 20
1739.3828
 30
0.0000
  0
VERTEX
  8
0
 10
2436.3136
 20
1739.8427
 30
0.0000
  0
VERTEX
  8
0
 10
2435.6567
 20
1740.2349
 30
0.0000
  0
VERTEX
  8
0
 10
2434.9213
 20
1740.5500
 30
0.0000
  0
VERTEX
  8
0
 10
2434.1255
 20
1740.7803
 30
0.0000
  0
VERTEX
  8
0
 10
2433.1940
 20
1740.9297
 30
0.0000
  0
VERTEX
  8
0
 10
2432.2400
 20
1740.9630
 30
0.0000
  0
VERTEX
  8
0
 10
2431.2923
 20
1740.8790
 30
0.0000
  0
VERTEX
  8
0
 10
2430.3794
 20
1740.6803
 30
0.0000
  0
VERTEX
  8
0
 10
2429.6103
 20
1740.4084
 30
0.0000
  0
VERTEX
  8
0
 10
2428.9106
 20
1740.0550
 30
0.0000
  0
VERTEX
  8
0
 10
2428.5582
 20
1739.8266
 30
0.0000
  0
SEQEND
  0
POLYLINE
  6
continous
  8
BYBLOCK
 70
0
 66
1
  0
VERTEX
  8
0
 10
2386.1318
 20
1709.8266
 30
0.0000
  0
VERTEX
  8
0
 10
2385.5774
 20
1709.3685
 30
0.0000
  0
VERTEX
  8
0
 10
2385.1298
 20
1708.8552
 30
0.0000
  0
VERTEX
  8
0
 10
2384.7997
 20
1708.2991
 30
0.0000
  0
VERTEX
  8
0
 10
2384.5952
 20
1707.7137
 30
0.0000
  0
VERTEX
  8
0
 10
2384.5212
 20
1707.1130
 30
0.0000
  0
SEQEND
  0
LINE
  6
continous
  8
BYBLOCK
 10
2386.1318
 20
1709.8266
 30
0.0000
 11
2386.1318
 21
1709.8973
 31
0.0000
  0
POLYLINE
  6
continous
  8
BYBLOCK
 70
0
 66
1
  0
VERTEX
  8
0
 10
2395.5207
 20
1707.1107
 30
0.0000
  0
VERTEX
  8
0
 10
2395.4460
 20
1707.7164
 30
0.0000
  0
VERTEX
  8
0
 10
2395.2387
 20
1708.3065
 30
0.0000
  0
VERTEX
  8
0
 10
2394.9038
 20
1708.8665
 30
0.0000
  0
VERTEX
  8
0
 10
2394.4496
 20
1709.3828
 30
0.0000
  0
VERTEX
  8
0
 10
2393.8872
 20
1709.8427
 30
0.0000
  0
VERTEX
  8
0
 10
2393.2303
 20
1710.2349
 30
0.0000
  0
VERTEX
  8
0
 10
2392.4949
 20
1710.5500
 30
0.0000
  0
VERTEX
  8
0
 10
2391.6991
 20
1710.7803
 30
0.0000
  0
VERTEX
  8
0
 10
2390.7676
 20
1710.9297
 30
0.0000
  0
VERTEX
  8
0
 10
2389.8136
 20
1710.9630
 30
0.0000
  0
VERTEX
  8
0
 10
2388.8659
 20
1710.8790
 30
0.0000
  0
VERTEX
  8
0
 10
2387.9530
 20
1710.6803
 30
0.0000
  0
VERTEX
  8
0
 10
2387.1839
 20
1710.4084
 30
0.0000
  0
VERTEX
  8
0
 10
2386.4842
 20
1710.0550
 30
0.0000
  0
VERTEX
  8
0
 10
2386.1318
 20
1709.8266
 30
0.0000
  0
SEQEND
  0
POLYLINE
  6
continous
  8
BYBLOCK
 70
0
 66
1
  0
VERTEX
  8
0
 10
2343.7054
 20
1679.8266
 30
0.0000
  0
VERTEX
  8
0
 10
2343.1510
 20
1679.3685
 30
0.0000
  0
VERTEX
  8
0
 10
2342.7033
 20
1678.8552
 30
0.0000
  0
VERTEX
  8
0
 10
2342.3733
 20
1678.2991
 30
0.0000
  0
VERTEX
  8
0
 10
2342.1688
 20
1677.7137
 30
0.0000
  0
VERTEX
  8
0
 10
2342.0948
 20
1677.1130
 30
0.0000
  0
SEQEND
  0
LINE
  6
continous
  8
BYBLOCK
 10
2343.7054
 20
1679.8266
 30
0.0000
 11
2343.7054
 21
1679.8973
 31
0.0000
  0
POLYLINE
  6
continous
  8
BYBLOCK
 70
0
 66
1
  0
VERTEX
  8
0
 10
2353.0943
 20
1677.1107
 30
0.0000
  0
VERTEX
  8
0
 10
2353.0196
 20
1677.7164
 30
0.0000
  0
VERTEX
  8
0
 10
2352.8123
 20
1678.3065
 30
0.0000
  0
VERTEX
  8
0
 10
2352.4774
 20
1678.8665
 30
0.0000
  0
VERTEX
  8
0
 10
2352.0232
 20
1679.3828
 30
0.0000
  0
VERTEX
  8
0
 10
2351.4608
 20
1679.8427
 30
0.0000
  0
VERTEX
  8
0
 10
2350.8039
 20
1680.2349
 30
0.0000
  0
VERTEX
  8
0
 10
2350.0685
 20
1680.5500
 30
0.0000
  0
VERTEX
  8
0
 10
2349.2727
 20
1680.7803
 30
0.0000
  0
VERTEX
  8
0
 10
2348.3412
 20
1680.9297
 30
0.0000
  0
VERTEX
  8
0
 10
2347.3872
 20
1680.9630
 30
0.0000
  0
VERTEX
  8
0
 10
2346.4395
 20
1680.8790
 30
0.0000
  0
VERTEX
  8
0
 10
2345.5266
 20
1680.6803
 30
0.0000
  0
VERTEX
  8
0
 10
2344.7575
 20
1680.4084
 30
0.0000
  0
VERTEX
  8
0
 10
2344.0578
 20
1680.0550
 30
0.0000
  0
VERTEX
  8
0
 10
2343.7054
 20
1679.8266
 30
0.0000
  0
SEQEND
  0
POLYLINE
  6
continous
  8
BYBLOCK
 70
0
 66
1
  0
VERTEX
  8
0
 10
2301.2790
 20
1649.8266
 30
0.0000
  0
VERTEX
  8
0
 10
2300.7246
 20
1649.3685
 30
0.0000
  0
VERTEX
  8
0
 10
2300.2769
 20
1648.8552
 30
0.0000
  0
VERTEX
  8
0
 10
2299.9469
 20
1648.2991
 30
0.0000
  0
VERTEX
  8
0
 10
2299.7424
 20
1647.7137
 30
0.0000
  0
VERTEX
  8
0
 10
2299.6683
 20
1647.1130
 30
0.0000
  0
SEQEND
  0
LINE
  6
continous
  8
BYBLOCK
 10
2301.2790
 20
1649.8266
 30
0.0000
 11
2301.2790
 21
1649.8973
 31
0.0000
  0
POLYLINE
  6
continous
  8
BYBLOCK
 70
0
 66
1
  0
VERTEX
  8
0
 10
2310.6679
 20
1647.1107
 30
0.0000
  0
VERTEX
  8
0
 10
2310.5932
 20
1647.7164
 30
0.0000
  0
VERTEX
  8
0
 10
2310.3859
 20
1648.3065
 30
0.0000
  0
VERTEX
  8
0
 10
2310.0510
 20
1648.8665
 30
0.0000
  0
VERTEX
  8
0
 10
2309.5968
 20
1649.3828
 30
0.0000
  0
VERTEX
  8
0
 10
2309.0344
 20
1649.8427
 30
0.0000
  0
VERTEX
  8
0
 10
2308.3775
 20
1650.2349
 30
0.0000
  0
VERTEX
  8
0
 10
2307.6421
 20
1650.5500
 30
0.0000
  0
VERTEX
  8
0
 10
2306.8463
 20
1650.7803
 30
0.0000
  0
VERTEX
  8
0
 10
2305.9148
 20
1650.9297
 30
0.0000
  0
VERTEX
  8
0
 10
2304.9608
 20
1650.9630
 30
0.0000
  0
VERTEX
  8
0
 10
2304.0131
 20
1650.8790
 30
0.0000
  0
VERTEX
  8
0
 10
2303.1002
 20
1650.6803
 30
0.0000
  0
VERTEX
  8
0
 10
2302.3311
 20
1650.4084
 30
0.0000
  0
VERTEX
  8
0
 10
2301.6314
 20
1650.0550
 30
0.0000
  0
VERTEX
  8
0
 10
2301.2790
 20
1649.8266
 30
0.0000
  0
SEQEND
  0
POLYLINE
  6
continous
  8
BYBLOCK
 70
0
 66
1
  0
VERTEX
  8
0
 10
2258.8526
 20
1619.8266
 30
0.0000
  0
VERTEX
  8
0
 10
2258.2982
 20
1619.3685
 30
0.0000
  0
VERTEX
  8
0
 10
2257.8505
 20
1618.8552
 30
0.0000
  0
VERTEX
  8
0
 10
2257.5205
 20
1618.2991
 30
0.0000
  0
VERTEX
  8
0
 10
2257.3160
 20
1617.7137
 30
0.0000
  0
VERTEX
  8
0
 10
2257.2419
 20
1617.1130
 30
0.0000
  0
SEQEND
  0
LINE
  6
continous
  8
BYBLOCK
 10
2258.8526
 20
1619.8266
 30
0.0000
 11
2258.8526
 21
1619.8973
 31
0.0000
  0
POLYLINE
  6
continous
  8
BYBLOCK
 70
0
 66
1
  0
VERTEX
  8
0
 10
2268.2415
 20
1617.1107
 30
0.0000
  0
VERTEX
  8
0
 10
2268.1668
 20
1617.7164
 30
0.0000
  0
VERTEX
  8
0
 10
2267.9594
 20
1618.3065
 30
0.0000
  0
VERTEX
  8
0
 10
2267.6246
 20
1618.8665
 30
0.0000
  0
VERTEX
  8
0
 10
2267.1704
 20
1619.3828
 30
0.0000
  0
VERTEX
  8
0
 10
2266.6080
 20
1619.8427
 30
0.0000
  0
VERTEX
  8
0
 10
2265.9511
 20
1620.2349
 30
0.0000
  0
VERTEX
  8
0
 10
2265.2157
 20
1620.5500
 30
0.0000
  0
VERTEX
  8
0
 10
2264.4199
 20
1620.7803
 30
0.0000
  0
VERTEX
  8
0
 10
2263.4884
 20
1620.9297
 30
0.0000
  0
VERTEX
  8
0
 10
2262.5344
 20
1620.9630
 30
0.0000
  0
VERTEX
  8
0
 10
2261.5867
 20
1620.8790
 30
0.0000
  0
VERTEX
  8
0
 10
2260.6737
 20
1620.6803
 30
0.0000
  0
VERTEX
  8
0
 10
2259.9047
 20
1620.4084
 30
0.0000
  0
VERTEX
  8
0
 10
2259.2050
 20
1620.0550
 30
0.0000
  0
VERTEX
  8
0
 10
2258.8526
 20
1619.8266
 30
0.0000
  0
SEQEND
  0
POLYLINE
  6
continous
  8
BYBLOCK
 70
0
 66
1
  0
VERTEX
  8
0
 10
2216.4262
 20
1589.8266
 30
0.0000
  0
VERTEX
  8
0
 10
2215.8717
 20
1589.3685
 30
0.0000
  0
VERTEX
  8
0
 10
2215.4241
 20
1588.8552
 30
0.0000
  0
VERTEX
  8
0
 10
2215.0941
 20
1588.2991
 30
0.0000
  0
VERTEX
  8
0
 10
2214.8896
 20
1587.7137
 30
0.0000
  0
VERTEX
  8
0
 10
2214.8155
 20
1587.1130
 30
0.0000
  0
SEQEND
  0
LINE
  6
continous
  8
BYBLOCK
 10
2216.4262
 20
1589.8266
 30
0.0000
 11
2216.4262
 21
1589.8973
 31
0.0000
  0
POLYLINE
  6
continous
  8
BYBLOCK
 70
0
 66
1
  0
VERTEX
  8
0
 10
2225.8151
 20
1587.1107
 30
0.0000
  0
VERTEX
  8
0
 10
2225.7404
 20
1587.7164
 30
0.0000
  0
VERTEX
  8
0
 10
2225.5330
 20
1588.3065
 30
0.0000
  0
VERTEX
  8
0
 10
2225.1982
 20
1588.8665
 30
0.0000
  0
VERTEX
  8
0
 10
2224.7440
 20
1589.3828
 30
0.0000
  0
VERTEX
  8
0
 10
2224.1816
 20
1589.8427
 30
0.0000
  0
VERTEX
  8
0
 10
2223.5247
 20
1590.2349
 30
0.0000
  0
VERTEX
  8
0
 10
2222.7893
 20
1590.5500
 30
0.0000
  0
VERTEX
  8
0
 10
2221.9935
 20
1590.7803
 30
0.0000
  0
VERTEX
  8
0
 10
2221.0620
 20
1590.9297
 30
0.0000
  0
VERTEX
  8
0
 10
2220.1080
 20
1590.9630
 30
0.0000
  0
VERTEX
  8
0
 10
2219.1603
 20
1590.8790
 30
0.0000
  0
VERTEX
  8
0
 10
2218.2473
 20
1590.6803
 30
0.0000
  0
VERTEX
  8
0
 10
2217.4783
 20
1590.4084
 30
0.0000
  0
VERTEX
  8
0
 10
2216.7786
 20
1590.0550
 30
0.0000
  0
VERTEX
  8
0
 10
2216.4262
 20
1589.8266
 30
0.0000
  0
SEQEND
  0
POLYLINE
  6
continous
  8
BYBLOCK
 70
0
 66
1
  0
VERTEX
  8
0
 10
2173.9998
 20
1559.8266
 30
0.0000
  0
VERTEX
  8
0
 10
2173.4453
 20
1559.3685
 30
0.0000
  0
VERTEX
  8
0
 10
2172.9977
 20
1558.8552
 30
0.0000
  0
VERTEX
  8
0
 10
2172.6677
 20
1558.2991
 30
0.0000
  0
VERTEX
  8
0
 10
2172.4632
 20
1557.7137
 30
0.0000
  0
VERTEX
  8
0
 10
2172.3891
 20
1557.1130
 30
0.0000
  0
SEQEND
  0
LINE
  6
continous
  8
BYBLOCK
 10
2173.9998
 20
1559.8266
 30
0.0000
 11
2173.9998
 21
1559.8973
 31
0.0000
  0
POLYLINE
  6
continous
  8
BYBLOCK
 70
0
 66
1
  0
VERTEX
  8
0
 10
2183.3887
 20
1557.1107
 30
0.0000
  0
VERTEX
  8
0
 10
2183.3139
 20
1557.7164
 30
0.0000
  0
VERTEX
  8
0
 10
2183.1066
 20
1558.3065
 30
0.0000
  0
VERTEX
  8
0
 10
2182.7718
 20
1558.8665
 30
0.0000
  0
VERTEX
  8
0
 10
2182.3176
 20
1559.3828
 30
0.0000
  0
VERTEX
  8
0
 10
2181.7552
 20
1559.8427
 30
0.0000
  0
VERTEX
  8
0
 10
2181.0983
 20
1560.2349
 30
0.0000
  0
VERTEX
  8
0
 10
2180.3629
 20
1560.5500
 30
0.0000
  0
VERTEX
  8
0
 10
2179.5671
 20
1560.7803
 30
0.0000
  0
VERTEX
  8
0
 10
2178.6356
 20
1560.9297
 30
0.0000
  0
VERTEX
  8
0
 10
2177.6816
 20
1560.9630
 30
0.0000
  0
VERTEX
  8
0
 10
2176.7338
 20
1560.8790
 30
0.0000
  0
VERTEX
  8
0
 10
2175.8209
 20
1560.6803
 30
0.0000
  0
VERTEX
  8
0
 10
2175.0519
 20
1560.4084
 30
0.0000
  0
VERTEX
  8
0
 10
2174.3522
 20
1560.0550
 30
0.0000
  0
VERTEX
  8
0
 10
2173.9998
 20
1559.8266
 30
0.0000
  0
SEQEND
  0
POLYLINE
  6
continous
  8
BYBLOCK
 70
0
 66
1
  0
VERTEX
  8
0
 10
2131.5734
 20
1529.8266
 30
0.0000
  0
VERTEX
  8
0
 10
2131.0189
 20
1529.3685
 30
0.0000
  0
VERTEX
  8
0
 10
2130.5713
 20
1528.8552
 30
0.0000
  0
VERTEX
  8
0
 10
2130.2413
 20
1528.2991
 30
0.0000
  0
VERTEX
  8
0
 10
2130.0368
 20
1527.7137
 30
0.0000
  0
VERTEX
  8
0
 10
2129.9627
 20
1527.1130
 30
0.0000
  0
SEQEND
  0
LINE
  6
continous
  8
BYBLOCK
 10
2131.5734
 20
1529.8266
 30
0.0000
 11
2131.5734
 21
1529.8973
 31
0.0000
  0
POLYLINE
  6
continous
  8
BYBLOCK
 70
0
 66
1
  0
VERTEX
  8
0
 10
2140.9623
 20
1527.1107
 30
0.0000
  0
VERTEX
  8
0
 10
2140.8875
 20
1527.7164
 30
0.0000
  0
VERTEX
  8
0
 10
2140.6802
 20
1528.3065
 30
0.0000
  0
VERTEX
  8
0
 10
2140.3454
 20
1528.8665
 30
0.0000
  0
VERTEX
  8
0
 10
2139.8912
 20
1529.3828
 30
0.0000
  0
VERTEX
  8
0
 10
2139.3288
 20
1529.8427
 30
0.0000
  0
VERTEX
  8
0
 10
2138.6718
 20
1530.2349
 30
0.0000
  0
VERTEX
  8
0
 10
2137.9365
 20
1530.5500
 30
0.0000
  0
VERTEX
  8
0
 10
2137.1407
 20
1530.7803
 30
0.0000
  0
VERTEX
  8
0
 10
2136.2092
 20
1530.9297
 30
0.0000
  0
VERTEX
  8
0
 10
2135.2552
 20
1530.9630
 30
0.0000
  0
VERTEX
  8
0
 10
2134.3074
 20
1530.8790
 30
0.0000
  0
VERTEX
  8
0
 10
2133.3945
 20
1530.6803
 30
0.0000
  0
VERTEX
  8
0
 10
2132.6255
 20
1530.4084
 30
0.0000
  0
VERTEX
  8
0
 10
2131.9258
 20
1530.0550
 30
0.0000
  0
VERTEX
  8
0
 10
2131.5734
 20
1529.8266
 30
0.0000
  0
SEQEND
  0
POLYLINE
  6
continous
  8
BYBLOCK
 70
0
 66
1
  0
VERTEX
  8
0
 10
2089.1470
 20
1499.8266
 30
0.0000
  0
VERTEX
  8
0
 10
2088.5925
 20
1499.3685
 30
0.0000
  0
VERTEX
  8
0
 10
2088.1449
 20
1498.8552
 30
0.0000
  0
VERTEX
  8
0
 10
2087.8149
 20
1498.2991
 30
0.0000
  0
VERTEX
  8
0
 10
2087.6104
 20
1497.7137
 30
0.0000
  0
VERTEX
  8
0
 10
2087.5363
 20
1497.1130
 30
0.0000
  0
SEQEND
  0
LINE
  6
continous
  8
BYBLOCK
 10
2089.1470
 20
1499.8266
 30
0.0000
 11
2089.1470
 21
1499.8973
 31
0.0000
  0
POLYLINE
  6
continous
  8
BYBLOCK
 70
0
 66
1
  0
VERTEX
  8
0
 10
2098.5359
 20
1497.1107
 30
0.0000
  0
VERTEX
  8
0
 10
2098.4611
 20
1497.7164
 30
0.0000
  0
VERTEX
  8
0
 10
2098.2538
 20
1498.3065
 30
0.0000
  0
VERTEX
  8
0
 10
2097.9190
 20
1498.8665
 30
0.0000
  0
VERTEX
  8
0
 10
2097.4648
 20
1499.3828
 30
0.0000
  0
VERTEX
  8
0
 10
2096.9024
 20
1499.8427
 30
0.0000
  0
VERTEX
  8
0
 10
2096.2454
 20
1500.2349
 30
0.0000
  0
VERTEX
  8
0
 10
2095.5101
 20
1500.5500
 30
0.0000
  0
VERTEX
  8
0
 10
2094.7142
 20
1500.7803
 30
0.0000
  0
VERTEX
  8
0
 10
2093.7828
 20
1500.9297
 30
0.0000
  0
VERTEX
  8
0
 10
2092.8288
 20
1500.9630
 30
0.0000
  0
VERTEX
  8
0
 10
2091.8810
 20
1500.8790
 30
0.0000
  0
VERTEX
  8
0
 10
2090.9681
 20
1500.6803
 30
0.0000
  0
VERTEX
  8
0
 10
2090.1991
 20
1500.4084
 30
0.0000
  0
VERTEX
  8
0
 10
2089.4994
 20
1500.0550
 30
0.0000
  0
VERTEX
  8
0
 10
2089.1470
 20
1499.8266
 30
0.0000
  0
SEQEND
  0
POLYLINE
  6
continous
  8
BYBLOCK
 70
0
 66
1
  0
VERTEX
  8
0
 10
2046.7206
 20
1469.8266
 30
0.0000
  0
VERTEX
  8
0
 10
2046.1661
 20
1469.3685
 30
0.0000
  0
VERTEX
  8
0
 10
2045.7185
 20
1468.8552
 30
0.0000
  0
VERTEX
  8
0
 10
2045.3885
 20
1468.2991
 30
0.0000
  0
VERTEX
  8
0
 10
2045.1840
 20
1467.7137
 30
0.0000
  0
VERTEX
  8
0
 10
2045.1099
 20
1467.1130
 30
0.0000
  0
SEQEND
  0
LINE
  6
continous
  8
BYBLOCK
 10
2046.7206
 20
1469.8266
 30
0.0000
 11
2046.7206
 21
1469.8973
 31
0.0000
  0
POLYLINE
  6
continous
  8
BYBLOCK
 70
0
 66
1
  0
VERTEX
  8
0
 10
2056.1095
 20
1467.1107
 30
0.0000
  0
VERTEX
  8
0
 10
2056.0347
 20
1467.7164
 30
0.0000
  0
VERTEX
  8
0
 10
2055.8274
 20
1468.3065
 30
0.0000
  0
VERTEX
  8
0
 10
2055.4926
 20
1468.8665
 30
0.0000
  0
VERTEX
  8
0
 10
2055.0384
 20
1469.3828
 30
0.0000
  0
VERTEX
  8
0
 10
2054.4760
 20
1469.8427
 30
0.0000
  0
VERTEX
  8
0
 10
2053.8190
 20
1470.2349
 30
0.0000
  0
VERTEX
  8
0
 10
2053.0837
 20
1470.5500
 30
0.0000
  0
VERTEX
  8
0
 10
2052.2878
 20
1470.7803
 30
0.0000
  0
VERTEX
  8
0
 10
2051.3564
 20
1470.9297
 30
0.0000
  0
VERTEX
  8
0
 10
2050.4024
 20
1470.9630
 30
0.0000
  0
VERTEX
  8
0
 10
2049.4546
 20
1470.8790
 30
0.0000
  0
VERTEX
  8
0
 10
2048.5417
 20
1470.6803
 30
0.0000
  0
VERTEX
  8
0
 10
2047.7727
 20
1470.4084
 30
0.0000
  0
VERTEX
  8
0
 10
2047.0730
 20
1470.0550
 30
0.0000
  0
VERTEX
  8
0
 10
2046.7206
 20
1469.8266
 30
0.0000
  0
SEQEND
  0
POLYLINE
  6
continous
  8
BYBLOCK
 70
0
 66
1
  0
VERTEX
  8
0
 10
2004.2942
 20
1439.8266
 30
0.0000
  0
VERTEX
  8
0
 10
2003.7397
 20
1439.3685
 30
0.0000
  0
VERTEX
  8
0
 10
2003.2921
 20
1438.8552
 30
0.0000
  0
VERTEX
  8
0
 10
2002.9621
 20
1438.2991
 30
0.0000
  0
VERTEX
  8
0
 10
2002.7576
 20
1437.7137
 30
0.0000
  0
VERTEX
  8
0
 10
2002.6835
 20
1437.1130
 30
0.0000
  0
SEQEND
  0
LINE
  6
continous
  8
BYBLOCK
 10
2004.2942
 20
1439.8266
 30
0.0000
 11
2004.2942
 21
1439.8973
 31
0.0000
  0
POLYLINE
  6
continous
  8
BYBLOCK
 70
0
 66
1
  0
VERTEX
  8
0
 10
2013.6830
 20
1437.1107
 30
0.0000
  0
VERTEX
  8
0
 10
2013.6083
 20
1437.7164
 30
0.0000
  0
VERTEX
  8
0
 10
2013.4010
 20
1438.3065
 30
0.0000
  0
VERTEX
  8
0
 10
2013.0662
 20
1438.8665
 30
0.0000
  0
VERTEX
  8
0
 10
2012.6120
 20
1439.3828
 30
0.0000
  0
VERTEX
  8
0
 10
2012.0495
 20
1439.8427
 30
0.0000
  0
VERTEX
  8
0
 10
2011.3926
 20
1440.2349
 30
0.0000
  0
VERTEX
  8
0
 10
2010.6573
 20
1440.5500
 30
0.0000
  0
VERTEX
  8
0
 10
2009.8614
 20
1440.7803
 30
0.0000
  0
VERTEX
  8
0
 10
2008.9300
 20
1440.9297
 30
0.0000
  0
VERTEX
  8
0
 10
2007.9760
 20
1440.9630
 30
0.0000
  0
VERTEX
  8
0
 10
2007.0282
 20
1440.8790
 30
0.0000
  0
VERTEX
  8
0
 10
2006.1153
 20
1440.6803
 30
0.0000
  0
VERTEX
  8
0
 10
2005.3463
 20
1440.4084
 30
0.0000
  0
VERTEX
  8
0
 10
2004.6466
 20
1440.0550
 30
0.0000
  0
VERTEX
  8
0
 10
2004.2942
 20
1439.8266
 30
0.0000
  0
SEQEND
  0
POLYLINE
  6
continous
  8
BYBLOCK
 70
0
 66
1
  0
VERTEX
  8
0
 10
1961.8678
 20
1409.8266
 30
0.0000
  0
VERTEX
  8
0
 10
1961.3133
 20
1409.3685
 30
0.0000
  0
VERTEX
  8
0
 10
1960.8657
 20
1408.8552
 30
0.0000
  0
VERTEX
  8
0
 10
1960.5357
 20
1408.2991
 30
0.0000
  0
VERTEX
  8
0
 10
1960.3311
 20
1407.7137
 30
0.0000
  0
VERTEX
  8
0
 10
1960.2571
 20
1407.1130
 30
0.0000
  0
SEQEND
  0
LINE
  6
continous
  8
BYBLOCK
 10
1961.8678
 20
1409.8266
 30
0.0000
 11
1961.8678
 21
1409.8973
 31
0.0000
  0
POLYLINE
  6
continous
  8
BYBLOCK
 70
0
 66
1
  0
VERTEX
  8
0
 10
1971.2566
 20
1407.1107
 30
0.0000
  0
VERTEX
  8
0
 10
1971.1819
 20
1407.7164
 30
0.0000
  0
VERTEX
  8
0
 10
1970.9746
 20
1408.3065
 30
0.0000
  0
VERTEX
  8
0
 10
1970.6398
 20
1408.8665
 30
0.0000
  0
VERTEX
  8
0
 10
1970.1856
 20
1409.3828
 30
0.0000
  0
VERTEX
  8
0
 10
1969.6231
 20
1409.8427
 30
0.0000
  0
VERTEX
  8
0
 10
1968.9662
 20
1410.2349
 30
0.0000
  0
VERTEX
  8
0
 10
1968.2309
 20
1410.5500
 30
0.0000
  0
VERTEX
  8
0
 10
1967.4350
 20
1410.7803
 30
0.0000
  0
VERTEX
  8
0
 10
1966.5036
 20
1410.9297
 30
0.0000
  0
VERTEX
  8
0
 10
1965.5496
 20
1410.9630
 30
0.0000
  0
VERTEX
  8
0
 10
1964.6018
 20
1410.8790
 30
0.0000
  0
VERTEX
  8
0
 10
1963.6889
 20
1410.6803
 30
0.0000
  0
VERTEX
  8
0
 10
1962.9199
 20
1410.4084
 30
0.0000
  0
VERTEX
  8
0
 10
1962.2202
 20
1410.0550
 30
0.0000
  0
VERTEX
  8
0
 10
1961.8678
 20
1409.8266
 30
0.0000
  0
SEQEND
  0
POLYLINE
  6
continous
  8
BYBLOCK
 70
0
 66
1
  0
VERTEX
  8
0
 10
1919.4414
 20
1379.8266
 30
0.0000
  0
VERTEX
  8
0
 10
1918.8869
 20
1379.3685
 30
0.0000
  0
VERTEX
  8
0
 10
1918.4393
 20
1378.8552
 30
0.0000
  0
VERTEX
  8
0
 10
1918.1092
 20
1378.2991
 30
0.0000
  0
VERTEX
  8
0
 10
1917.9047
 20
1377.7137
 30
0.0000
  0
VERTEX
  8
0
 10
1917.8307
 20
1377.1130
 30
0.0000
  0
SEQEND
  0
LINE
  6
continous
  8
BYBLOCK
 10
1919.4414
 20
1379.8266
 30
0.0000
 11
1919.4414
 21
1379.8973
 31
0.0000
  0
POLYLINE
  6
continous
  8
BYBLOCK
 70
0
 66
1
  0
VERTEX
  8
0
 10
1928.8302
 20
1377.1107
 30
0.0000
  0
VERTEX
  8
0
 10
1928.7555
 20
1377.7164
 30
0.0000
  0
VERTEX
  8
0
 10
1928.5482
 20
1378.3065
 30
0.0000
  0
VERTEX
  8
0
 10
1928.2133
 20
1378.8665
 30
0.0000
  0
VERTEX
  8
0
 10
1927.7592
 20
1379.3828
 30
0.0000
  0
VERTEX
  8
0
 10
1927.1967
 20
1379.8427
 30
0.0000
  0
VERTEX
  8
0
 10
1926.5398
 20
1380.2349
 30
0.0000
  0
VERTEX
  8
0
 10
1925.8044
 20
1380.5500
 30
0.0000
  0
VERTEX
  8
0
 10
1925.0086
 20
1380.7803
 30
0.0000
  0
VERTEX
  8
0
 10
1924.0771
 20
1380.9297
 30
0.0000
  0
VERTEX
  8
0
 10
1923.1231
 20
1380.9630
 30
0.0000
  0
VERTEX
  8
0
 10
1922.1754
 20
1380.8790
 30
0.0000
  0
VERTEX
  8
0
 10
1921.2625
 20
1380.6803
 30
0.0000
  0
VERTEX
  8
0
 10
1920.4934
 20
1380.4084
 30
0.0000
  0
VERTEX
  8
0
 10
1919.7937
 20
1380.0550
 30
0.0000
  0
VERTEX
  8
0
 10
1919.4414
 20
1379.8266
 30
0.0000
  0
SEQEND
  0
POLYLINE
  6
continous
  8
BYBLOCK
 70
0
 66
1
  0
VERTEX
  8
0
 10
1877.0150
 20
1349.8266
 30
0.0000
  0
VERTEX
  8
0
 10
1876.4605
 20
1349.3685
 30
0.0000
  0
VERTEX
  8
0
 10
1876.0129
 20
1348.8552
 30
0.0000
  0
VERTEX
  8
0
 10
1875.6828
 20
1348.2991
 30
0.0000
  0
VERTEX
  8
0
 10
1875.4783
 20
1347.7137
 30
0.0000
  0
VERTEX
  8
0
 10
1875.4043
 20
1347.1130
 30
0.0000
  0
SEQEND
  0
LINE
  6
continous
  8
BYBLOCK
 10
1877.0150
 20
1349.8266
 30
0.0000
 11
1877.0150
 21
1349.8973
 31
0.0000
  0
POLYLINE
  6
continous
  8
BYBLOCK
 70
0
 66
1
  0
VERTEX
  8
0
 10
1886.4038
 20
1347.1107
 30
0.0000
  0
VERTEX
  8
0
 10
1886.3291
 20
1347.7164
 30
0.0000
  0
VERTEX
  8
0
 10
1886.1218
 20
1348.3065
 30
0.0000
  0
VERTEX
  8
0
 10
1885.7869
 20
1348.8665
 30
0.0000
  0
VERTEX
  8
0
 10
1885.3328
 20
1349.3828
 30
0.0000
  0
VERTEX
  8
0
 10
1884.7703
 20
1349.8427
 30
0.0000
  0
VERTEX
  8
0
 10
1884.1134
 20
1350.2349
 30
0.0000
  0
VERTEX
  8
0
 10
1883.3780
 20
1350.5500
 30
0.0000
  0
VERTEX
  8
0
 10
1882.5822
 20
1350.7803
 30
0.0000
  0
VERTEX
  8
0
 10
1881.6507
 20
1350.9297
 30
0.0000
  0
VERTEX
  8
0
 10
1880.6967
 20
1350.9630
 30
0.0000
  0
VERTEX
  8
0
 10
1879.7490
 20
1350.8790
 30
0.0000
  0
VERTEX
  8
0
 10
1878.8361
 20
1350.6803
 30
0.0000
  0
VERTEX
  8
0
 10
1878.0670
 20
1350.4084
 30
0.0000
  0
VERTEX
  8
0
 10
1877.3673
 20
1350.0550
 30
0.0000
  0
VERTEX
  8
0
 10
1877.0150
 20
1349.8266
 30
0.0000
  0
SEQEND
  0
POLYLINE
  6
continous
  8
BYBLOCK
 70
0
 66
1
  0
VERTEX
  8
0
 10
1834.5885
 20
1319.8266
 30
0.0000
  0
VERTEX
  8
0
 10
1834.0341
 20
1319.3685
 30
0.0000
  0
VERTEX
  8
0
 10
1833.5865
 20
1318.8552
 30
0.0000
  0
VERTEX
  8
0
 10
1833.2564
 20
1318.2991
 30
0.0000
  0
VERTEX
  8
0
 10
1833.0519
 20
1317.7137
 30
0.0000
  0
VERTEX
  8
0
 10
1832.9779
 20
1317.1130
 30
0.0000
  0
SEQEND
  0
LINE
  6
continous
  8
BYBLOCK
 10
1834.5885
 20
1319.8266
 30
0.0000
 11
1834.5885
 21
1319.8973
 31
0.0000
  0
POLYLINE
  6
continous
  8
BYBLOCK
 70
0
 66
1
  0
VERTEX
  8
0
 10
1843.9774
 20
1317.1107
 30
0.0000
  0
VERTEX
  8
0
 10
1843.9027
 20
1317.7164
 30
0.0000
  0
VERTEX
  8
0
 10
1843.6954
 20
1318.3065
 30
0.0000
  0
VERTEX
  8
0
 10
1843.3605
 20
1318.8665
 30
0.0000
  0
VERTEX
  8
0
 10
1842.9063
 20
1319.3828
 30
0.0000
  0
VERTEX
  8
0
 10
1842.3439
 20
1319.8427
 30
0.0000
  0
VERTEX
  8
0
 10
1841.6870
 20
1320.2349
 30
0.0000
  0
VERTEX
  8
0
 10
1840.9516
 20
1320.5500
 30
0.0000
  0
VERTEX
  8
0
 10
1840.1558
 20
1320.7803
 30
0.0000
  0
VERTEX
  8
0
 10
1839.2243
 20
1320.9297
 30
0.0000
  0
VERTEX
  8
0
 10
1838.2703
 20
1320.9630
 30
0.0000
  0
VERTEX
  8
0
 10
1837.3226
 20
1320.8790
 30
0.0000
  0
VERTEX
  8
0
 10
1836.4097
 20
1320.6803
 30
0.0000
  0
VERTEX
  8
0
 10
1835.6406
 20
1320.4084
 30
0.0000
  0
VERTEX
  8
0
 10
1834.9409
 20
1320.0550
 30
0.0000
  0
VERTEX
  8
0
 10
1834.5885
 20
1319.8266
 30
0.0000
  0
SEQEND
  0
POLYLINE
  6
continous
  8
BYBLOCK
 70
0
 66
1
  0
VERTEX
  8
0
 10
1792.1621
 20
1289.8266
 30
0.0000
  0
VERTEX
  8
0
 10
1791.6077
 20
1289.3685
 30
0.0000
  0
VERTEX
  8
0
 10
1791.1601
 20
1288.8552
 30
0.0000
  0
VERTEX
  8
0
 10
1790.8300
 20
1288.2991
 30
0.0000
  0
VERTEX
  8
0
 10
1790.6255
 20
1287.7137
 30
0.0000
  0
VERTEX
  8
0
 10
1790.5515
 20
1287.1130
 30
0.0000
  0
SEQEND
  0
LINE
  6
continous
  8
BYBLOCK
 10
1792.1621
 20
1289.8266
 30
0.0000
 11
1792.1621
 21
1289.8973
 31
0.0000
  0
POLYLINE
  6
continous
  8
BYBLOCK
 70
0
 66
1
  0
VERTEX
  8
0
 10
1801.5510
 20
1287.1107
 30
0.0000
  0
VERTEX
  8
0
 10
1801.4763
 20
1287.7164
 30
0.0000
  0
VERTEX
  8
0
 10
1801.2690
 20
1288.3065
 30
0.0000
  0
VERTEX
  8
0
 10
1800.9341
 20
1288.8665
 30
0.0000
  0
VERTEX
  8
0
 10
1800.4799
 20
1289.3828
 30
0.0000
  0
VERTEX
  8
0
 10
1799.9175
 20
1289.8427
 30
0.0000
  0
VERTEX
  8
0
 10
1799.2606
 20
1290.2349
 30
0.0000
  0
VERTEX
  8
0
 10
1798.5252
 20
1290.5500
 30
0.0000
  0
VERTEX
  8
0
 10
1797.7294
 20
1290.7803
 30
0.0000
  0
VERTEX
  8
0
 10
1796.7979
 20
1290.9297
 30
0.0000
  0
VERTEX
  8
0
 10
1795.8439
 20
1290.9630
 30
0.0000
  0
VERTEX
  8
0
 10
1794.8962
 20
1290.8790
 30
0.0000
  0
VERTEX
  8
0
 10
1793.9833
 20
1290.6803
 30
0.0000
  0
VERTEX
  8
0
 10
1793.2142
 20
1290.4084
 30
0.0000
  0
VERTEX
  8
0
 10
1792.5145
 20
1290.0550
 30
0.0000
  0
VERTEX
  8
0
 10
1792.1621
 20
1289.8266
 30
0.0000
  0
SEQEND
  0
POLYLINE
  6
continous
  8
BYBLOCK
 70
0
 66
1
  0
VERTEX
  8
0
 10
1749.7357
 20
1259.8266
 30
0.0000
  0
VERTEX
  8
0
 10
1749.1813
 20
1259.3685
 30
0.0000
  0
VERTEX
  8
0
 10
1748.7336
 20
1258.8552
 30
0.0000
  0
VERTEX
  8
0
 10
1748.4036
 20
1258.2991
 30
0.0000
  0
VERTEX
  8
0
 10
1748.1991
 20
1257.7137
 30
0.0000
  0
VERTEX
  8
0
 10
1748.1251
 20
1257.1130
 30
0.0000
  0
SEQEND
  0
LINE
  6
continous
  8
BYBLOCK
 10
1749.7357
 20
1259.8266
 30
0.0000
 11
1749.7357
 21
1259.8973
 31
0.0000
  0
POLYLINE
  6
continous
  8
BYBLOCK
 70
0
 66
1
  0
VERTEX
  8
0
 10
1759.1246
 20
1257.1107
 30
0.0000
  0
VERTEX
  8
0
 10
1759.0499
 20
1257.7164
 30
0.0000
  0
VERTEX
  8
0
 10
1758.8426
 20
1258.3065
 30
0.0000
  0
VERTEX
  8
0
 10
1758.5077
 20
1258.8665
 30
0.0000
  0
VERTEX
  8
0
 10
1758.0535
 20
1259.3828
 30
0.0000
  0
VERTEX
  8
0
 10
1757.4911
 20
1259.8427
 30
0.0000
  0
VERTEX
  8
0
 10
1756.8342
 20
1260.2349
 30
0.0000
  0
VERTEX
  8
0
 10
1756.0988
 20
1260.5500
 30
0.0000
  0
VERTEX
  8
0
 10
1755.3030
 20
1260.7803
 30
0.0000
  0
VERTEX
  8
0
 10
1754.3715
 20
1260.9297
 30
0.0000
  0
VERTEX
  8
0
 10
1753.4175
 20
1260.9630
 30
0.0000
  0
VERTEX
  8
0
 10
1752.4698
 20
1260.8790
 30
0.0000
  0
VERTEX
  8
0
 10
1751.5569
 20
1260.6803
 30
0.0000
  0
VERTEX
  8
0
 10
1750.7878
 20
1260.4084
 30
0.0000
  0
VERTEX
  8
0
 10
1750.0881
 20
1260.0550
 30
0.0000
  0
VERTEX
  8
0
 10
1749.7357
 20
1259.8266
 30
0.0000
  0
SEQEND
  0
POLYLINE
  6
continous
  8
BYBLOCK
 70
0
 66
1
  0
VERTEX
  8
0
 10
1707.3093
 20
1229.8266
 30
0.0000
  0
VERTEX
  8
0
 10
1706.7549
 20
1229.3685
 30
0.0000
  0
VERTEX
  8
0
 10
1706.3072
 20
1228.8552
 30
0.0000
  0
VERTEX
  8
0
 10
1705.9772
 20
1228.2991
 30
0.0000
  0
VERTEX
  8
0
 10
1705.7727
 20
1227.7137
 30
0.0000
  0
VERTEX
  8
0
 10
1705.6987
 20
1227.1130
 30
0.0000
  0
SEQEND
  0
LINE
  6
continous
  8
BYBLOCK
 10
1707.3093
 20
1229.8266
 30
0.0000
 11
1707.3093
 21
1229.8973
 31
0.0000
  0
POLYLINE
  6
continous
  8
BYBLOCK
 70
0
 66
1
  0
VERTEX
  8
0
 10
1716.6982
 20
1227.1107
 30
0.0000
  0
VERTEX
  8
0
 10
1716.6235
 20
1227.7164
 30
0.0000
  0
VERTEX
  8
0
 10
1716.4162
 20
1228.3065
 30
0.0000
  0
VERTEX
  8
0
 10
1716.0813
 20
1228.8665
 30
0.0000
  0
VERTEX
  8
0
 10
1715.6271
 20
1229.3828
 30
0.0000
  0
VERTEX
  8
0
 10
1715.0647
 20
1229.8427
 30
0.0000
  0
VERTEX
  8
0
 10
1714.4078
 20
1230.2349
 30
0.0000
  0
VERTEX
  8
0
 10
1713.6724
 20
1230.5500
 30
0.0000
  0
VERTEX
  8
0
 10
1712.8766
 20
1230.7803
 30
0.0000
  0
VERTEX
  8
0
 10
1711.9451
 20
1230.9297
 30
0.0000
  0
VERTEX
  8
0
 10
1710.9911
 20
1230.9630
 30
0.0000
  0
VERTEX
  8
0
 10
1710.0434
 20
1230.8790
 30
0.0000
  0
VERTEX
  8
0
 10
1709.1305
 20
1230.6803
 30
0.0000
  0
VERTEX
  8
0
 10
1708.3614
 20
1230.4084
 30
0.0000
  0
VERTEX
  8
0
 10
1707.6617
 20
1230.0550
 30
0.0000
  0
VERTEX
  8
0
 10
1707.3093
 20
1229.8266
 30
0.0000
  0
SEQEND
  0
POLYLINE
  6
continous
  8
BYBLOCK
 70
0
 66
1
  0
VERTEX
  8
0
 10
1664.8829
 20
1199.8266
 30
0.0000
  0
VERTEX
  8
0
 10
1664.3285
 20
1199.3685
 30
0.0000
  0
VERTEX
  8
0
 10
1663.8808
 20
1198.8552
 30
0.0000
  0
VERTEX
  8
0
 10
1663.5508
 20
1198.2991
 30
0.0000
  0
VERTEX
  8
0
 10
1663.3463
 20
1197.7137
 30
0.0000
  0
VERTEX
  8
0
 10
1663.2722
 20
1197.1130
 30
0.0000
  0
SEQEND
  0
LINE
  6
continous
  8
BYBLOCK
 10
1664.8829
 20
1199.8266
 30
0.0000
 11
1664.8829
 21
1199.8973
 31
0.0000
  0
POLYLINE
  6
continous
  8
BYBLOCK
 70
0
 66
1
  0
VERTEX
  8
0
 10
1674.2718
 20
1197.1107
 30
0.0000
  0
VERTEX
  8
0
 10
1674.1971
 20
1197.7164
 30
0.0000
  0
VERTEX
  8
0
 10
1673.9897
 20
1198.3065
 30
0.0000
  0
VERTEX
  8
0
 10
1673.6549
 20
1198.8665
 30
0.0000
  0
VERTEX
  8
0
 10
1673.2007
 20
1199.3828
 30
0.0000
  0
VERTEX
  8
0
 10
1672.6383
 20
1199.8427
 30
0.0000
  0
VERTEX
  8
0
 10
1671.9814
 20
1200.2349
 30
0.0000
  0
VERTEX
  8
0
 10
1671.2460
 20
1200.5500
 30
0.0000
  0
VERTEX
  8
0
 10
1670.4502
 20
1200.7803
 30
0.0000
  0
VERTEX
  8
0
 10
1669.5187
 20
1200.9297
 30
0.0000
  0
VERTEX
  8
0
 10
1668.5647
 20
1200.9630
 30
0.0000
  0
VERTEX
  8
0
 10
1667.6170
 20
1200.8790
 30
0.0000
  0
VERTEX
  8
0
 10
1666.7041
 20
1200.6803
 30
0.0000
  0
VERTEX
  8
0
 10
1665.9350
 20
1200.4084
 30
0.0000
  0
VERTEX
  8
0
 10
1665.2353
 20
1200.0550
 30
0.0000
  0
VERTEX
  8
0
 10
1664.8829
 20
1199.8266
 30
0.0000
  0
SEQEND
  0
POLYLINE
  6
continous
  8
BYBLOCK
 70
0
 66
1
  0
VERTEX
  8
0
 10
1622.4565
 20
1169.8266
 30
0.0000
  0
VERTEX
  8
0
 10
1621.9021
 20
1169.3685
 30
0.0000
  0
VERTEX
  8
0
 10
1621.4544
 20
1168.8552
 30
0.0000
  0
VERTEX
  8
0
 10
1621.1244
 20
1168.2991
 30
0.0000
  0
VERTEX
  8
0
 10
1620.9199
 20
1167.7137
 30
0.0000
  0
VERTEX
  8
0
 10
1620.8458
 20
1167.1130
 30
0.0000
  0
SEQEND
  0
LINE
  6
continous
  8
BYBLOCK
 10
1622.4565
 20
1169.8266
 30
0.0000
 11
1622.4565
 21
1169.8973
 31
0.0000
  0
POLYLINE
  6
continous
  8
BYBLOCK
 70
0
 66
1
  0
VERTEX
  8
0
 10
1631.8454
 20
1167.1107
 30
0.0000
  0
VERTEX
  8
0
 10
1631.7707
 20
1167.7164
 30
0.0000
  0
VERTEX
  8
0
 10
1631.5633
 20
1168.3065
 30
0.0000
  0
VERTEX
  8
0
 10
1631.2285
 20
1168.8665
 30
0.0000
  0
VERTEX
  8
0
 10
1630.7743
 20
1169.3828
 30
0.0000
  0
VERTEX
  8
0
 10
1630.2119
 20
1169.8427
 30
0.0000
  0
VERTEX
  8
0
 10
1629.5550
 20
1170.2349
 30
0.0000
  0
VERTEX
  8
0
 10
1628.8196
 20
1170.5500
 30
0.0000
  0
VERTEX
  8
0
 10
1628.0238
 20
1170.7803
 30
0.0000
  0
VERTEX
  8
0
 10
1627.0923
 20
1170.9297
 30
0.0000
  0
VERTEX
  8
0
 10
1626.1383
 20
1170.9630
 30
0.0000
  0
VERTEX
  8
0
 10
1625.1906
 20
1170.8790
 30
0.0000
  0
VERTEX
  8
0
 10
1624.2776
 20
1170.6803
 30
0.0000
  0
VERTEX
  8
0
 10
1623.5086
 20
1170.4084
 30
0.0000
  0
VERTEX
  8
0
 10
1622.8089
 20
1170.0550
 30
0.0000
  0
VERTEX
  8
0
 10
1622.4565
 20
1169.8266
 30
0.0000
  0
SEQEND
  0
POLYLINE
  6
continous
  8
BYBLOCK
 70
0
 66
1
  0
VERTEX
  8
0
 10
1580.0301
 20
1139.8266
 30
0.0000
  0
VERTEX
  8
0
 10
1579.4756
 20
1139.3685
 30
0.0000
  0
VERTEX
  8
0
 10
1579.0280
 20
1138.8552
 30
0.0000
  0
VERTEX
  8
0
 10
1578.6980
 20
1138.2991
 30
0.0000
  0
VERTEX
  8
0
 10
1578.4935
 20
1137.7137
 30
0.0000
  0
VERTEX
  8
0
 10
1578.4194
 20
1137.1130
 30
0.0000
  0
SEQEND
  0
LINE
  6
continous
  8
BYBLOCK
 10
1580.0301
 20
1139.8266
 30
0.0000
 11
1580.0301
 21
1139.8973
 31
0.0000
  0
POLYLINE
  6
continous
  8
BYBLOCK
 70
0
 66
1
  0
VERTEX
  8
0
 10
1589.4190
 20
1137.1107
 30
0.0000
  0
VERTEX
  8
0
 10
1589.3443
 20
1137.7164
 30
0.0000
  0
VERTEX
  8
0
 10
1589.1369
 20
1138.3065
 30
0.0000
  0
VERTEX
  8
0
 10
1588.8021
 20
1138.8665
 30
0.0000
  0
VERTEX
  8
0
 10
1588.3479
 20
1139.3828
 30
0.0000
  0
VERTEX
  8
0
 10
1587.7855
 20
1139.8427
 30
0.0000
  0
VERTEX
  8
0
 10
1587.1286
 20
1140.2349
 30
0.0000
  0
VERTEX
  8
0
 10
1586.3932
 20
1140.5500
 30
0.0000
  0
VERTEX
  8
0
 10
1585.5974
 20
1140.7803
 30
0.0000
  0
VERTEX
  8
0
 10
1584.6659
 20
1140.9297
 30
0.0000
  0
VERTEX
  8
0
 10
1583.7119
 20
1140.9630
 30
0.0000
  0
VERTEX
  8
0
 10
1582.7641
 20
1140.8790
 30
0.0000
  0
VERTEX
  8
0
 10
1581.8512
 20
1140.6803
 30
0.0000
  0
VERTEX
  8
0
 10
1581.0822
 20
1140.4084
 30
0.0000
  0
VERTEX
  8
0
 10
1580.3825
 20
1140.0550
 30
0.0000
  0
VERTEX
  8
0
 10
1580.0301
 20
1139.8266
 30
0.0000
  0
SEQEND
  0
POLYLINE
  6
continous
  8
BYBLOCK
 70
0
 66
1
  0
VERTEX
  8
0
 10
1537.6037
 20
1109.8266
 30
0.0000
  0
VERTEX
  8
0
 10
1537.0492
 20
1109.3685
 30
0.0000
  0
VERTEX
  8
0
 10
1536.6016
 20
1108.8552
 30
0.0000
  0
VERTEX
  8
0
 10
1536.2716
 20
1108.2991
 30
0.0000
  0
VERTEX
  8
0
 10
1536.0671
 20
1107.7137
 30
0.0000
  0
VERTEX
  8
0
 10
1535.9930
 20
1107.1130
 30
0.0000
  0
SEQEND
  0
LINE
  6
continous
  8
BYBLOCK
 10
1537.6037
 20
1109.8266
 30
0.0000
 11
1537.6037
 21
1109.8973
 31
0.0000
  0
POLYLINE
  6
continous
  8
BYBLOCK
 70
0
 66
1
  0
VERTEX
  8
0
 10
1546.9926
 20
1107.1107
 30
0.0000
  0
VERTEX
  8
0
 10
1546.9178
 20
1107.7164
 30
0.0000
  0
VERTEX
  8
0
 10
1546.7105
 20
1108.3065
 30
0.0000
  0
VERTEX
  8
0
 10
1546.3757
 20
1108.8665
 30
0.0000
  0
VERTEX
  8
0
 10
1545.9215
 20
1109.3828
 30
0.0000
  0
VERTEX
  8
0
 10
1545.3591
 20
1109.8427
 30
0.0000
  0
VERTEX
  8
0
 10
1544.7021
 20
1110.2349
 30
0.0000
  0
VERTEX
  8
0
 10
1543.9668
 20
1110.5500
 30
0.0000
  0
VERTEX
  8
0
 10
1543.1710
 20
1110.7803
 30
0.0000
  0
VERTEX
  8
0
 10
1542.2395
 20
1110.9297
 30
0.0000
  0
VERTEX
  8
0
 10
1541.2855
 20
1110.9630
 30
0.0000
  0
VERTEX
  8
0
 10
1540.3377
 20
1110.8790
 30
0.0000
  0
VERTEX
  8
0
 10
1539.4248
 20
1110.6803
 30
0.0000
  0
VERTEX
  8
0
 10
1538.6558
 20
1110.4084
 30
0.0000
  0
VERTEX
  8
0
 10
1537.9561
 20
1110.0550
 30
0.0000
  0
VERTEX
  8
0
 10
1537.6037
 20
1109.8266
 30
0.0000
  0
SEQEND
  0
POLYLINE
  6
continous
  8
BYBLOCK
 70
0
 66
1
  0
VERTEX
  8
0
 10
1495.1773
 20
1079.8266
 30
0.0000
  0
VERTEX
  8
0
 10
1494.6228
 20
1079.3685
 30
0.0000
  0
VERTEX
  8
0
 10
1494.1752
 20
1078.8552
 30
0.0000
  0
VERTEX
  8
0
 10
1493.8452
 20
1078.2991
 30
0.0000
  0
VERTEX
  8
0
 10
1493.6407
 20
1077.7137
 30
0.0000
  0
VERTEX
  8
0
 10
1493.5666
 20
1077.1130
 30
0.0000
  0
SEQEND
  0
LINE
  6
continous
  8
BYBLOCK
 10
1495.1773
 20
1079.8266
 30
0.0000
 11
1495.1773
 21
1079.8973
 31
0.0000
  0
POLYLINE
  6
continous
  8
BYBLOCK
 70
0
 66
1
  0
VERTEX
  8
0
 10
1504.5662
 20
1077.1107
 30
0.0000
  0
VERTEX
  8
0
 10
1504.4914
 20
1077.7164
 30
0.0000
  0
VERTEX
  8
0
 10
1504.2841
 20
1078.3065
 30
0.0000
  0
VERTEX
  8
0
 10
1503.9493
 20
1078.8665
 30
0.0000
  0
VERTEX
  8
0
 10
1503.4951
 20
1079.3828
 30
0.0000
  0
VERTEX
  8
0
 10
1502.9327
 20
1079.8427
 30
0.0000
  0
VERTEX
  8
0
 10
1502.2757
 20
1080.2349
 30
0.0000
  0
VERTEX
  8
0
 10
1501.5404
 20
1080.5500
 30
0.0000
  0
VERTEX
  8
0
 10
1500.7446
 20
1080.7803
 30
0.0000
  0
VERTEX
  8
0
 10
1499.8131
 20
1080.9297
 30
0.0000
  0
VERTEX
  8
0
 10
1498.8591
 20
1080.9630
 30
0.0000
  0
VERTEX
  8
0
 10
1497.9113
 20
1080.8790
 30
0.0000
  0
VERTEX
  8
0
 10
1496.9984
 20
1080.6803
 30
0.0000
  0
VERTEX
  8
0
 10
1496.2294
 20
1080.4084
 30
0.0000
  0
VERTEX
  8
0
 10
1495.5297
 20
1080.0550
 30
0.0000
  0
VERTEX
  8
0
 10
1495.1773
 20
1079.8266
 30
0.0000
  0
SEQEND
  0
POLYLINE
  6
continous
  8
BYBLOCK
 70
0
 66
1
  0
VERTEX
  8
0
 10
1452.7509
 20
1049.8266
 30
0.0000
  0
VERTEX
  8
0
 10
1452.1964
 20
1049.3685
 30
0.0000
  0
VERTEX
  8
0
 10
1451.7488
 20
1048.8552
 30
0.0000
  0
VERTEX
  8
0
 10
1451.4188
 20
1048.2991
 30
0.0000
  0
VERTEX
  8
0
 10
1451.2143
 20
1047.7137
 30
0.0000
  0
VERTEX
  8
0
 10
1451.1402
 20
1047.1130
 30
0.0000
  0
SEQEND
  0
LINE
  6
continous
  8
BYBLOCK
 10
1452.7509
 20
1049.8266
 30
0.0000
 11
1452.7509
 21
1049.8973
 31
0.0000
  0
POLYLINE
  6
continous
  8
BYBLOCK
 70
0
 66
1
  0
VERTEX
  8
0
 10
1462.1398
 20
1047.1107
 30
0.0000
  0
VERTEX
  8
0
 10
1462.0650
 20
1047.7164
 30
0.0000
  0
VERTEX
  8
0
 10
1461.8577
 20
1048.3065
 30
0.0000
  0
VERTEX
  8
0
 10
1461.5229
 20
1048.8665
 30
0.0000
  0
VERTEX
  8
0
 10
1461.0687
 20
1049.3828
 30
0.0000
  0
VERTEX
  8
0
 10
1460.5063
 20
1049.8427
 30
0.0000
  0
VERTEX
  8
0
 10
1459.8493
 20
1050.2349
 30
0.0000
  0
VERTEX
  8
0
 10
1459.1140
 20
1050.5500
 30
0.0000
  0
VERTEX
  8
0
 10
1458.3181
 20
1050.7803
 30
0.0000
  0
VERTEX
  8
0
 10
1457.3867
 20
1050.9297
 30
0.0000
  0
VERTEX
  8
0
 10
1456.4327
 20
1050.9630
 30
0.0000
  0
VERTEX
  8
0
 10
1455.4849
 20
1050.8790
 30
0.0000
  0
VERTEX
  8
0
 10
1454.5720
 20
1050.6803
 30
0.0000
  0
VERTEX
  8
0
 10
1453.8030
 20
1050.4084
 30
0.0000
  0
VERTEX
  8
0
 10
1453.1033
 20
1050.0550
 30
0.0000
  0
VERTEX
  8
0
 10
1452.7509
 20
1049.8266
 30
0.0000
  0
SEQEND
  0
POLYLINE
  6
continous
  8
BYBLOCK
 70
0
 66
1
  0
VERTEX
  8
0
 10
1410.3245
 20
1019.8266
 30
0.0000
  0
VERTEX
  8
0
 10
1409.7700
 20
1019.3685
 30
0.0000
  0
VERTEX
  8
0
 10
1409.3224
 20
1018.8552
 30
0.0000
  0
VERTEX
  8
0
 10
1408.9924
 20
1018.2991
 30
0.0000
  0
VERTEX
  8
0
 10
1408.7879
 20
1017.7137
 30
0.0000
  0
VERTEX
  8
0
 10
1408.7138
 20
1017.1130
 30
0.0000
  0
SEQEND
  0
LINE
  6
continous
  8
BYBLOCK
 10
1410.3245
 20
1019.8266
 30
0.0000
 11
1410.3245
 21
1019.8973
 31
0.0000
  0
POLYLINE
  6
continous
  8
BYBLOCK
 70
0
 66
1
  0
VERTEX
  8
0
 10
1419.7134
 20
1017.1107
 30
0.0000
  0
VERTEX
  8
0
 10
1419.6386
 20
1017.7164
 30
0.0000
  0
VERTEX
  8
0
 10
1419.4313
 20
1018.3065
 30
0.0000
  0
VERTEX
  8
0
 10
1419.0965
 20
1018.8665
 30
0.0000
  0
VERTEX
  8
0
 10
1418.6423
 20
1019.3828
 30
0.0000
  0
VERTEX
  8
0
 10
1418.0799
 20
1019.8427
 30
0.0000
  0
VERTEX
  8
0
 10
1417.4229
 20
1020.2349
 30
0.0000
  0
VERTEX
  8
0
 10
1416.6876
 20
1020.5500
 30
0.0000
  0
VERTEX
  8
0
 10
1415.8917
 20
1020.7803
 30
0.0000
  0
VERTEX
  8
0
 10
1414.9603
 20
1020.9297
 30
0.0000
  0
VERTEX
  8
0
 10
1414.0063
 20
1020.9630
 30
0.0000
  0
VERTEX
  8
0
 10
1413.0585
 20
1020.8790
 30
0.0000
  0
VERTEX
  8
0
 10
1412.1456
 20
1020.6803
 30
0.0000
  0
VERTEX
  8
0
 10
1411.3766
 20
1020.4084
 30
0.0000
  0
VERTEX
  8
0
 10
1410.6769
 20
1020.0550
 30
0.0000
  0
VERTEX
  8
0
 10
1410.3245
 20
1019.8266
 30
0.0000
  0
SEQEND
  0
POLYLINE
  6
continous
  8
BYBLOCK
 70
0
 66
1
  0
VERTEX
  8
0
 10
1367.8981
 20
989.8266
 30
0.0000
  0
VERTEX
  8
0
 10
1367.3436
 20
989.3685
 30
0.0000
  0
VERTEX
  8
0
 10
1366.8960
 20
988.8552
 30
0.0000
  0
VERTEX
  8
0
 10
1366.5660
 20
988.2991
 30
0.0000
  0
VERTEX
  8
0
 10
1366.3615
 20
987.7137
 30
0.0000
  0
VERTEX
  8
0
 10
1366.2874
 20
987.1130
 30
0.0000
  0
SEQEND
  0
LINE
  6
continous
  8
BYBLOCK
 10
1367.8981
 20
989.8266
 30
0.0000
 11
1367.8981
 21
989.8973
 31
0.0000
  0
POLYLINE
  6
continous
  8
BYBLOCK
 70
0
 66
1
  0
VERTEX
  8
0
 10
1377.2869
 20
987.1107
 30
0.0000
  0
VERTEX
  8
0
 10
1377.2122
 20
987.7164
 30
0.0000
  0
VERTEX
  8
0
 10
1377.0049
 20
988.3065
 30
0.0000
  0
VERTEX
  8
0
 10
1376.6701
 20
988.8665
 30
0.0000
  0
VERTEX
  8
0
 10
1376.2159
 20
989.3828
 30
0.0000
  0
VERTEX
  8
0
 10
1375.6534
 20
989.8427
 30
0.0000
  0
VERTEX
  8
0
 10
1374.9965
 20
990.2349
 30
0.0000
  0
VERTEX
  8
0
 10
1374.2612
 20
990.5500
 30
0.0000
  0
VERTEX
  8
0
 10
1373.4653
 20
990.7803
 30
0.0000
  0
VERTEX
  8
0
 10
1372.5339
 20
990.9297
 30
0.0000
  0
VERTEX
  8
0
 10
1371.5799
 20
990.9630
 30
0.0000
  0
VERTEX
  8
0
 10
1370.6321
 20
990.8790
 30
0.0000
  0
VERTEX
  8
0
 10
1369.7192
 20
990.6803
 30
0.0000
  0
VERTEX
  8
0
 10
1368.9502
 20
990.4084
 30
0.0000
  0
VERTEX
  8
0
 10
1368.2505
 20
990.0550
 30
0.0000
  0
VERTEX
  8
0
 10
1367.8981
 20
989.8266
 30
0.0000
  0
SEQEND
  0
POLYLINE
  6
continous
  8
BYBLOCK
 70
0
 66
1
  0
VERTEX
  8
0
 10
1325.4717
 20
959.8266
 30
0.0000
  0
VERTEX
  8
0
 10
1324.9172
 20
959.3685
 30
0.0000
  0
VERTEX
  8
0
 10
1324.4696
 20
958.8552
 30
0.0000
  0
VERTEX
  8
0
 10
1324.1395
 20
958.2991
 30
0.0000
  0
VERTEX
  8
0
 10
1323.9350
 20
957.7137
 30
0.0000
  0
VERTEX
  8
0
 10
1323.8610
 20
957.1130
 30
0.0000
  0
SEQEND
  0
LINE
  6
continous
  8
BYBLOCK
 10
1325.4717
 20
959.8266
 30
0.0000
 11
1325.4717
 21
959.8973
 31
0.0000
  0
POLYLINE
  6
continous
  8
BYBLOCK
 70
0
 66
1
  0
VERTEX
  8
0
 10
1334.8605
 20
957.1107
 30
0.0000
  0
VERTEX
  8
0
 10
1334.7858
 20
957.7164
 30
0.0000
  0
VERTEX
  8
0
 10
1334.5785
 20
958.3065
 30
0.0000
  0
VERTEX
  8
0
 10
1334.2436
 20
958.8665
 30
0.0000
  0
VERTEX
  8
0
 10
1333.7895
 20
959.3828
 30
0.0000
  0
VERTEX
  8
0
 10
1333.2270
 20
959.8427
 30
0.0000
  0
VERTEX
  8
0
 10
1332.5701
 20
960.2349
 30
0.0000
  0
VERTEX
  8
0
 10
1331.8348
 20
960.5500
 30
0.0000
  0
VERTEX
  8
0
 10
1331.0389
 20
960.7803
 30
0.0000
  0
VERTEX
  8
0
 10
1330.1074
 20
960.9297
 30
0.0000
  0
VERTEX
  8
0
 10
1329.1535
 20
960.9630
 30
0.0000
  0
VERTEX
  8
0
 10
1328.2057
 20
960.8790
 30
0.0000
  0
VERTEX
  8
0
 10
1327.2928
 20
960.6803
 30
0.0000
  0
VERTEX
  8
0
 10
1326.5238
 20
960.4084
 30
0.0000
  0
VERTEX
  8
0
 10
1325.8240
 20
960.0550
 30
0.0000
  0
VERTEX
  8
0
 10
1325.4717
 20
959.8266
 30
0.0000
  0
SEQEND
  0
POLYLINE
  6
continous
  8
BYBLOCK
 70
0
 66
1
  0
VERTEX
  8
0
 10
1283.0453
 20
929.8266
 30
0.0000
  0
VERTEX
  8
0
 10
1282.4908
 20
929.3685
 30
0.0000
  0
VERTEX
  8
0
 10
1282.0432
 20
928.8552
 30
0.0000
  0
VERTEX
  8
0
 10
1281.7131
 20
928.2991
 30
0.0000
  0
VERTEX
  8
0
 10
1281.5086
 20
927.7137
 30
0.0000
  0
VERTEX
  8
0
 10
1281.4346
 20
927.1130
 30
0.0000
  0
SEQEND
  0
LINE
  6
continous
  8
BYBLOCK
 10
1283.0453
 20
929.8266
 30
0.0000
 11
1283.0453
 21
929.8973
 31
0.0000
  0
POLYLINE
  6
continous
  8
BYBLOCK
 70
0
 66
1
  0
VERTEX
  8
0
 10
1292.4341
 20
927.1107
 30
0.0000
  0
VERTEX
  8
0
 10
1292.3594
 20
927.7164
 30
0.0000
  0
VERTEX
  8
0
 10
1292.1521
 20
928.3065
 30
0.0000
  0
VERTEX
  8
0
 10
1291.8172
 20
928.8665
 30
0.0000
  0
VERTEX
  8
0
 10
1291.3631
 20
929.3828
 30
0.0000
  0
VERTEX
  8
0
 10
1290.8006
 20
929.8427
 30
0.0000
  0
VERTEX
  8
0
 10
1290.1437
 20
930.2349
 30
0.0000
  0
VERTEX
  8
0
 10
1289.4083
 20
930.5500
 30
0.0000
  0
VERTEX
  8
0
 10
1288.6125
 20
930.7803
 30
0.0000
  0
VERTEX
  8
0
 10
1287.6810
 20
930.9297
 30
0.0000
  0
VERTEX
  8
0
 10
1286.7270
 20
930.9630
 30
0.0000
  0
VERTEX
  8
0
 10
1285.7793
 20
930.8790
 30
0.0000
  0
VERTEX
  8
0
 10
1284.8664
 20
930.6803
 30
0.0000
  0
VERTEX
  8
0
 10
1284.0973
 20
930.4084
 30
0.0000
  0
VERTEX
  8
0
 10
1283.3976
 20
930.0550
 30
0.0000
  0
VERTEX
  8
0
 10
1283.0453
 20
929.8266
 30
0.0000
  0
SEQEND
  0
POLYLINE
  6
continous
  8
BYBLOCK
 70
0
 66
1
  0
VERTEX
  8
0
 10
1240.6188
 20
899.8266
 30
0.0000
  0
VERTEX
  8
0
 10
1240.0644
 20
899.3685
 30
0.0000
  0
VERTEX
  8
0
 10
1239.6168
 20
898.8552
 30
0.0000
  0
VERTEX
  8
0
 10
1239.2867
 20
898.2991
 30
0.0000
  0
VERTEX
  8
0
 10
1239.0822
 20
897.7137
 30
0.0000
  0
VERTEX
  8
0
 10
1239.0082
 20
897.1130
 30
0.0000
  0
SEQEND
  0
LINE
  6
continous
  8
BYBLOCK
 10
1240.6188
 20
899.8266
 30
0.0000
 11
1240.6188
 21
899.8973
 31
0.0000
  0
POLYLINE
  6
continous
  8
BYBLOCK
 70
0
 66
1
  0
VERTEX
  8
0
 10
1250.0077
 20
897.1107
 30
0.0000
  0
VERTEX
  8
0
 10
1249.9330
 20
897.7164
 30
0.0000
  0
VERTEX
  8
0
 10
1249.7257
 20
898.3065
 30
0.0000
  0
VERTEX
  8
0
 10
1249.3908
 20
898.8665
 30
0.0000
  0
VERTEX
  8
0
 10
1248.9367
 20
899.3828
 30
0.0000
  0
VERTEX
  8
0
 10
1248.3742
 20
899.8427
 30
0.0000
  0
VERTEX
  8
0
 10
1247.7173
 20
900.2349
 30
0.0000
  0
VERTEX
  8
0
 10
1246.9819
 20
900.5500
 30
0.0000
  0
VERTEX
  8
0
 10
1246.1861
 20
900.7803
 30
0.0000
  0
VERTEX
  8
0
 10
1245.2546
 20
900.9297
 30
0.0000
  0
VERTEX
  8
0
 10
1244.3006
 20
900.9630
 30
0.0000
  0
VERTEX
  8
0
 10
1243.3529
 20
900.8790
 30
0.0000
  0
VERTEX
  8
0
 10
1242.4400
 20
900.6803
 30
0.0000
  0
VERTEX
  8
0
 10
1241.6709
 20
900.4084
 30
0.0000
  0
VERTEX
  8
0
 10
1240.9712
 20
900.0550
 30
0.0000
  0
VERTEX
  8
0
 10
1240.6188
 20
899.8266
 30
0.0000
  0
SEQEND
  0
POLYLINE
  6
continous
  8
BYBLOCK
 70
0
 66
1
  0
VERTEX
  8
0
 10
1198.1924
 20
869.8266
 30
0.0000
  0
VERTEX
  8
0
 10
1197.6380
 20
869.3685
 30
0.0000
  0
VERTEX
  8
0
 10
1197.1904
 20
868.8552
 30
0.0000
  0
VERTEX
  8
0
 10
1196.8603
 20
868.2991
 30
0.0000
  0
VERTEX
  8
0
 10
1196.6558
 20
867.7137
 30
0.0000
  0
VERTEX
  8
0
 10
1196.5818
 20
867.1130
 30
0.0000
  0
SEQEND
  0
LINE
  6
continous
  8
BYBLOCK
 10
1198.1924
 20
869.8266
 30
0.0000
 11
1198.1924
 21
869.8973
 31
0.0000
  0
POLYLINE
  6
continous
  8
BYBLOCK
 70
0
 66
1
  0
VERTEX
  8
0
 10
1207.5813
 20
867.1107
 30
0.0000
  0
VERTEX
  8
0
 10
1207.5066
 20
867.7164
 30
0.0000
  0
VERTEX
  8
0
 10
1207.2993
 20
868.3065
 30
0.0000
  0
VERTEX
  8
0
 10
1206.9644
 20
868.8665
 30
0.0000
  0
VERTEX
  8
0
 10
1206.5102
 20
869.3828
 30
0.0000
  0
VERTEX
  8
0
 10
1205.9478
 20
869.8427
 30
0.0000
  0
VERTEX
  8
0
 10
1205.2909
 20
870.2349
 30
0.0000
  0
VERTEX
  8
0
 10
1204.5555
 20
870.5500
 30
0.0000
  0
VERTEX
  8
0
 10
1203.7597
 20
870.7803
 30
0.0000
  0
VERTEX
  8
0
 10
1202.8282
 20
870.9297
 30
0.0000
  0
VERTEX
  8
0
 10
1201.8742
 20
870.9630
 30
0.0000
  0
VERTEX
  8
0
 10
1200.9265
 20
870.8790
 30
0.0000
  0
VERTEX
  8
0
 10
1200.0136
 20
870.6803
 30
0.0000
  0
VERTEX
  8
0
 10
1199.2445
 20
870.4084
 30
0.0000
  0
VERTEX
  8
0
 10
1198.5448
 20
870.0550
 30
0.0000
  0
VERTEX
  8
0
 10
1198.1924
 20
869.8266
 30
0.0000
  0
SEQEND
  0
POLYLINE
  6
continous
  8
BYBLOCK
 70
0
 66
1
  0
VERTEX
  8
0
 10
1155.7660
 20
839.8266
 30
0.0000
  0
VERTEX
  8
0
 10
1155.2116
 20
839.3685
 30
0.0000
  0
VERTEX
  8
0
 10
1154.7640
 20
838.8552
 30
0.0000
  0
VERTEX
  8
0
 10
1154.4339
 20
838.2991
 30
0.0000
  0
VERTEX
  8
0
 10
1154.2294
 20
837.7137
 30
0.0000
  0
VERTEX
  8
0
 10
1154.1554
 20
837.1130
 30
0.0000
  0
SEQEND
  0
LINE
  6
continous
  8
BYBLOCK
 10
1155.7660
 20
839.8266
 30
0.0000
 11
1155.7660
 21
839.8973
 31
0.0000
  0
POLYLINE
  6
continous
  8
BYBLOCK
 70
0
 66
1
  0
VERTEX
  8
0
 10
1165.1549
 20
837.1107
 30
0.0000
  0
VERTEX
  8
0
 10
1165.0802
 20
837.7164
 30
0.0000
  0
VERTEX
  8
0
 10
1164.8729
 20
838.3065
 30
0.0000
  0
VERTEX
  8
0
 10
1164.5380
 20
838.8665
 30
0.0000
  0
VERTEX
  8
0
 10
1164.0838
 20
839.3828
 30
0.0000
  0
VERTEX
  8
0
 10
1163.5214
 20
839.8427
 30
0.0000
  0
VERTEX
  8
0
 10
1162.8645
 20
840.2349
 30
0.0000
  0
VERTEX
  8
0
 10
1162.1291
 20
840.5500
 30
0.0000
  0
VERTEX
  8
0
 10
1161.3333
 20
840.7803
 30
0.0000
  0
VERTEX
  8
0
 10
1160.4018
 20
840.9297
 30
0.0000
  0
VERTEX
  8
0
 10
1159.4478
 20
840.9630
 30
0.0000
  0
VERTEX
  8
0
 10
1158.5001
 20
840.8790
 30
0.0000
  0
VERTEX
  8
0
 10
1157.5872
 20
840.6803
 30
0.0000
  0
VERTEX
  8
0
 10
1156.8181
 20
840.4084
 30
0.0000
  0
VERTEX
  8
0
 10
1156.1184
 20
840.0550
 30
0.0000
  0
VERTEX
  8
0
 10
1155.7660
 20
839.8266
 30
0.0000
  0
SEQEND
  0
POLYLINE
  6
continous
  8
BYBLOCK
 70
0
 66
1
  0
VERTEX
  8
0
 10
1113.3396
 20
809.8266
 30
0.0000
  0
VERTEX
  8
0
 10
1112.7852
 20
809.3685
 30
0.0000
  0
VERTEX
  8
0
 10
1112.3375
 20
808.8552
 30
0.0000
  0
VERTEX
  8
0
 10
1112.0075
 20
808.2991
 30
0.0000
  0
VERTEX
  8
0
 10
1111.8030
 20
807.7137
 30
0.0000
  0
VERTEX
  8
0
 10
1111.7290
 20
807.1130
 30
0.0000
  0
SEQEND
  0
LINE
  6
continous
  8
BYBLOCK
 10
1113.3396
 20
809.8266
 30
0.0000
 11
1113.3396
 21
809.8973
 31
0.0000
  0
POLYLINE
  6
continous
  8
BYBLOCK
 70
0
 66
1
  0
VERTEX
  8
0
 10
1122.7285
 20
807.1107
 30
0.0000
  0
VERTEX
  8
0
 10
1122.6538
 20
807.7164
 30
0.0000
  0
VERTEX
  8
0
 10
1122.4465
 20
808.3065
 30
0.0000
  0
VERTEX
  8
0
 10
1122.1116
 20
808.8665
 30
0.0000
  0
VERTEX
  8
0
 10
1121.6574
 20
809.3828
 30
0.0000
  0
VERTEX
  8
0
 10
1121.0950
 20
809.8427
 30
0.0000
  0
VERTEX
  8
0
 10
1120.4381
 20
810.2349
 30
0.0000
  0
VERTEX
  8
0
 10
1119.7027
 20
810.5500
 30
0.0000
  0
VERTEX
  8
0
 10
1118.9069
 20
810.7803
 30
0.0000
  0
VERTEX
  8
0
 10
1117.9754
 20
810.9297
 30
0.0000
  0
VERTEX
  8
0
 10
1117.0214
 20
810.9630
 30
0.0000
  0
VERTEX
  8
0
 10
1116.0737
 20
810.8790
 30
0.0000
  0
VERTEX
  8
0
 10
1115.1608
 20
810.6803
 30
0.0000
  0
VERTEX
  8
0
 10
1114.3917
 20
810.4084
 30
0.0000
  0
VERTEX
  8
0
 10
1113.6920
 20
810.0550
 30
0.0000
  0
VERTEX
  8
0
 10
1113.3396
 20
809.8266
 30
0.0000
  0
SEQEND
  0
POLYLINE
  6
continous
  8
BYBLOCK
 70
0
 66
1
  0
VERTEX
  8
0
 10
1070.9132
 20
779.8266
 30
0.0000
  0
VERTEX
  8
0
 10
1070.3588
 20
779.3685
 30
0.0000
  0
VERTEX
  8
0
 10
1069.9111
 20
778.8552
 30
0.0000
  0
VERTEX
  8
0
 10
1069.5811
 20
778.2991
 30
0.0000
  0
VERTEX
  8
0
 10
1069.3766
 20
777.7137
 30
0.0000
  0
VERTEX
  8
0
 10
1069.3025
 20
777.1130
 30
0.0000
  0
SEQEND
  0
LINE
  6
continous
  8
BYBLOCK
 10
1070.9132
 20
779.8266
 30
0.0000
 11
1070.9132
 21
779.8973
 31
0.0000
  0
POLYLINE
  6
continous
  8
BYBLOCK
 70
0
 66
1
  0
VERTEX
  8
0
 10
1080.3021
 20
777.1107
 30
0.0000
  0
VERTEX
  8
0
 10
1080.2274
 20
777.7164
 30
0.0000
  0
VERTEX
  8
0
 10
1080.0201
 20
778.3065
 30
0.0000
  0
VERTEX
  8
0
 10
1079.6852
 20
778.8665
 30
0.0000
  0
VERTEX
  8
0
 10
1079.2310
 20
779.3828
 30
0.0000
  0
VERTEX
  8
0
 10
1078.6686
 20
779.8427
 30
0.0000
  0
VERTEX
  8
0
 10
1078.0117
 20
780.2349
 30
0.0000
  0
VERTEX
  8
0
 10
1077.2763
 20
780.5500
 30
0.0000
  0
VERTEX
  8
0
 10
1076.4805
 20
780.7803
 30
0.0000
  0
VERTEX
  8
0
 10
1075.5490
 20
780.9297
 30
0.0000
  0
VERTEX
  8
0
 10
1074.5950
 20
780.9630
 30
0.0000
  0
VERTEX
  8
0
 10
1073.6473
 20
780.8790
 30
0.0000
  0
VERTEX
  8
0
 10
1072.7344
 20
780.6803
 30
0.0000
  0
VERTEX
  8
0
 10
1071.9653
 20
780.4084
 30
0.0000
  0
VERTEX
  8
0
 10
1071.2656
 20
780.0550
 30
0.0000
  0
VERTEX
  8
0
 10
1070.9132
 20
779.8266
 30
0.0000
  0
SEQEND
  0
POLYLINE
  6
continous
  8
BYBLOCK
 70
0
 66
1
  0
VERTEX
  8
0
 10
1028.4868
 20
749.8266
 30
0.0000
  0
VERTEX
  8
0
 10
1027.9324
 20
749.3685
 30
0.0000
  0
VERTEX
  8
0
 10
1027.4847
 20
748.8552
 30
0.0000
  0
VERTEX
  8
0
 10
1027.1547
 20
748.2991
 30
0.0000
  0
VERTEX
  8
0
 10
1026.9502
 20
747.7137
 30
0.0000
  0
VERTEX
  8
0
 10
1026.8761
 20
747.1130
 30
0.0000
  0
SEQEND
  0
LINE
  6
continous
  8
BYBLOCK
 10
1028.4868
 20
749.8266
 30
0.0000
 11
1028.4868
 21
749.8973
 31
0.0000
  0
POLYLINE
  6
continous
  8
BYBLOCK
 70
0
 66
1
  0
VERTEX
  8
0
 10
1037.8757
 20
747.1107
 30
0.0000
  0
VERTEX
  8
0
 10
1037.8010
 20
747.7164
 30
0.0000
  0
VERTEX
  8
0
 10
1037.5936
 20
748.3065
 30
0.0000
  0
VERTEX
  8
0
 10
1037.2588
 20
748.8665
 30
0.0000
  0
VERTEX
  8
0
 10
1036.8046
 20
749.3828
 30
0.0000
  0
VERTEX
  8
0
 10
1036.2422
 20
749.8427
 30
0.0000
  0
VERTEX
  8
0
 10
1035.5853
 20
750.2349
 30
0.0000
  0
VERTEX
  8
0
 10
1034.8499
 20
750.5500
 30
0.0000
  0
VERTEX
  8
0
 10
1034.0541
 20
750.7803
 30
0.0000
  0
VERTEX
  8
0
 10
1033.1226
 20
750.9297
 30
0.0000
  0
VERTEX
  8
0
 10
1032.1686
 20
750.9630
 30
0.0000
  0
VERTEX
  8
0
 10
1031.2209
 20
750.8790
 30
0.0000
  0
VERTEX
  8
0
 10
1030.3079
 20
750.6803
 30
0.0000
  0
VERTEX
  8
0
 10
1029.5389
 20
750.4084
 30
0.0000
  0
VERTEX
  8
0
 10
1028.8392
 20
750.0550
 30
0.0000
  0
VERTEX
  8
0
 10
1028.4868
 20
749.8266
 30
0.0000
  0
SEQEND
  0
POLYLINE
  6
continous
  8
BYBLOCK
 70
0
 66
1
  0
VERTEX
  8
0
 10
986.0604
 20
719.8266
 30
0.0000
  0
VERTEX
  8
0
 10
985.5059
 20
719.3685
 30
0.0000
  0
VERTEX
  8
0
 10
985.0583
 20
718.8552
 30
0.0000
  0
VERTEX
  8
0
 10
984.7283
 20
718.2991
 30
0.0000
  0
VERTEX
  8
0
 10
984.5238
 20
717.7137
 30
0.0000
  0
VERTEX
  8
0
 10
984.4497
 20
717.1130
 30
0.0000
  0
SEQEND
  0
LINE
  6
continous
  8
BYBLOCK
 10
986.0604
 20
719.8266
 30
0.0000
 11
986.0604
 21
719.8973
 31
0.0000
  0
POLYLINE
  6
continous
  8
BYBLOCK
 70
0
 66
1
  0
VERTEX
  8
0
 10
995.4493
 20
717.1107
 30
0.0000
  0
VERTEX
  8
0
 10
995.3746
 20
717.7164
 30
0.0000
  0
VERTEX
  8
0
 10
995.1672
 20
718.3065
 30
0.0000
  0
VERTEX
  8
0
 10
994.8324
 20
718.8665
 30
0.0000
  0
VERTEX
  8
0
 10
994.3782
 20
719.3828
 30
0.0000
  0
VERTEX
  8
0
 10
993.8158
 20
719.8427
 30
0.0000
  0
VERTEX
  8
0
 10
993.1589
 20
720.2349
 30
0.0000
  0
VERTEX
  8
0
 10
992.4235
 20
720.5500
 30
0.0000
  0
VERTEX
  8
0
 10
991.6277
 20
720.7803
 30
0.0000
  0
VERTEX
  8
0
 10
990.6962
 20
720.9297
 30
0.0000
  0
VERTEX
  8
0
 10
989.7422
 20
720.9630
 30
0.0000
  0
VERTEX
  8
0
 10
988.7945
 20
720.8790
 30
0.0000
  0
VERTEX
  8
0
 10
987.8815
 20
720.6803
 30
0.0000
  0
VERTEX
  8
0
 10
987.1125
 20
720.4084
 30
0.0000
  0
VERTEX
  8
0
 10
986.4128
 20
720.0550
 30
0.0000
  0
VERTEX
  8
0
 10
986.0604
 20
719.8266
 30
0.0000
  0
SEQEND
  0
POLYLINE
  6
continous
  8
BYBLOCK
 70
0
 66
1
  0
VERTEX
  8
0
 10
943.6340
 20
689.8266
 30
0.0000
  0
VERTEX
  8
0
 10
943.0795
 20
689.3685
 30
0.0000
  0
VERTEX
  8
0
 10
942.6319
 20
688.8552
 30
0.0000
  0
VERTEX
  8
0
 10
942.3019
 20
688.2991
 30
0.0000
  0
VERTEX
  8
0
 10
942.0974
 20
687.7137
 30
0.0000
  0
VERTEX
  8
0
 10
942.0233
 20
687.1130
 30
0.0000
  0
SEQEND
  0
LINE
  6
continous
  8
BYBLOCK
 10
943.6340
 20
689.8266
 30
0.0000
 11
943.6340
 21
689.8973
 31
0.0000
  0
POLYLINE
  6
continous
  8
BYBLOCK
 70
0
 66
1
  0
VERTEX
  8
0
 10
953.0229
 20
687.1107
 30
0.0000
  0
VERTEX
  8
0
 10
952.9481
 20
687.7164
 30
0.0000
  0
VERTEX
  8
0
 10
952.7408
 20
688.3065
 30
0.0000
  0
VERTEX
  8
0
 10
952.4060
 20
688.8665
 30
0.0000
  0
VERTEX
  8
0
 10
951.9518
 20
689.3828
 30
0.0000
  0
VERTEX
  8
0
 10
951.3894
 20
689.8427
 30
0.0000
  0
VERTEX
  8
0
 10
950.7325
 20
690.2349
 30
0.0000
  0
VERTEX
  8
0
 10
949.9971
 20
690.5500
 30
0.0000
  0
VERTEX
  8
0
 10
949.2013
 20
690.7803
 30
0.0000
  0
VERTEX
  8
0
 10
948.2698
 20
690.9297
 30
0.0000
  0
VERTEX
  8
0
 10
947.3158
 20
690.9630
 30
0.0000
  0
VERTEX
  8
0
 10
946.3680
 20
690.8790
 30
0.0000
  0
VERTEX
  8
0
 10
945.4551
 20
690.6803
 30
0.0000
  0
VERTEX
  8
0
 10
944.6861
 20
690.4084
 30
0.0000
  0
VERTEX
  8
0
 10
943.9864
 20
690.0550
 30
0.0000
  0
VERTEX
  8
0
 10
943.6340
 20
689.8266
 30
0.0000
  0
SEQEND
  0
POLYLINE
  6
continous
  8
BYBLOCK
 70
0
 66
1
  0
VERTEX
  8
0
 10
901.2076
 20
659.8266
 30
0.0000
  0
VERTEX
  8
0
 10
900.6531
 20
659.3685
 30
0.0000
  0
VERTEX
  8
0
 10
900.2055
 20
658.8552
 30
0.0000
  0
VERTEX
  8
0
 10
899.8755
 20
658.2991
 30
0.0000
  0
VERTEX
  8
0
 10
899.6710
 20
657.7137
 30
0.0000
  0
VERTEX
  8
0
 10
899.5969
 20
657.1130
 30
0.0000
  0
SEQEND
  0
LINE
  6
continous
  8
BYBLOCK
 10
901.2076
 20
659.8266
 30
0.0000
 11
901.2076
 21
659.8973
 31
0.0000
  0
POLYLINE
  6
continous
  8
BYBLOCK
 70
0
 66
1
  0
VERTEX
  8
0
 10
910.5965
 20
657.1107
 30
0.0000
  0
VERTEX
  8
0
 10
910.5217
 20
657.7164
 30
0.0000
  0
VERTEX
  8
0
 10
910.3144
 20
658.3065
 30
0.0000
  0
VERTEX
  8
0
 10
909.9796
 20
658.8665
 30
0.0000
  0
VERTEX
  8
0
 10
909.5254
 20
659.3828
 30
0.0000
  0
VERTEX
  8
0
 10
908.9630
 20
659.8427
 30
0.0000
  0
VERTEX
  8
0
 10
908.3060
 20
660.2349
 30
0.0000
  0
VERTEX
  8
0
 10
907.5707
 20
660.5500
 30
0.0000
  0
VERTEX
  8
0
 10
906.7749
 20
660.7803
 30
0.0000
  0
VERTEX
  8
0
 10
905.8434
 20
660.9297
 30
0.0000
  0
VERTEX
  8
0
 10
904.8894
 20
660.9630
 30
0.0000
  0
VERTEX
  8
0
 10
903.9416
 20
660.8790
 30
0.0000
  0
VERTEX
  8
0
 10
903.0287
 20
660.6803
 30
0.0000
  0
VERTEX
  8
0
 10
902.2597
 20
660.4084
 30
0.0000
  0
VERTEX
  8
0
 10
901.5600
 20
660.0550
 30
0.0000
  0
VERTEX
  8
0
 10
901.2076
 20
659.8266
 30
0.0000
  0
SEQEND
  0
POLYLINE
  6
continous
  8
BYBLOCK
 70
0
 66
1
  0
VERTEX
  8
0
 10
858.7812
 20
629.8266
 30
0.0000
  0
VERTEX
  8
0
 10
858.2267
 20
629.3685
 30
0.0000
  0
VERTEX
  8
0
 10
857.7791
 20
628.8552
 30
0.0000
  0
VERTEX
  8
0
 10
857.4491
 20
628.2991
 30
0.0000
  0
VERTEX
  8
0
 10
857.2446
 20
627.7137
 30
0.0000
  0
VERTEX
  8
0
 10
857.1705
 20
627.1130
 30
0.0000
  0
SEQEND
  0
LINE
  6
continous
  8
BYBLOCK
 10
858.7812
 20
629.8266
 30
0.0000
 11
858.7812
 21
629.8973
 31
0.0000
  0
POLYLINE
  6
continous
  8
BYBLOCK
 70
0
 66
1
  0
VERTEX
  8
0
 10
868.1701
 20
627.1107
 30
0.0000
  0
VERTEX
  8
0
 10
868.0953
 20
627.7164
 30
0.0000
  0
VERTEX
  8
0
 10
867.8880
 20
628.3065
 30
0.0000
  0
VERTEX
  8
0
 10
867.5532
 20
628.8665
 30
0.0000
  0
VERTEX
  8
0
 10
867.0990
 20
629.3828
 30
0.0000
  0
VERTEX
  8
0
 10
866.5366
 20
629.8427
 30
0.0000
  0
VERTEX
  8
0
 10
865.8796
 20
630.2349
 30
0.0000
  0
VERTEX
  8
0
 10
865.1443
 20
630.5500
 30
0.0000
  0
VERTEX
  8
0
 10
864.3484
 20
630.7803
 30
0.0000
  0
VERTEX
  8
0
 10
863.4170
 20
630.9297
 30
0.0000
  0
VERTEX
  8
0
 10
862.4630
 20
630.9630
 30
0.0000
  0
VERTEX
  8
0
 10
861.5152
 20
630.8790
 30
0.0000
  0
VERTEX
  8
0
 10
860.6023
 20
630.6803
 30
0.0000
  0
VERTEX
  8
0
 10
859.8333
 20
630.4084
 30
0.0000
  0
VERTEX
  8
0
 10
859.1336
 20
630.0550
 30
0.0000
  0
VERTEX
  8
0
 10
858.7812
 20
629.8266
 30
0.0000
  0
SEQEND
  0
POLYLINE
  6
continous
  8
BYBLOCK
 70
0
 66
1
  0
VERTEX
  8
0
 10
816.3548
 20
599.8266
 30
0.0000
  0
VERTEX
  8
0
 10
815.8003
 20
599.3685
 30
0.0000
  0
VERTEX
  8
0
 10
815.3527
 20
598.8552
 30
0.0000
  0
VERTEX
  8
0
 10
815.0227
 20
598.2991
 30
0.0000
  0
VERTEX
  8
0
 10
814.8182
 20
597.7137
 30
0.0000
  0
VERTEX
  8
0
 10
814.7441
 20
597.1130
 30
0.0000
  0
SEQEND
  0
LINE
  6
continous
  8
BYBLOCK
 10
816.3548
 20
599.8266
 30
0.0000
 11
816.3548
 21
599.8973
 31
0.0000
  0
POLYLINE
  6
continous
  8
BYBLOCK
 70
0
 66
1
  0
VERTEX
  8
0
 10
825.7437
 20
597.1107
 30
0.0000
  0
VERTEX
  8
0
 10
825.6689
 20
597.7164
 30
0.0000
  0
VERTEX
  8
0
 10
825.4616
 20
598.3065
 30
0.0000
  0
VERTEX
  8
0
 10
825.1268
 20
598.8665
 30
0.0000
  0
VERTEX
  8
0
 10
824.6726
 20
599.3828
 30
0.0000
  0
VERTEX
  8
0
 10
824.1102
 20
599.8427
 30
0.0000
  0
VERTEX
  8
0
 10
823.4532
 20
600.2349
 30
0.0000
  0
VERTEX
  8
0
 10
822.7179
 20
600.5500
 30
0.0000
  0
VERTEX
  8
0
 10
821.9220
 20
600.7803
 30
0.0000
  0
VERTEX
  8
0
 10
820.9906
 20
600.9297
 30
0.0000
  0
VERTEX
  8
0
 10
820.0366
 20
600.9630
 30
0.0000
  0
VERTEX
  8
0
 10
819.0888
 20
600.8790
 30
0.0000
  0
VERTEX
  8
0
 10
818.1759
 20
600.6803
 30
0.0000
  0
VERTEX
  8
0
 10
817.4069
 20
600.4084
 30
0.0000
  0
VERTEX
  8
0
 10
816.7072
 20
600.0550
 30
0.0000
  0
VERTEX
  8
0
 10
816.3548
 20
599.8266
 30
0.0000
  0
SEQEND
  0
POLYLINE
  6
continous
  8
BYBLOCK
 70
0
 66
1
  0
VERTEX
  8
0
 10
773.9284
 20
569.8266
 30
0.0000
  0
VERTEX
  8
0
 10
773.3739
 20
569.3685
 30
0.0000
  0
VERTEX
  8
0
 10
772.9263
 20
568.8552
 30
0.0000
  0
VERTEX
  8
0
 10
772.5963
 20
568.2991
 30
0.0000
  0
VERTEX
  8
0
 10
772.3918
 20
567.7137
 30
0.0000
  0
VERTEX
  8
0
 10
772.3177
 20
567.1130
 30
0.0000
  0
SEQEND
  0
LINE
  6
continous
  8
BYBLOCK
 10
773.9284
 20
569.8266
 30
0.0000
 11
773.9284
 21
569.8973
 31
0.0000
  0
POLYLINE
  6
continous
  8
BYBLOCK
 70
0
 66
1
  0
VERTEX
  8
0
 10
783.3172
 20
567.1107
 30
0.0000
  0
VERTEX
  8
0
 10
783.2425
 20
567.7164
 30
0.0000
  0
VERTEX
  8
0
 10
783.0352
 20
568.3065
 30
0.0000
  0
VERTEX
  8
0
 10
782.7004
 20
568.8665
 30
0.0000
  0
VERTEX
  8
0
 10
782.2462
 20
569.3828
 30
0.0000
  0
VERTEX
  8
0
 10
781.6837
 20
569.8427
 30
0.0000
  0
VERTEX
  8
0
 10
781.0268
 20
570.2349
 30
0.0000
  0
VERTEX
  8
0
 10
780.2915
 20
570.5500
 30
0.0000
  0
VERTEX
  8
0
 10
779.4956
 20
570.7803
 30
0.0000
  0
VERTEX
  8
0
 10
778.5642
 20
570.9297
 30
0.0000
  0
VERTEX
  8
0
 10
777.6102
 20
570.9630
 30
0.0000
  0
VERTEX
  8
0
 10
776.6624
 20
570.8790
 30
0.0000
  0
VERTEX
  8
0
 10
775.7495
 20
570.6803
 30
0.0000
  0
VERTEX
  8
0
 10
774.9805
 20
570.4084
 30
0.0000
  0
VERTEX
  8
0
 10
774.2808
 20
570.0550
 30
0.0000
  0
VERTEX
  8
0
 10
773.9284
 20
569.8266
 30
0.0000
  0
SEQEND
  0
POLYLINE
  6
continous
  8
BYBLOCK
 70
0
 66
1
  0
VERTEX
  8
0
 10
731.5020
 20
539.8266
 30
0.0000
  0
VERTEX
  8
0
 10
730.9475
 20
539.3685
 30
0.0000
  0
VERTEX
  8
0
 10
730.4999
 20
538.8552
 30
0.0000
  0
VERTEX
  8
0
 10
730.1699
 20
538.2991
 30
0.0000
  0
VERTEX
  8
0
 10
729.9653
 20
537.7137
 30
0.0000
  0
VERTEX
  8
0
 10
729.8913
 20
537.1130
 30
0.0000
  0
SEQEND
  0
LINE
  6
continous
  8
BYBLOCK
 10
731.5020
 20
539.8266
 30
0.0000
 11
731.5020
 21
539.8973
 31
0.0000
  0
POLYLINE
  6
continous
  8
BYBLOCK
 70
0
 66
1
  0
VERTEX
  8
0
 10
740.8908
 20
537.1107
 30
0.0000
  0
VERTEX
  8
0
 10
740.8161
 20
537.7164
 30
0.0000
  0
VERTEX
  8
0
 10
740.6088
 20
538.3065
 30
0.0000
  0
VERTEX
  8
0
 10
740.2740
 20
538.8665
 30
0.0000
  0
VERTEX
  8
0
 10
739.8198
 20
539.3828
 30
0.0000
  0
VERTEX
  8
0
 10
739.2573
 20
539.8427
 30
0.0000
  0
VERTEX
  8
0
 10
738.6004
 20
540.2349
 30
0.0000
  0
VERTEX
  8
0
 10
737.8651
 20
540.5500
 30
0.0000
  0
VERTEX
  8
0
 10
737.0692
 20
540.7803
 30
0.0000
  0
VERTEX
  8
0
 10
736.1378
 20
540.9297
 30
0.0000
  0
VERTEX
  8
0
 10
735.1838
 20
540.9630
 30
0.0000
  0
VERTEX
  8
0
 10
734.2360
 20
540.8790
 30
0.0000
  0
VERTEX
  8
0
 10
733.3231
 20
540.6803
 30
0.0000
  0
VERTEX
  8
0
 10
732.5541
 20
540.4084
 30
0.0000
  0
VERTEX
  8
0
 10
731.8544
 20
540.0550
 30
0.0000
  0
VERTEX
  8
0
 10
731.5020
 20
539.8266
 30
0.0000
  0
SEQEND
  0
POLYLINE
  6
continous
  8
BYBLOCK
 70
0
 66
1
  0
VERTEX
  8
0
 10
689.0756
 20
509.8266
 30
0.0000
  0
VERTEX
  8
0
 10
688.5211
 20
509.3685
 30
0.0000
  0
VERTEX
  8
0
 10
688.0735
 20
508.8552
 30
0.0000
  0
VERTEX
  8
0
 10
687.7434
 20
508.2991
 30
0.0000
  0
VERTEX
  8
0
 10
687.5389
 20
507.7137
 30
0.0000
  0
VERTEX
  8
0
 10
687.4649
 20
507.1130
 30
0.0000
  0
SEQEND
  0
LINE
  6
continous
  8
BYBLOCK
 10
689.0756
 20
509.8266
 30
0.0000
 11
689.0756
 21
509.8973
 31
0.0000
  0
POLYLINE
  6
continous
  8
BYBLOCK
 70
0
 66
1
  0
VERTEX
  8
0
 10
698.4644
 20
507.1107
 30
0.0000
  0
VERTEX
  8
0
 10
698.3897
 20
507.7164
 30
0.0000
  0
VERTEX
  8
0
 10
698.1824
 20
508.3065
 30
0.0000
  0
VERTEX
  8
0
 10
697.8475
 20
508.8665
 30
0.0000
  0
VERTEX
  8
0
 10
697.3934
 20
509.3828
 30
0.0000
  0
VERTEX
  8
0
 10
696.8309
 20
509.8427
 30
0.0000
  0
VERTEX
  8
0
 10
696.1740
 20
510.2349
 30
0.0000
  0
VERTEX
  8
0
 10
695.4386
 20
510.5500
 30
0.0000
  0
VERTEX
  8
0
 10
694.6428
 20
510.7803
 30
0.0000
  0
VERTEX
  8
0
 10
693.7113
 20
510.9297
 30
0.0000
  0
VERTEX
  8
0
 10
692.7573
 20
510.9630
 30
0.0000
  0
VERTEX
  8
0
 10
691.8096
 20
510.8790
 30
0.0000
  0
VERTEX
  8
0
 10
690.8967
 20
510.6803
 30
0.0000
  0
VERTEX
  8
0
 10
690.1277
 20
510.4084
 30
0.0000
  0
VERTEX
  8
0
 10
689.4279
 20
510.0550
 30
0.0000
  0
VERTEX
  8
0
 10
689.0756
 20
509.8266
 30
0.0000
  0
SEQEND
  0
POLYLINE
  6
continous
  8
BYBLOCK
 70
0
 66
1
  0
VERTEX
  8
0
 10
646.6492
 20
479.8266
 30
0.0000
  0
VERTEX
  8
0
 10
646.0947
 20
479.3685
 30
0.0000
  0
VERTEX
  8
0
 10
645.6471
 20
478.8552
 30
0.0000
  0
VERTEX
  8
0
 10
645.3170
 20
478.2991
 30
0.0000
  0
VERTEX
  8
0
 10
645.1125
 20
477.7137
 30
0.0000
  0
VERTEX
  8
0
 10
645.0385
 20
477.1130
 30
0.0000
  0
SEQEND
  0
LINE
  6
continous
  8
BYBLOCK
 10
646.6492
 20
479.8266
 30
0.0000
 11
646.6492
 21
479.8973
 31
0.0000
  0
POLYLINE
  6
continous
  8
BYBLOCK
 70
0
 66
1
  0
VERTEX
  8
0
 10
656.0380
 20
477.1107
 30
0.0000
  0
VERTEX
  8
0
 10
655.9633
 20
477.7164
 30
0.0000
  0
VERTEX
  8
0
 10
655.7560
 20
478.3065
 30
0.0000
  0
VERTEX
  8
0
 10
655.4211
 20
478.8665
 30
0.0000
  0
VERTEX
  8
0
 10
654.9670
 20
479.3828
 30
0.0000
  0
VERTEX
  8
0
 10
654.4045
 20
479.8427
 30
0.0000
  0
VERTEX
  8
0
 10
653.7476
 20
480.2349
 30
0.0000
  0
VERTEX
  8
0
 10
653.0122
 20
480.5500
 30
0.0000
  0
VERTEX
  8
0
 10
652.2164
 20
480.7803
 30
0.0000
  0
VERTEX
  8
0
 10
651.2849
 20
480.9297
 30
0.0000
  0
VERTEX
  8
0
 10
650.3309
 20
480.9630
 30
0.0000
  0
VERTEX
  8
0
 10
649.3832
 20
480.8790
 30
0.0000
  0
VERTEX
  8
0
 10
648.4703
 20
480.6803
 30
0.0000
  0
VERTEX
  8
0
 10
647.7012
 20
480.4084
 30
0.0000
  0
VERTEX
  8
0
 10
647.0015
 20
480.0550
 30
0.0000
  0
VERTEX
  8
0
 10
646.6492
 20
479.8266
 30
0.0000
  0
SEQEND
  0
POLYLINE
  6
continous
  8
BYBLOCK
 70
0
 66
1
  0
VERTEX
  8
0
 10
604.2227
 20
449.8266
 30
0.0000
  0
VERTEX
  8
0
 10
603.6683
 20
449.3685
 30
0.0000
  0
VERTEX
  8
0
 10
603.2207
 20
448.8552
 30
0.0000
  0
VERTEX
  8
0
 10
602.8906
 20
448.2991
 30
0.0000
  0
VERTEX
  8
0
 10
602.6861
 20
447.7137
 30
0.0000
  0
VERTEX
  8
0
 10
602.6121
 20
447.1130
 30
0.0000
  0
SEQEND
  0
LINE
  6
continous
  8
BYBLOCK
 10
604.2227
 20
449.8266
 30
0.0000
 11
604.2227
 21
449.8973
 31
0.0000
  0
POLYLINE
  6
continous
  8
BYBLOCK
 70
0
 66
1
  0
VERTEX
  8
0
 10
613.6116
 20
447.1107
 30
0.0000
  0
VERTEX
  8
0
 10
613.5369
 20
447.7164
 30
0.0000
  0
VERTEX
  8
0
 10
613.3296
 20
448.3065
 30
0.0000
  0
VERTEX
  8
0
 10
612.9947
 20
448.8665
 30
0.0000
  0
VERTEX
  8
0
 10
612.5405
 20
449.3828
 30
0.0000
  0
VERTEX
  8
0
 10
611.9781
 20
449.8427
 30
0.0000
  0
VERTEX
  8
0
 10
611.3212
 20
450.2349
 30
0.0000
  0
VERTEX
  8
0
 10
610.5858
 20
450.5500
 30
0.0000
  0
VERTEX
  8
0
 10
609.7900
 20
450.7803
 30
0.0000
  0
VERTEX
  8
0
 10
608.8585
 20
450.9297
 30
0.0000
  0
VERTEX
  8
0
 10
607.9045
 20
450.9630
 30
0.0000
  0
VERTEX
  8
0
 10
606.9568
 20
450.8790
 30
0.0000
  0
VERTEX
  8
0
 10
606.0439
 20
450.6803
 30
0.0000
  0
VERTEX
  8
0
 10
605.2748
 20
450.4084
 30
0.0000
  0
VERTEX
  8
0
 10
604.5751
 20
450.0550
 30
0.0000
  0
VERTEX
  8
0
 10
604.2227
 20
449.8266
 30
0.0000
  0
SEQEND
  0
POLYLINE
  6
continous
  8
BYBLOCK
 70
0
 66
1
  0
VERTEX
  8
0
 10
561.7963
 20
419.8266
 30
0.0000
  0
VERTEX
  8
0
 10
561.2419
 20
419.3685
 30
0.0000
  0
VERTEX
  8
0
 10
560.7943
 20
418.8552
 30
0.0000
  0
VERTEX
  8
0
 10
560.4642
 20
418.2991
 30
0.0000
  0
VERTEX
  8
0
 10
560.2597
 20
417.7137
 30
0.0000
  0
VERTEX
  8
0
 10
560.1857
 20
417.1130
 30
0.0000
  0
SEQEND
  0
LINE
  6
continous
  8
BYBLOCK
 10
561.7963
 20
419.8266
 30
0.0000
 11
561.7963
 21
419.8973
 31
0.0000
  0
POLYLINE
  6
continous
  8
BYBLOCK
 70
0
 66
1
  0
VERTEX
  8
0
 10
571.1852
 20
417.1107
 30
0.0000
  0
VERTEX
  8
0
 10
571.1105
 20
417.7164
 30
0.0000
  0
VERTEX
  8
0
 10
570.9032
 20
418.3065
 30
0.0000
  0
VERTEX
  8
0
 10
570.5683
 20
418.8665
 30
0.0000
  0
VERTEX
  8
0
 10
570.1141
 20
419.3828
 30
0.0000
  0
VERTEX
  8
0
 10
569.5517
 20
419.8427
 30
0.0000
  0
VERTEX
  8
0
 10
568.8948
 20
420.2349
 30
0.0000
  0
VERTEX
  8
0
 10
568.1594
 20
420.5500
 30
0.0000
  0
VERTEX
  8
0
 10
567.3636
 20
420.7803
 30
0.0000
  0
VERTEX
  8
0
 10
566.4321
 20
420.9297
 30
0.0000
  0
VERTEX
  8
0
 10
565.4781
 20
420.9630
 30
0.0000
  0
VERTEX
  8
0
 10
564.5304
 20
420.8790
 30
0.0000
  0
VERTEX
  8
0
 10
563.6175
 20
420.6803
 30
0.0000
  0
VERTEX
  8
0
 10
562.8484
 20
420.4084
 30
0.0000
  0
VERTEX
  8
0
 10
562.1487
 20
420.0550
 30
0.0000
  0
VERTEX
  8
0
 10
561.7963
 20
419.8266
 30
0.0000
  0
SEQEND
  0
POLYLINE
  6
continous
  8
BYBLOCK
 70
0
 66
1
  0
VERTEX
  8
0
 10
519.3699
 20
389.8266
 30
0.0000
  0
VERTEX
  8
0
 10
518.8155
 20
389.3685
 30
0.0000
  0
VERTEX
  8
0
 10
518.3678
 20
388.8552
 30
0.0000
  0
VERTEX
  8
0
 10
518.0378
 20
388.2991
 30
0.0000
  0
VERTEX
  8
0
 10
517.8333
 20
387.7137
 30
0.0000
  0
VERTEX
  8
0
 10
517.7593
 20
387.1130
 30
0.0000
  0
SEQEND
  0
LINE
  6
continous
  8
BYBLOCK
 10
519.3699
 20
389.8266
 30
0.0000
 11
519.3699
 21
389.8973
 31
0.0000
  0
POLYLINE
  6
continous
  8
BYBLOCK
 70
0
 66
1
  0
VERTEX
  8
0
 10
528.7588
 20
387.1107
 30
0.0000
  0
VERTEX
  8
0
 10
528.6841
 20
387.7164
 30
0.0000
  0
VERTEX
  8
0
 10
528.4768
 20
388.3065
 30
0.0000
  0
VERTEX
  8
0
 10
528.1419
 20
388.8665
 30
0.0000
  0
VERTEX
  8
0
 10
527.6877
 20
389.3828
 30
0.0000
  0
VERTEX
  8
0
 10
527.1253
 20
389.8427
 30
0.0000
  0
VERTEX
  8
0
 10
526.4684
 20
390.2349
 30
0.0000
  0
VERTEX
  8
0
 10
525.7330
 20
390.5500
 30
0.0000
  0
VERTEX
  8
0
 10
524.9372
 20
390.7803
 30
0.0000
  0
VERTEX
  8
0
 10
524.0057
 20
390.9297
 30
0.0000
  0
VERTEX
  8
0
 10
523.0517
 20
390.9630
 30
0.0000
  0
VERTEX
  8
0
 10
522.1040
 20
390.8790
 30
0.0000
  0
VERTEX
  8
0
 10
521.1911
 20
390.6803
 30
0.0000
  0
VERTEX
  8
0
 10
520.4220
 20
390.4084
 30
0.0000
  0
VERTEX
  8
0
 10
519.7223
 20
390.0550
 30
0.0000
  0
VERTEX
  8
0
 10
519.3699
 20
389.8266
 30
0.0000
  0
SEQEND
  0
POLYLINE
  6
continous
  8
BYBLOCK
 70
0
 66
1
  0
VERTEX
  8
0
 10
476.9435
 20
359.8266
 30
0.0000
  0
VERTEX
  8
0
 10
476.3891
 20
359.3685
 30
0.0000
  0
VERTEX
  8
0
 10
475.9414
 20
358.8552
 30
0.0000
  0
VERTEX
  8
0
 10
475.6114
 20
358.2991
 30
0.0000
  0
VERTEX
  8
0
 10
475.4069
 20
357.7137
 30
0.0000
  0
VERTEX
  8
0
 10
475.3329
 20
357.1130
 30
0.0000
  0
SEQEND
  0
LINE
  6
continous
  8
BYBLOCK
 10
476.9435
 20
359.8266
 30
0.0000
 11
476.9435
 21
359.8973
 31
0.0000
  0
POLYLINE
  6
continous
  8
BYBLOCK
 70
0
 66
1
  0
VERTEX
  8
0
 10
486.3324
 20
357.1107
 30
0.0000
  0
VERTEX
  8
0
 10
486.2577
 20
357.7164
 30
0.0000
  0
VERTEX
  8
0
 10
486.0504
 20
358.3065
 30
0.0000
  0
VERTEX
  8
0
 10
485.7155
 20
358.8665
 30
0.0000
  0
VERTEX
  8
0
 10
485.2613
 20
359.3828
 30
0.0000
  0
VERTEX
  8
0
 10
484.6989
 20
359.8427
 30
0.0000
  0
VERTEX
  8
0
 10
484.0420
 20
360.2349
 30
0.0000
  0
VERTEX
  8
0
 10
483.3066
 20
360.5500
 30
0.0000
  0
VERTEX
  8
0
 10
482.5108
 20
360.7803
 30
0.0000
  0
VERTEX
  8
0
 10
481.5793
 20
360.9297
 30
0.0000
  0
VERTEX
  8
0
 10
480.6253
 20
360.9630
 30
0.0000
  0
VERTEX
  8
0
 10
479.6776
 20
360.8790
 30
0.0000
  0
VERTEX
  8
0
 10
478.7647
 20
360.6803
 30
0.0000
  0
VERTEX
  8
0
 10
477.9956
 20
360.4084
 30
0.0000
  0
VERTEX
  8
0
 10
477.2959
 20
360.0550
 30
0.0000
  0
VERTEX
  8
0
 10
476.9435
 20
359.8266
 30
0.0000
  0
SEQEND
  0
POLYLINE
  6
continous
  8
BYBLOCK
 70
0
 66
1
  0
VERTEX
  8
0
 10
434.5171
 20
329.8266
 30
0.0000
  0
VERTEX
  8
0
 10
433.9627
 20
329.3685
 30
0.0000
  0
VERTEX
  8
0
 10
433.5150
 20
328.8552
 30
0.0000
  0
VERTEX
  8
0
 10
433.1850
 20
328.2991
 30
0.0000
  0
VERTEX
  8
0
 10
432.9805
 20
327.7137
 30
0.0000
  0
VERTEX
  8
0
 10
432.9064
 20
327.1130
 30
0.0000
  0
SEQEND
  0
LINE
  6
continous
  8
BYBLOCK
 10
434.5171
 20
329.8266
 30
0.0000
 11
434.5171
 21
329.8973
 31
0.0000
  0
POLYLINE
  6
continous
  8
BYBLOCK
 70
0
 66
1
  0
VERTEX
  8
0
 10
443.9060
 20
327.1107
 30
0.0000
  0
VERTEX
  8
0
 10
443.8313
 20
327.7164
 30
0.0000
  0
VERTEX
  8
0
 10
443.6239
 20
328.3065
 30
0.0000
  0
VERTEX
  8
0
 10
443.2891
 20
328.8665
 30
0.0000
  0
VERTEX
  8
0
 10
442.8349
 20
329.3828
 30
0.0000
  0
VERTEX
  8
0
 10
442.2725
 20
329.8427
 30
0.0000
  0
VERTEX
  8
0
 10
441.6156
 20
330.2349
 30
0.0000
  0
VERTEX
  8
0
 10
440.8802
 20
330.5500
 30
0.0000
  0
VERTEX
  8
0
 10
440.0844
 20
330.7803
 30
0.0000
  0
VERTEX
  8
0
 10
439.1529
 20
330.9297
 30
0.0000
  0
VERTEX
  8
0
 10
438.1989
 20
330.9630
 30
0.0000
  0
VERTEX
  8
0
 10
437.2512
 20
330.8790
 30
0.0000
  0
VERTEX
  8
0
 10
436.3383
 20
330.6803
 30
0.0000
  0
VERTEX
  8
0
 10
435.5692
 20
330.4084
 30
0.0000
  0
VERTEX
  8
0
 10
434.8695
 20
330.0550
 30
0.0000
  0
VERTEX
  8
0
 10
434.5171
 20
329.8266
 30
0.0000
  0
SEQEND
  0
POLYLINE
  6
continous
  8
BYBLOCK
 70
0
 66
1
  0
VERTEX
  8
0
 10
392.0907
 20
299.8266
 30
0.0000
  0
VERTEX
  8
0
 10
391.5363
 20
299.3685
 30
0.0000
  0
VERTEX
  8
0
 10
391.0886
 20
298.8552
 30
0.0000
  0
VERTEX
  8
0
 10
390.7586
 20
298.2991
 30
0.0000
  0
VERTEX
  8
0
 10
390.5541
 20
297.7137
 30
0.0000
  0
VERTEX
  8
0
 10
390.4800
 20
297.1130
 30
0.0000
  0
SEQEND
  0
LINE
  6
continous
  8
BYBLOCK
 10
392.0907
 20
299.8266
 30
0.0000
 11
392.0907
 21
299.8973
 31
0.0000
  0
POLYLINE
  6
continous
  8
BYBLOCK
 70
0
 66
1
  0
VERTEX
  8
0
 10
401.4796
 20
297.1107
 30
0.0000
  0
VERTEX
  8
0
 10
401.4049
 20
297.7164
 30
0.0000
  0
VERTEX
  8
0
 10
401.1975
 20
298.3065
 30
0.0000
  0
VERTEX
  8
0
 10
400.8627
 20
298.8665
 30
0.0000
  0
VERTEX
  8
0
 10
400.4085
 20
299.3828
 30
0.0000
  0
VERTEX
  8
0
 10
399.8461
 20
299.8427
 30
0.0000
  0
VERTEX
  8
0
 10
399.1892
 20
300.2349
 30
0.0000
  0
VERTEX
  8
0
 10
398.4538
 20
300.5500
 30
0.0000
  0
VERTEX
  8
0
 10
397.6580
 20
300.7803
 30
0.0000
  0
VERTEX
  8
0
 10
396.7265
 20
300.9297
 30
0.0000
  0
VERTEX
  8
0
 10
395.7725
 20
300.9630
 30
0.0000
  0
VERTEX
  8
0
 10
394.8248
 20
300.8790
 30
0.0000
  0
VERTEX
  8
0
 10
393.9118
 20
300.6803
 30
0.0000
  0
VERTEX
  8
0
 10
393.1428
 20
300.4084
 30
0.0000
  0
VERTEX
  8
0
 10
392.4431
 20
300.0550
 30
0.0000
  0
VERTEX
  8
0
 10
392.0907
 20
299.8266
 30
0.0000
  0
SEQEND
  0
POLYLINE
  6
continous
  8
BYBLOCK
 70
0
 66
1
  0
VERTEX
  8
0
 10
349.6643
 20
269.8266
 30
0.0000
  0
VERTEX
  8
0
 10
349.1098
 20
269.3685
 30
0.0000
  0
VERTEX
  8
0
 10
348.6622
 20
268.8552
 30
0.0000
  0
VERTEX
  8
0
 10
348.3322
 20
268.2991
 30
0.0000
  0
VERTEX
  8
0
 10
348.1277
 20
267.7137
 30
0.0000
  0
VERTEX
  8
0
 10
348.0536
 20
267.1130
 30
0.0000
  0
SEQEND
  0
LINE
  6
continous
  8
BYBLOCK
 10
349.6643
 20
269.8266
 30
0.0000
 11
349.6643
 21
269.8973
 31
0.0000
  0
POLYLINE
  6
continous
  8
BYBLOCK
 70
0
 66
1
  0
VERTEX
  8
0
 10
359.0532
 20
267.1107
 30
0.0000
  0
VERTEX
  8
0
 10
358.9785
 20
267.7164
 30
0.0000
  0
VERTEX
  8
0
 10
358.7711
 20
268.3065
 30
0.0000
  0
VERTEX
  8
0
 10
358.4363
 20
268.8665
 30
0.0000
  0
VERTEX
  8
0
 10
357.9821
 20
269.3828
 30
0.0000
  0
VERTEX
  8
0
 10
357.4197
 20
269.8427
 30
0.0000
  0
VERTEX
  8
0
 10
356.7628
 20
270.2349
 30
0.0000
  0
VERTEX
  8
0
 10
356.0274
 20
270.5500
 30
0.0000
  0
VERTEX
  8
0
 10
355.2316
 20
270.7803
 30
0.0000
  0
VERTEX
  8
0
 10
354.3001
 20
270.9297
 30
0.0000
  0
VERTEX
  8
0
 10
353.3461
 20
270.9630
 30
0.0000
  0
VERTEX
  8
0
 10
352.3983
 20
270.8790
 30
0.0000
  0
VERTEX
  8
0
 10
351.4854
 20
270.6803
 30
0.0000
  0
VERTEX
  8
0
 10
350.7164
 20
270.4084
 30
0.0000
  0
VERTEX
  8
0
 10
350.0167
 20
270.0550
 30
0.0000
  0
VERTEX
  8
0
 10
349.6643
 20
269.8266
 30
0.0000
  0
SEQEND
  0
POLYLINE
  6
continous
  8
BYBLOCK
 70
0
 66
1
  0
VERTEX
  8
0
 10
307.2379
 20
239.8266
 30
0.0000
  0
VERTEX
  8
0
 10
306.6834
 20
239.3685
 30
0.0000
  0
VERTEX
  8
0
 10
306.2358
 20
238.8552
 30
0.0000
  0
VERTEX
  8
0
 10
305.9058
 20
238.2991
 30
0.0000
  0
VERTEX
  8
0
 10
305.7013
 20
237.7137
 30
0.0000
  0
VERTEX
  8
0
 10
305.6272
 20
237.1130
 30
0.0000
  0
SEQEND
  0
LINE
  6
continous
  8
BYBLOCK
 10
307.2379
 20
239.8266
 30
0.0000
 11
307.2379
 21
239.8973
 31
0.0000
  0
POLYLINE
  6
continous
  8
BYBLOCK
 70
0
 66
1
  0
VERTEX
  8
0
 10
316.6268
 20
237.1107
 30
0.0000
  0
VERTEX
  8
0
 10
316.5520
 20
237.7164
 30
0.0000
  0
VERTEX
  8
0
 10
316.3447
 20
238.3065
 30
0.0000
  0
VERTEX
  8
0
 10
316.0099
 20
238.8665
 30
0.0000
  0
VERTEX
  8
0
 10
315.5557
 20
239.3828
 30
0.0000
  0
VERTEX
  8
0
 10
314.9933
 20
239.8427
 30
0.0000
  0
VERTEX
  8
0
 10
314.3363
 20
240.2349
 30
0.0000
  0
VERTEX
  8
0
 10
313.6010
 20
240.5500
 30
0.0000
  0
VERTEX
  8
0
 10
312.8052
 20
240.7803
 30
0.0000
  0
VERTEX
  8
0
 10
311.8737
 20
240.9297
 30
0.0000
  0
VERTEX
  8
0
 10
310.9197
 20
240.9630
 30
0.0000
  0
VERTEX
  8
0
 10
309.9719
 20
240.8790
 30
0.0000
  0
VERTEX
  8
0
 10
309.0590
 20
240.6803
 30
0.0000
  0
VERTEX
  8
0
 10
308.2900
 20
240.4084
 30
0.0000
  0
VERTEX
  8
0
 10
307.5903
 20
240.0550
 30
0.0000
  0
VERTEX
  8
0
 10
307.2379
 20
239.8266
 30
0.0000
  0
SEQEND
  0
POLYLINE
  6
continous
  8
BYBLOCK
 70
0
 66
1
  0
VERTEX
  8
0
 10
264.8115
 20
209.8266
 30
0.0000
  0
VERTEX
  8
0
 10
264.2570
 20
209.3685
 30
0.0000
  0
VERTEX
  8
0
 10
263.8094
 20
208.8552
 30
0.0000
  0
VERTEX
  8
0
 10
263.4794
 20
208.2991
 30
0.0000
  0
VERTEX
  8
0
 10
263.2749
 20
207.7137
 30
0.0000
  0
VERTEX
  8
0
 10
263.2008
 20
207.1130
 30
0.0000
  0
SEQEND
  0
LINE
  6
continous
  8
BYBLOCK
 10
264.8115
 20
209.8266
 30
0.0000
 11
264.8115
 21
209.8973
 31
0.0000
  0
POLYLINE
  6
continous
  8
BYBLOCK
 70
0
 66
1
  0
VERTEX
  8
0
 10
274.2004
 20
207.1107
 30
0.0000
  0
VERTEX
  8
0
 10
274.1256
 20
207.7164
 30
0.0000
  0
VERTEX
  8
0
 10
273.9183
 20
208.3065
 30
0.0000
  0
VERTEX
  8
0
 10
273.5835
 20
208.8665
 30
0.0000
  0
VERTEX
  8
0
 10
273.1293
 20
209.3828
 30
0.0000
  0
VERTEX
  8
0
 10
272.5669
 20
209.8427
 30
0.0000
  0
VERTEX
  8
0
 10
271.9099
 20
210.2349
 30
0.0000
  0
VERTEX
  8
0
 10
271.1746
 20
210.5500
 30
0.0000
  0
VERTEX
  8
0
 10
270.3788
 20
210.7803
 30
0.0000
  0
VERTEX
  8
0
 10
269.4473
 20
210.9297
 30
0.0000
  0
VERTEX
  8
0
 10
268.4933
 20
210.9630
 30
0.0000
  0
VERTEX
  8
0
 10
267.5455
 20
210.8790
 30
0.0000
  0
VERTEX
  8
0
 10
266.6326
 20
210.6803
 30
0.0000
  0
VERTEX
  8
0
 10
265.8636
 20
210.4084
 30
0.0000
  0
VERTEX
  8
0
 10
265.1639
 20
210.0550
 30
0.0000
  0
VERTEX
  8
0
 10
264.8115
 20
209.8266
 30
0.0000
  0
SEQEND
  0
POLYLINE
  6
continous
  8
BYBLOCK
 70
0
 66
1
  0
VERTEX
  8
0
 10
222.3851
 20
179.8266
 30
0.0000
  0
VERTEX
  8
0
 10
221.8306
 20
179.3685
 30
0.0000
  0
VERTEX
  8
0
 10
221.3830
 20
178.8552
 30
0.0000
  0
VERTEX
  8
0
 10
221.0530
 20
178.2991
 30
0.0000
  0
VERTEX
  8
0
 10
220.8485
 20
177.7137
 30
0.0000
  0
VERTEX
  8
0
 10
220.7744
 20
177.1130
 30
0.0000
  0
SEQEND
  0
LINE
  6
continous
  8
BYBLOCK
 10
222.3851
 20
179.8266
 30
0.0000
 11
222.3851
 21
179.8973
 31
0.0000
  0
POLYLINE
  6
continous
  8
BYBLOCK
 70
0
 66
1
  0
VERTEX
  8
0
 10
231.7740
 20
177.1107
 30
0.0000
  0
VERTEX
  8
0
 10
231.6992
 20
177.7164
 30
0.0000
  0
VERTEX
  8
0
 10
231.4919
 20
178.3065
 30
0.0000
  0
VERTEX
  8
0
 10
231.1571
 20
178.8665
 30
0.0000
  0
VERTEX
  8
0
 10
230.7029
 20
179.3828
 30
0.0000
  0
VERTEX
  8
0
 10
230.1405
 20
179.8427
 30
0.0000
  0
VERTEX
  8
0
 10
229.4835
 20
180.2349
 30
0.0000
  0
VERTEX
  8
0
 10
228.7482
 20
180.5500
 30
0.0000
  0
VERTEX
  8
0
 10
227.9523
 20
180.7803
 30
0.0000
  0
VERTEX
  8
0
 10
227.0209
 20
180.9297
 30
0.0000
  0
VERTEX
  8
0
 10
226.0669
 20
180.9630
 30
0.0000
  0
VERTEX
  8
0
 10
225.1191
 20
180.8790
 30
0.0000
  0
VERTEX
  8
0
 10
224.2062
 20
180.6803
 30
0.0000
  0
VERTEX
  8
0
 10
223.4372
 20
180.4084
 30
0.0000
  0
VERTEX
  8
0
 10
222.7375
 20
180.0550
 30
0.0000
  0
VERTEX
  8
0
 10
222.3851
 20
179.8266
 30
0.0000
  0
SEQEND
  0
POLYLINE
  6
continous
  8
BYBLOCK
 70
0
 66
1
  0
VERTEX
  8
0
 10
179.9587
 20
149.8266
 30
0.0000
  0
VERTEX
  8
0
 10
179.4042
 20
149.3685
 30
0.0000
  0
VERTEX
  8
0
 10
178.9566
 20
148.8552
 30
0.0000
  0
VERTEX
  8
0
 10
178.6266
 20
148.2991
 30
0.0000
  0
VERTEX
  8
0
 10
178.4221
 20
147.7137
 30
0.0000
  0
VERTEX
  8
0
 10
178.3480
 20
147.1130
 30
0.0000
  0
SEQEND
  0
LINE
  6
continous
  8
BYBLOCK
 10
179.9587
 20
149.8266
 30
0.0000
 11
179.9587
 21
149.8973
 31
0.0000
  0
POLYLINE
  6
continous
  8
BYBLOCK
 70
0
 66
1
  0
VERTEX
  8
0
 10
189.3476
 20
147.1107
 30
0.0000
  0
VERTEX
  8
0
 10
189.2728
 20
147.7164
 30
0.0000
  0
VERTEX
  8
0
 10
189.0655
 20
148.3065
 30
0.0000
  0
VERTEX
  8
0
 10
188.7307
 20
148.8665
 30
0.0000
  0
VERTEX
  8
0
 10
188.2765
 20
149.3828
 30
0.0000
  0
VERTEX
  8
0
 10
187.7141
 20
149.8427
 30
0.0000
  0
VERTEX
  8
0
 10
187.0571
 20
150.2349
 30
0.0000
  0
VERTEX
  8
0
 10
186.3218
 20
150.5500
 30
0.0000
  0
VERTEX
  8
0
 10
185.5259
 20
150.7803
 30
0.0000
  0
VERTEX
  8
0
 10
184.5945
 20
150.9297
 30
0.0000
  0
VERTEX
  8
0
 10
183.6405
 20
150.9630
 30
0.0000
  0
VERTEX
  8
0
 10
182.6927
 20
150.8790
 30
0.0000
  0
VERTEX
  8
0
 10
181.7798
 20
150.6803
 30
0.0000
  0
VERTEX
  8
0
 10
181.0108
 20
150.4084
 30
0.0000
  0
VERTEX
  8
0
 10
180.3111
 20
150.0550
 30
0.0000
  0
VERTEX
  8
0
 10
179.9587
 20
149.8266
 30
0.0000
  0
SEQEND
  0
POLYLINE
  6
continous
  8
BYBLOCK
 70
0
 66
1
  0
VERTEX
  8
0
 10
137.5323
 20
119.8266
 30
0.0000
  0
VERTEX
  8
0
 10
136.9778
 20
119.3685
 30
0.0000
  0
VERTEX
  8
0
 10
136.5302
 20
118.8552
 30
0.0000
  0
VERTEX
  8
0
 10
136.2002
 20
118.2991
 30
0.0000
  0
VERTEX
  8
0
 10
135.9957
 20
117.7137
 30
0.0000
  0
VERTEX
  8
0
 10
135.9216
 20
117.1130
 30
0.0000
  0
SEQEND
  0
LINE
  6
continous
  8
BYBLOCK
 10
137.5323
 20
119.8266
 30
0.0000
 11
137.5323
 21
119.8973
 31
0.0000
  0
POLYLINE
  6
continous
  8
BYBLOCK
 70
0
 66
1
  0
VERTEX
  8
0
 10
146.9211
 20
117.1107
 30
0.0000
  0
VERTEX
  8
0
 10
146.8464
 20
117.7164
 30
0.0000
  0
VERTEX
  8
0
 10
146.6391
 20
118.3065
 30
0.0000
  0
VERTEX
  8
0
 10
146.3043
 20
118.8665
 30
0.0000
  0
VERTEX
  8
0
 10
145.8501
 20
119.3828
 30
0.0000
  0
VERTEX
  8
0
 10
145.2876
 20
119.8427
 30
0.0000
  0
VERTEX
  8
0
 10
144.6307
 20
120.2349
 30
0.0000
  0
VERTEX
  8
0
 10
143.8954
 20
120.5500
 30
0.0000
  0
VERTEX
  8
0
 10
143.0995
 20
120.7803
 30
0.0000
  0
VERTEX
  8
0
 10
142.1681
 20
120.9297
 30
0.0000
  0
VERTEX
  8
0
 10
141.2141
 20
120.9630
 30
0.0000
  0
VERTEX
  8
0
 10
140.2663
 20
120.8790
 30
0.0000
  0
VERTEX
  8
0
 10
139.3534
 20
120.6803
 30
0.0000
  0
VERTEX
  8
0
 10
138.5844
 20
120.4084
 30
0.0000
  0
VERTEX
  8
0
 10
137.8847
 20
120.0550
 30
0.0000
  0
VERTEX
  8
0
 10
137.5323
 20
119.8266
 30
0.0000
  0
SEQEND
  0
POLYLINE
  6
continous
  8
BYBLOCK
 70
0
 66
1
  0
VERTEX
  8
0
 10
95.1059
 20
89.8266
 30
0.0000
  0
VERTEX
  8
0
 10
94.5514
 20
89.3685
 30
0.0000
  0
VERTEX
  8
0
 10
94.1038
 20
88.8552
 30
0.0000
  0
VERTEX
  8
0
 10
93.7737
 20
88.2991
 30
0.0000
  0
VERTEX
  8
0
 10
93.5692
 20
87.7137
 30
0.0000
  0
VERTEX
  8
0
 10
93.4952
 20
87.1130
 30
0.0000
  0
SEQEND
  0
LINE
  6
continous
  8
BYBLOCK
 10
95.1059
 20
89.8266
 30
0.0000
 11
95.1059
 21
89.8973
 31
0.0000
  0
POLYLINE
  6
continous
  8
BYBLOCK
 70
0
 66
1
  0
VERTEX
  8
0
 10
104.4947
 20
87.1107
 30
0.0000
  0
VERTEX
  8
0
 10
104.4200
 20
87.7164
 30
0.0000
  0
VERTEX
  8
0
 10
104.2127
 20
88.3065
 30
0.0000
  0
VERTEX
  8
0
 10
103.8779
 20
88.8665
 30
0.0000
  0
VERTEX
  8
0
 10
103.4237
 20
89.3828
 30
0.0000
  0
VERTEX
  8
0
 10
102.8612
 20
89.8427
 30
0.0000
  0
VERTEX
  8
0
 10
102.2043
 20
90.2349
 30
0.0000
  0
VERTEX
  8
0
 10
101.4690
 20
90.5500
 30
0.0000
  0
VERTEX
  8
0
 10
100.6731
 20
90.7803
 30
0.0000
  0
VERTEX
  8
0
 10
99.7416
 20
90.9297
 30
0.0000
  0
VERTEX
  8
0
 10
98.7877
 20
90.9630
 30
0.0000
  0
VERTEX
  8
0
 10
97.8399
 20
90.8790
 30
0.0000
  0
VERTEX
  8
0
 10
96.9270
 20
90.6803
 30
0.0000
  0
VERTEX
  8
0
 10
96.1580
 20
90.4084
 30
0.0000
  0
VERTEX
  8
0
 10
95.4582
 20
90.0550
 30
0.0000
  0
VERTEX
  8
0
 10
95.1059
 20
89.8266
 30
0.0000
  0
SEQEND
  0
POLYLINE
  6
continous
  8
BYBLOCK
 70
0
 66
1
  0
VERTEX
  8
0
 10
52.6795
 20
59.8266
 30
0.0000
  0
VERTEX
  8
0
 10
52.1250
 20
59.3685
 30
0.0000
  0
VERTEX
  8
0
 10
51.6774
 20
58.8552
 30
0.0000
  0
VERTEX
  8
0
 10
51.3473
 20
58.2991
 30
0.0000
  0
VERTEX
  8
0
 10
51.1428
 20
57.7137
 30
0.0000
  0
VERTEX
  8
0
 10
51.0688
 20
57.1130
 30
0.0000
  0
SEQEND
  0
LINE
  6
continous
  8
BYBLOCK
 10
52.6795
 20
59.8266
 30
0.0000
 11
52.6795
 21
59.8973
 31
0.0000
  0
POLYLINE
  6
continous
  8
BYBLOCK
 70
0
 66
1
  0
VERTEX
  8
0
 10
62.0683
 20
57.1107
 30
0.0000
  0
VERTEX
  8
0
 10
61.9936
 20
57.7164
 30
0.0000
  0
VERTEX
  8
0
 10
61.7863
 20
58.3065
 30
0.0000
  0
VERTEX
  8
0
 10
61.4514
 20
58.8665
 30
0.0000
  0
VERTEX
  8
0
 10
60.9973
 20
59.3828
 30
0.0000
  0
VERTEX
  8
0
 10
60.4348
 20
59.8427
 30
0.0000
  0
VERTEX
  8
0
 10
59.7779
 20
60.2349
 30
0.0000
  0
VERTEX
  8
0
 10
59.0425
 20
60.5500
 30
0.0000
  0
VERTEX
  8
0
 10
58.2467
 20
60.7803
 30
0.0000
  0
VERTEX
  8
0
 10
57.3152
 20
60.9297
 30
0.0000
  0
VERTEX
  8
0
 10
56.3612
 20
60.9630
 30
0.0000
  0
VERTEX
  8
0
 10
55.4135
 20
60.8790
 30
0.0000
  0
VERTEX
  8
0
 10
54.5006
 20
60.6803
 30
0.0000
  0
VERTEX
  8
0
 10
53.7315
 20
60.4084
 30
0.0000
  0
VERTEX
  8
0
 10
53.0318
 20
60.0550
 30
0.0000
  0
VERTEX
  8
0
 10
52.6795
 20
59.8266
 30
0.0000
  0
SEQEND
  0
LINE
  6
continous
  8
BYBLOCK
 10
10.2530
 20
29.8266
 30
0.0000
 11
10.2530
 21
29.8973
 31
0.0000
  0
POLYLINE
  6
continous
  8
BYBLOCK
 70
0
 66
1
  0
VERTEX
  8
0
 10
8.6421
 20
27.1473
 30
0.0000
  0
VERTEX
  8
0
 10
8.6957
 20
26.6061
 30
0.0000
  0
VERTEX
  8
0
 10
8.8825
 20
26.0103
 30
0.0000
  0
VERTEX
  8
0
 10
9.1988
 20
25.4425
 30
0.0000
  0
VERTEX
  8
0
 10
9.6368
 20
24.9167
 30
0.0000
  0
VERTEX
  8
0
 10
10.1858
 20
24.4458
 30
0.0000
  0
VERTEX
  8
0
 10
10.8322
 20
24.0414
 30
0.0000
  0
VERTEX
  8
0
 10
11.5600
 20
23.7135
 30
0.0000
  0
VERTEX
  8
0
 10
12.3515
 20
23.4701
 30
0.0000
  0
VERTEX
  8
0
 10
13.2817
 20
23.3061
 30
0.0000
  0
VERTEX
  8
0
 10
14.2381
 20
23.2588
 30
0.0000
  0
VERTEX
  8
0
 10
15.1916
 20
23.3297
 30
0.0000
  0
VERTEX
  8
0
 10
16.1132
 20
23.5166
 30
0.0000
  0
VERTEX
  8
0
 10
16.8921
 20
23.7793
 30
0.0000
  0
VERTEX
  8
0
 10
17.6034
 20
24.1250
 30
0.0000
  0
VERTEX
  8
0
 10
18.0312
 20
24.3973
 30
0.0000
  0
SEQEND
  0
POLYLINE
  6
continous
  8
BYBLOCK
 70
0
 66
1
  0
VERTEX
  8
0
 10
10.2530
 20
29.8973
 30
0.0000
  0
VERTEX
  8
0
 10
9.6925
 20
29.4333
 30
0.0000
  0
VERTEX
  8
0
 10
9.2416
 20
28.9129
 30
0.0000
  0
VERTEX
  8
0
 10
8.9113
 20
28.3491
 30
0.0000
  0
VERTEX
  8
0
 10
8.7098
 20
27.7557
 30
0.0000
  0
VERTEX
  8
0
 10
8.6430
 20
27.2152
 30
0.0000
  0
VERTEX
  8
0
 10
8.6421
 20
27.1473
 30
0.0000
  0
SEQEND
  0
POLYLINE
  6
continous
  8
BYBLOCK
 70
0
 66
1
  0
VERTEX
  8
0
 10
19.6421
 20
27.1473
 30
0.0000
  0
VERTEX
  8
0
 10
19.5886
 20
27.6886
 30
0.0000
  0
VERTEX
  8
0
 10
19.4018
 20
28.2844
 30
0.0000
  0
VERTEX
  8
0
 10
19.0855
 20
28.8522
 30
0.0000
  0
VERTEX
  8
0
 10
18.6475
 20
29.3780
 30
0.0000
  0
VERTEX
  8
0
 10
18.0985
 20
29.8489
 30
0.0000
  0
VERTEX
  8
0
 10
17.4521
 20
30.2533
 30
0.0000
  0
VERTEX
  8
0
 10
16.7242
 20
30.5812
 30
0.0000
  0
VERTEX
  8
0
 10
15.9328
 20
30.8245
 30
0.0000
  0
VERTEX
  8
0
 10
15.0025
 20
30.9885
 30
0.0000
  0
VERTEX
  8
0
 10
14.0461
 20
31.0358
 30
0.0000
  0
VERTEX
  8
0
 10
13.0927
 20
30.9650
 30
0.0000
  0
VERTEX
  8
0
 10
12.1711
 20
30.7781
 30
0.0000
  0
VERTEX
  8
0
 10
11.3921
 20
30.5154
 30
0.0000
  0
VERTEX
  8
0
 10
10.6809
 20
30.1697
 30
0.0000
  0
VERTEX
  8
0
 10
10.2530
 20
29.8973
 30
0.0000
  0
SEQEND
  0
POLYLINE
  6
continous
  8
BYBLOCK
 70
0
 66
1
  0
VERTEX
  8
0
 10
18.0312
 20
24.3973
 30
0.0000
  0
VERTEX
  8
0
 10
18.5917
 20
24.8614
 30
0.0000
  0
VERTEX
  8
0
 10
19.0427
 20
25.3817
 30
0.0000
  0
VERTEX
  8
0
 10
19.3729
 20
25.9455
 30
0.0000
  0
VERTEX
  8
0
 10
19.5744
 20
26.5390
 30
0.0000
  0
VERTEX
  8
0
 10
19.6413
 20
27.0795
 30
0.0000
  0
VERTEX
  8
0
 10
19.6421
 20
27.1473
 30
0.0000
  0
SEQEND
  0
POLYLINE
  6
continous
  8
BYBLOCK
 70
0
 66
1
  0
VERTEX
  8
0
 10
2808.7850
 20
2007.1473
 30
0.0000
  0
VERTEX
  8
0
 10
2808.8385
 20
2006.6061
 30
0.0000
  0
VERTEX
  8
0
 10
2809.0253
 20
2006.0103
 30
0.0000
  0
VERTEX
  8
0
 10
2809.3416
 20
2005.4425
 30
0.0000
  0
VERTEX
  8
0
 10
2809.7797
 20
2004.9167
 30
0.0000
  0
VERTEX
  8
0
 10
2810.3286
 20
2004.4458
 30
0.0000
  0
VERTEX
  8
0
 10
2810.9750
 20
2004.0414
 30
0.0000
  0
VERTEX
  8
0
 10
2811.7029
 20
2003.7135
 30
0.0000
  0
VERTEX
  8
0
 10
2812.4944
 20
2003.4701
 30
0.0000
  0
VERTEX
  8
0
 10
2813.4246
 20
2003.3061
 30
0.0000
  0
VERTEX
  8
0
 10
2814.3810
 20
2003.2588
 30
0.0000
  0
VERTEX
  8
0
 10
2815.3344
 20
2003.3297
 30
0.0000
  0
VERTEX
  8
0
 10
2816.2560
 20
2003.5166
 30
0.0000
  0
VERTEX
  8
0
 10
2817.0350
 20
2003.7793
 30
0.0000
  0
VERTEX
  8
0
 10
2817.7463
 20
2004.1250
 30
0.0000
  0
VERTEX
  8
0
 10
2818.1741
 20
2004.3973
 30
0.0000
  0
SEQEND
  0
POLYLINE
  6
continous
  8
BYBLOCK
 70
0
 66
1
  0
VERTEX
  8
0
 10
2810.3959
 20
2009.8973
 30
0.0000
  0
VERTEX
  8
0
 10
2809.8354
 20
2009.4333
 30
0.0000
  0
VERTEX
  8
0
 10
2809.3845
 20
2008.9129
 30
0.0000
  0
VERTEX
  8
0
 10
2809.0542
 20
2008.3491
 30
0.0000
  0
VERTEX
  8
0
 10
2808.8527
 20
2007.7557
 30
0.0000
  0
VERTEX
  8
0
 10
2808.7858
 20
2007.2152
 30
0.0000
  0
VERTEX
  8
0
 10
2808.7850
 20
2007.1473
 30
0.0000
  0
SEQEND
  0
POLYLINE
  6
continous
  8
BYBLOCK
 70
0
 66
1
  0
VERTEX
  8
0
 10
2819.7850
 20
2007.1473
 30
0.0000
  0
VERTEX
  8
0
 10
2819.7315
 20
2007.6886
 30
0.0000
  0
VERTEX
  8
0
 10
2819.5447
 20
2008.2844
 30
0.0000
  0
VERTEX
  8
0
 10
2819.2284
 20
2008.8522
 30
0.0000
  0
VERTEX
  8
0
 10
2818.7903
 20
2009.3780
 30
0.0000
  0
VERTEX
  8
0
 10
2818.2414
 20
2009.8489
 30
0.0000
  0
VERTEX
  8
0
 10
2817.5950
 20
2010.2533
 30
0.0000
  0
VERTEX
  8
0
 10
2816.8671
 20
2010.5812
 30
0.0000
  0
VERTEX
  8
0
 10
2816.0756
 20
2010.8245
 30
0.0000
  0
VERTEX
  8
0
 10
2815.1454
 20
2010.9885
 30
0.0000
  0
VERTEX
  8
0
 10
2814.1890
 20
2011.0358
 30
0.0000
  0
VERTEX
  8
0
 10
2813.2355
 20
2010.9650
 30
0.0000
  0
VERTEX
  8
0
 10
2812.3140
 20
2010.7781
 30
0.0000
  0
VERTEX
  8
0
 10
2811.5350
 20
2010.5154
 30
0.0000
  0
VERTEX
  8
0
 10
2810.8237
 20
2010.1697
 30
0.0000
  0
VERTEX
  8
0
 10
2810.3959
 20
2009.8973
 30
0.0000
  0
SEQEND
  0
POLYLINE
  6
continous
  8
BYBLOCK
 70
0
 66
1
  0
VERTEX
  8
0
 10
2818.1741
 20
2004.3973
 30
0.0000
  0
VERTEX
  8
0
 10
2818.7346
 20
2004.8614
 30
0.0000
  0
VERTEX
  8
0
 10
2819.1855
 20
2005.3817
 30
0.0000
  0
VERTEX
  8
0
 10
2819.5158
 20
2005.9455
 30
0.0000
  0
VERTEX
  8
0
 10
2819.7173
 20
2006.5390
 30
0.0000
  0
VERTEX
  8
0
 10
2819.7842
 20
2007.0795
 30
0.0000
  0
VERTEX
  8
0
 10
2819.7850
 20
2007.1473
 30
0.0000
  0
SEQEND
  0
POLYLINE
  6
continous
  8
BYBLOCK
 70
0
 66
1
  0
VERTEX
  8
0
 10
2766.3586
 20
1977.1473
 30
0.0000
  0
VERTEX
  8
0
 10
2766.4121
 20
1976.6061
 30
0.0000
  0
VERTEX
  8
0
 10
2766.5989
 20
1976.0103
 30
0.0000
  0
VERTEX
  8
0
 10
2766.9152
 20
1975.4425
 30
0.0000
  0
VERTEX
  8
0
 10
2767.3532
 20
1974.9167
 30
0.0000
  0
VERTEX
  8
0
 10
2767.9022
 20
1974.4458
 30
0.0000
  0
VERTEX
  8
0
 10
2768.5486
 20
1974.0414
 30
0.0000
  0
VERTEX
  8
0
 10
2769.2765
 20
1973.7135
 30
0.0000
  0
VERTEX
  8
0
 10
2770.0680
 20
1973.4701
 30
0.0000
  0
VERTEX
  8
0
 10
2770.9982
 20
1973.3061
 30
0.0000
  0
VERTEX
  8
0
 10
2771.9546
 20
1973.2588
 30
0.0000
  0
VERTEX
  8
0
 10
2772.9080
 20
1973.3297
 30
0.0000
  0
VERTEX
  8
0
 10
2773.8296
 20
1973.5166
 30
0.0000
  0
VERTEX
  8
0
 10
2774.6086
 20
1973.7793
 30
0.0000
  0
VERTEX
  8
0
 10
2775.3198
 20
1974.1250
 30
0.0000
  0
VERTEX
  8
0
 10
2775.7477
 20
1974.3973
 30
0.0000
  0
SEQEND
  0
POLYLINE
  6
continous
  8
BYBLOCK
 70
0
 66
1
  0
VERTEX
  8
0
 10
2767.9695
 20
1979.8973
 30
0.0000
  0
VERTEX
  8
0
 10
2767.4090
 20
1979.4333
 30
0.0000
  0
VERTEX
  8
0
 10
2766.9580
 20
1978.9129
 30
0.0000
  0
VERTEX
  8
0
 10
2766.6278
 20
1978.3491
 30
0.0000
  0
VERTEX
  8
0
 10
2766.4263
 20
1977.7557
 30
0.0000
  0
VERTEX
  8
0
 10
2766.3594
 20
1977.2152
 30
0.0000
  0
VERTEX
  8
0
 10
2766.3586
 20
1977.1473
 30
0.0000
  0
SEQEND
  0
POLYLINE
  6
continous
  8
BYBLOCK
 70
0
 66
1
  0
VERTEX
  8
0
 10
2777.3586
 20
1977.1473
 30
0.0000
  0
VERTEX
  8
0
 10
2777.3051
 20
1977.6886
 30
0.0000
  0
VERTEX
  8
0
 10
2777.1183
 20
1978.2844
 30
0.0000
  0
VERTEX
  8
0
 10
2776.8019
 20
1978.8522
 30
0.0000
  0
VERTEX
  8
0
 10
2776.3639
 20
1979.3780
 30
0.0000
  0
VERTEX
  8
0
 10
2775.8150
 20
1979.8489
 30
0.0000
  0
VERTEX
  8
0
 10
2775.1686
 20
1980.2533
 30
0.0000
  0
VERTEX
  8
0
 10
2774.4407
 20
1980.5812
 30
0.0000
  0
VERTEX
  8
0
 10
2773.6492
 20
1980.8245
 30
0.0000
  0
VERTEX
  8
0
 10
2772.7190
 20
1980.9885
 30
0.0000
  0
VERTEX
  8
0
 10
2771.7626
 20
1981.0358
 30
0.0000
  0
VERTEX
  8
0
 10
2770.8091
 20
1980.9650
 30
0.0000
  0
VERTEX
  8
0
 10
2769.8876
 20
1980.7781
 30
0.0000
  0
VERTEX
  8
0
 10
2769.1086
 20
1980.5154
 30
0.0000
  0
VERTEX
  8
0
 10
2768.3973
 20
1980.1697
 30
0.0000
  0
VERTEX
  8
0
 10
2767.9695
 20
1979.8973
 30
0.0000
  0
SEQEND
  0
POLYLINE
  6
continous
  8
BYBLOCK
 70
0
 66
1
  0
VERTEX
  8
0
 10
2775.7477
 20
1974.3973
 30
0.0000
  0
VERTEX
  8
0
 10
2776.3082
 20
1974.8614
 30
0.0000
  0
VERTEX
  8
0
 10
2776.7591
 20
1975.3817
 30
0.0000
  0
VERTEX
  8
0
 10
2777.0894
 20
1975.9455
 30
0.0000
  0
VERTEX
  8
0
 10
2777.2909
 20
1976.5390
 30
0.0000
  0
VERTEX
  8
0
 10
2777.3577
 20
1977.0795
 30
0.0000
  0
VERTEX
  8
0
 10
2777.3586
 20
1977.1473
 30
0.0000
  0
SEQEND
  0
POLYLINE
  6
continous
  8
BYBLOCK
 70
0
 66
1
  0
VERTEX
  8
0
 10
2723.9322
 20
1947.1473
 30
0.0000
  0
VERTEX
  8
0
 10
2723.9857
 20
1946.6061
 30
0.0000
  0
VERTEX
  8
0
 10
2724.1725
 20
1946.0103
 30
0.0000
  0
VERTEX
  8
0
 10
2724.4888
 20
1945.4425
 30
0.0000
  0
VERTEX
  8
0
 10
2724.9268
 20
1944.9167
 30
0.0000
  0
VERTEX
  8
0
 10
2725.4758
 20
1944.4458
 30
0.0000
  0
VERTEX
  8
0
 10
2726.1222
 20
1944.0414
 30
0.0000
  0
VERTEX
  8
0
 10
2726.8501
 20
1943.7135
 30
0.0000
  0
VERTEX
  8
0
 10
2727.6416
 20
1943.4701
 30
0.0000
  0
VERTEX
  8
0
 10
2728.5718
 20
1943.3061
 30
0.0000
  0
VERTEX
  8
0
 10
2729.5282
 20
1943.2588
 30
0.0000
  0
VERTEX
  8
0
 10
2730.4816
 20
1943.3297
 30
0.0000
  0
VERTEX
  8
0
 10
2731.4032
 20
1943.5166
 30
0.0000
  0
VERTEX
  8
0
 10
2732.1822
 20
1943.7793
 30
0.0000
  0
VERTEX
  8
0
 10
2732.8934
 20
1944.1250
 30
0.0000
  0
VERTEX
  8
0
 10
2733.3213
 20
1944.3973
 30
0.0000
  0
SEQEND
  0
POLYLINE
  6
continous
  8
BYBLOCK
 70
0
 66
1
  0
VERTEX
  8
0
 10
2725.5431
 20
1949.8973
 30
0.0000
  0
VERTEX
  8
0
 10
2724.9826
 20
1949.4333
 30
0.0000
  0
VERTEX
  8
0
 10
2724.5316
 20
1948.9129
 30
0.0000
  0
VERTEX
  8
0
 10
2724.2014
 20
1948.3491
 30
0.0000
  0
VERTEX
  8
0
 10
2723.9999
 20
1947.7557
 30
0.0000
  0
VERTEX
  8
0
 10
2723.9330
 20
1947.2152
 30
0.0000
  0
VERTEX
  8
0
 10
2723.9322
 20
1947.1473
 30
0.0000
  0
SEQEND
  0
POLYLINE
  6
continous
  8
BYBLOCK
 70
0
 66
1
  0
VERTEX
  8
0
 10
2734.9322
 20
1947.1473
 30
0.0000
  0
VERTEX
  8
0
 10
2734.8786
 20
1947.6886
 30
0.0000
  0
VERTEX
  8
0
 10
2734.6919
 20
1948.2844
 30
0.0000
  0
VERTEX
  8
0
 10
2734.3755
 20
1948.8522
 30
0.0000
  0
VERTEX
  8
0
 10
2733.9375
 20
1949.3780
 30
0.0000
  0
VERTEX
  8
0
 10
2733.3885
 20
1949.8489
 30
0.0000
  0
VERTEX
  8
0
 10
2732.7422
 20
1950.2533
 30
0.0000
  0
VERTEX
  8
0
 10
2732.0143
 20
1950.5812
 30
0.0000
  0
VERTEX
  8
0
 10
2731.2228
 20
1950.8245
 30
0.0000
  0
VERTEX
  8
0
 10
2730.2926
 20
1950.9885
 30
0.0000
  0
VERTEX
  8
0
 10
2729.3362
 20
1951.0358
 30
0.0000
  0
VERTEX
  8
0
 10
2728.3827
 20
1950.9650
 30
0.0000
  0
VERTEX
  8
0
 10
2727.4612
 20
1950.7781
 30
0.0000
  0
VERTEX
  8
0
 10
2726.6822
 20
1950.5154
 30
0.0000
  0
VERTEX
  8
0
 10
2725.9709
 20
1950.1697
 30
0.0000
  0
VERTEX
  8
0
 10
2725.5431
 20
1949.8973
 30
0.0000
  0
SEQEND
  0
POLYLINE
  6
continous
  8
BYBLOCK
 70
0
 66
1
  0
VERTEX
  8
0
 10
2733.3213
 20
1944.3973
 30
0.0000
  0
VERTEX
  8
0
 10
2733.8818
 20
1944.8614
 30
0.0000
  0
VERTEX
  8
0
 10
2734.3327
 20
1945.3817
 30
0.0000
  0
VERTEX
  8
0
 10
2734.6630
 20
1945.9455
 30
0.0000
  0
VERTEX
  8
0
 10
2734.8645
 20
1946.5390
 30
0.0000
  0
VERTEX
  8
0
 10
2734.9313
 20
1947.0795
 30
0.0000
  0
VERTEX
  8
0
 10
2734.9322
 20
1947.1473
 30
0.0000
  0
SEQEND
  0
POLYLINE
  6
continous
  8
BYBLOCK
 70
0
 66
1
  0
VERTEX
  8
0
 10
2681.5058
 20
1917.1473
 30
0.0000
  0
VERTEX
  8
0
 10
2681.5593
 20
1916.6061
 30
0.0000
  0
VERTEX
  8
0
 10
2681.7461
 20
1916.0103
 30
0.0000
  0
VERTEX
  8
0
 10
2682.0624
 20
1915.4425
 30
0.0000
  0
VERTEX
  8
0
 10
2682.5004
 20
1914.9167
 30
0.0000
  0
VERTEX
  8
0
 10
2683.0494
 20
1914.4458
 30
0.0000
  0
VERTEX
  8
0
 10
2683.6958
 20
1914.0414
 30
0.0000
  0
VERTEX
  8
0
 10
2684.4237
 20
1913.7135
 30
0.0000
  0
VERTEX
  8
0
 10
2685.2151
 20
1913.4701
 30
0.0000
  0
VERTEX
  8
0
 10
2686.1454
 20
1913.3061
 30
0.0000
  0
VERTEX
  8
0
 10
2687.1018
 20
1913.2588
 30
0.0000
  0
VERTEX
  8
0
 10
2688.0552
 20
1913.3297
 30
0.0000
  0
VERTEX
  8
0
 10
2688.9768
 20
1913.5166
 30
0.0000
  0
VERTEX
  8
0
 10
2689.7558
 20
1913.7793
 30
0.0000
  0
VERTEX
  8
0
 10
2690.4670
 20
1914.1250
 30
0.0000
  0
VERTEX
  8
0
 10
2690.8949
 20
1914.3973
 30
0.0000
  0
SEQEND
  0
POLYLINE
  6
continous
  8
BYBLOCK
 70
0
 66
1
  0
VERTEX
  8
0
 10
2683.1167
 20
1919.8973
 30
0.0000
  0
VERTEX
  8
0
 10
2682.5562
 20
1919.4333
 30
0.0000
  0
VERTEX
  8
0
 10
2682.1052
 20
1918.9129
 30
0.0000
  0
VERTEX
  8
0
 10
2681.7750
 20
1918.3491
 30
0.0000
  0
VERTEX
  8
0
 10
2681.5735
 20
1917.7557
 30
0.0000
  0
VERTEX
  8
0
 10
2681.5066
 20
1917.2152
 30
0.0000
  0
VERTEX
  8
0
 10
2681.5058
 20
1917.1473
 30
0.0000
  0
SEQEND
  0
POLYLINE
  6
continous
  8
BYBLOCK
 70
0
 66
1
  0
VERTEX
  8
0
 10
2692.5058
 20
1917.1473
 30
0.0000
  0
VERTEX
  8
0
 10
2692.4522
 20
1917.6886
 30
0.0000
  0
VERTEX
  8
0
 10
2692.2654
 20
1918.2844
 30
0.0000
  0
VERTEX
  8
0
 10
2691.9491
 20
1918.8522
 30
0.0000
  0
VERTEX
  8
0
 10
2691.5111
 20
1919.3780
 30
0.0000
  0
VERTEX
  8
0
 10
2690.9621
 20
1919.8489
 30
0.0000
  0
VERTEX
  8
0
 10
2690.3158
 20
1920.2533
 30
0.0000
  0
VERTEX
  8
0
 10
2689.5879
 20
1920.5812
 30
0.0000
  0
VERTEX
  8
0
 10
2688.7964
 20
1920.8245
 30
0.0000
  0
VERTEX
  8
0
 10
2687.8662
 20
1920.9885
 30
0.0000
  0
VERTEX
  8
0
 10
2686.9098
 20
1921.0358
 30
0.0000
  0
VERTEX
  8
0
 10
2685.9563
 20
1920.9650
 30
0.0000
  0
VERTEX
  8
0
 10
2685.0347
 20
1920.7781
 30
0.0000
  0
VERTEX
  8
0
 10
2684.2558
 20
1920.5154
 30
0.0000
  0
VERTEX
  8
0
 10
2683.5445
 20
1920.1697
 30
0.0000
  0
VERTEX
  8
0
 10
2683.1167
 20
1919.8973
 30
0.0000
  0
SEQEND
  0
POLYLINE
  6
continous
  8
BYBLOCK
 70
0
 66
1
  0
VERTEX
  8
0
 10
2690.8949
 20
1914.3973
 30
0.0000
  0
VERTEX
  8
0
 10
2691.4554
 20
1914.8614
 30
0.0000
  0
VERTEX
  8
0
 10
2691.9063
 20
1915.3817
 30
0.0000
  0
VERTEX
  8
0
 10
2692.2366
 20
1915.9455
 30
0.0000
  0
VERTEX
  8
0
 10
2692.4381
 20
1916.5390
 30
0.0000
  0
VERTEX
  8
0
 10
2692.5049
 20
1917.0795
 30
0.0000
  0
VERTEX
  8
0
 10
2692.5058
 20
1917.1473
 30
0.0000
  0
SEQEND
  0
POLYLINE
  6
continous
  8
BYBLOCK
 70
0
 66
1
  0
VERTEX
  8
0
 10
2639.0794
 20
1887.1473
 30
0.0000
  0
VERTEX
  8
0
 10
2639.1329
 20
1886.6061
 30
0.0000
  0
VERTEX
  8
0
 10
2639.3197
 20
1886.0103
 30
0.0000
  0
VERTEX
  8
0
 10
2639.6360
 20
1885.4425
 30
0.0000
  0
VERTEX
  8
0
 10
2640.0740
 20
1884.9167
 30
0.0000
  0
VERTEX
  8
0
 10
2640.6230
 20
1884.4458
 30
0.0000
  0
VERTEX
  8
0
 10
2641.2694
 20
1884.0414
 30
0.0000
  0
VERTEX
  8
0
 10
2641.9973
 20
1883.7135
 30
0.0000
  0
VERTEX
  8
0
 10
2642.7887
 20
1883.4701
 30
0.0000
  0
VERTEX
  8
0
 10
2643.7190
 20
1883.3061
 30
0.0000
  0
VERTEX
  8
0
 10
2644.6753
 20
1883.2588
 30
0.0000
  0
VERTEX
  8
0
 10
2645.6288
 20
1883.3297
 30
0.0000
  0
VERTEX
  8
0
 10
2646.5504
 20
1883.5166
 30
0.0000
  0
VERTEX
  8
0
 10
2647.3294
 20
1883.7793
 30
0.0000
  0
VERTEX
  8
0
 10
2648.0406
 20
1884.1250
 30
0.0000
  0
VERTEX
  8
0
 10
2648.4684
 20
1884.3973
 30
0.0000
  0
SEQEND
  0
POLYLINE
  6
continous
  8
BYBLOCK
 70
0
 66
1
  0
VERTEX
  8
0
 10
2640.6903
 20
1889.8973
 30
0.0000
  0
VERTEX
  8
0
 10
2640.1298
 20
1889.4333
 30
0.0000
  0
VERTEX
  8
0
 10
2639.6788
 20
1888.9129
 30
0.0000
  0
VERTEX
  8
0
 10
2639.3486
 20
1888.3491
 30
0.0000
  0
VERTEX
  8
0
 10
2639.1471
 20
1887.7557
 30
0.0000
  0
VERTEX
  8
0
 10
2639.0802
 20
1887.2152
 30
0.0000
  0
VERTEX
  8
0
 10
2639.0794
 20
1887.1473
 30
0.0000
  0
SEQEND
  0
POLYLINE
  6
continous
  8
BYBLOCK
 70
0
 66
1
  0
VERTEX
  8
0
 10
2650.0794
 20
1887.1473
 30
0.0000
  0
VERTEX
  8
0
 10
2650.0258
 20
1887.6886
 30
0.0000
  0
VERTEX
  8
0
 10
2649.8390
 20
1888.2844
 30
0.0000
  0
VERTEX
  8
0
 10
2649.5227
 20
1888.8522
 30
0.0000
  0
VERTEX
  8
0
 10
2649.0847
 20
1889.3780
 30
0.0000
  0
VERTEX
  8
0
 10
2648.5357
 20
1889.8489
 30
0.0000
  0
VERTEX
  8
0
 10
2647.8893
 20
1890.2533
 30
0.0000
  0
VERTEX
  8
0
 10
2647.1615
 20
1890.5812
 30
0.0000
  0
VERTEX
  8
0
 10
2646.3700
 20
1890.8245
 30
0.0000
  0
VERTEX
  8
0
 10
2645.4398
 20
1890.9885
 30
0.0000
  0
VERTEX
  8
0
 10
2644.4834
 20
1891.0358
 30
0.0000
  0
VERTEX
  8
0
 10
2643.5299
 20
1890.9650
 30
0.0000
  0
VERTEX
  8
0
 10
2642.6083
 20
1890.7781
 30
0.0000
  0
VERTEX
  8
0
 10
2641.8294
 20
1890.5154
 30
0.0000
  0
VERTEX
  8
0
 10
2641.1181
 20
1890.1697
 30
0.0000
  0
VERTEX
  8
0
 10
2640.6903
 20
1889.8973
 30
0.0000
  0
SEQEND
  0
POLYLINE
  6
continous
  8
BYBLOCK
 70
0
 66
1
  0
VERTEX
  8
0
 10
2648.4684
 20
1884.3973
 30
0.0000
  0
VERTEX
  8
0
 10
2649.0290
 20
1884.8614
 30
0.0000
  0
VERTEX
  8
0
 10
2649.4799
 20
1885.3817
 30
0.0000
  0
VERTEX
  8
0
 10
2649.8102
 20
1885.9455
 30
0.0000
  0
VERTEX
  8
0
 10
2650.0116
 20
1886.5390
 30
0.0000
  0
VERTEX
  8
0
 10
2650.0785
 20
1887.0795
 30
0.0000
  0
VERTEX
  8
0
 10
2650.0794
 20
1887.1473
 30
0.0000
  0
SEQEND
  0
POLYLINE
  6
continous
  8
BYBLOCK
 70
0
 66
1
  0
VERTEX
  8
0
 10
2596.6530
 20
1857.1473
 30
0.0000
  0
VERTEX
  8
0
 10
2596.7065
 20
1856.6061
 30
0.0000
  0
VERTEX
  8
0
 10
2596.8933
 20
1856.0103
 30
0.0000
  0
VERTEX
  8
0
 10
2597.2096
 20
1855.4425
 30
0.0000
  0
VERTEX
  8
0
 10
2597.6476
 20
1854.9167
 30
0.0000
  0
VERTEX
  8
0
 10
2598.1966
 20
1854.4458
 30
0.0000
  0
VERTEX
  8
0
 10
2598.8430
 20
1854.0414
 30
0.0000
  0
VERTEX
  8
0
 10
2599.5709
 20
1853.7135
 30
0.0000
  0
VERTEX
  8
0
 10
2600.3623
 20
1853.4701
 30
0.0000
  0
VERTEX
  8
0
 10
2601.2926
 20
1853.3061
 30
0.0000
  0
VERTEX
  8
0
 10
2602.2489
 20
1853.2588
 30
0.0000
  0
VERTEX
  8
0
 10
2603.2024
 20
1853.3297
 30
0.0000
  0
VERTEX
  8
0
 10
2604.1240
 20
1853.5166
 30
0.0000
  0
VERTEX
  8
0
 10
2604.9030
 20
1853.7793
 30
0.0000
  0
VERTEX
  8
0
 10
2605.6142
 20
1854.1250
 30
0.0000
  0
VERTEX
  8
0
 10
2606.0420
 20
1854.3973
 30
0.0000
  0
SEQEND
  0
POLYLINE
  6
continous
  8
BYBLOCK
 70
0
 66
1
  0
VERTEX
  8
0
 10
2598.2639
 20
1859.8973
 30
0.0000
  0
VERTEX
  8
0
 10
2597.7034
 20
1859.4333
 30
0.0000
  0
VERTEX
  8
0
 10
2597.2524
 20
1858.9129
 30
0.0000
  0
VERTEX
  8
0
 10
2596.9221
 20
1858.3491
 30
0.0000
  0
VERTEX
  8
0
 10
2596.7207
 20
1857.7557
 30
0.0000
  0
VERTEX
  8
0
 10
2596.6538
 20
1857.2152
 30
0.0000
  0
VERTEX
  8
0
 10
2596.6530
 20
1857.1473
 30
0.0000
  0
SEQEND
  0
POLYLINE
  6
continous
  8
BYBLOCK
 70
0
 66
1
  0
VERTEX
  8
0
 10
2607.6530
 20
1857.1473
 30
0.0000
  0
VERTEX
  8
0
 10
2607.5994
 20
1857.6886
 30
0.0000
  0
VERTEX
  8
0
 10
2607.4126
 20
1858.2844
 30
0.0000
  0
VERTEX
  8
0
 10
2607.0963
 20
1858.8522
 30
0.0000
  0
VERTEX
  8
0
 10
2606.6583
 20
1859.3780
 30
0.0000
  0
VERTEX
  8
0
 10
2606.1093
 20
1859.8489
 30
0.0000
  0
VERTEX
  8
0
 10
2605.4629
 20
1860.2533
 30
0.0000
  0
VERTEX
  8
0
 10
2604.7350
 20
1860.5812
 30
0.0000
  0
VERTEX
  8
0
 10
2603.9436
 20
1860.8245
 30
0.0000
  0
VERTEX
  8
0
 10
2603.0133
 20
1860.9885
 30
0.0000
  0
VERTEX
  8
0
 10
2602.0570
 20
1861.0358
 30
0.0000
  0
VERTEX
  8
0
 10
2601.1035
 20
1860.9650
 30
0.0000
  0
VERTEX
  8
0
 10
2600.1819
 20
1860.7781
 30
0.0000
  0
VERTEX
  8
0
 10
2599.4030
 20
1860.5154
 30
0.0000
  0
VERTEX
  8
0
 10
2598.6917
 20
1860.1697
 30
0.0000
  0
VERTEX
  8
0
 10
2598.2639
 20
1859.8973
 30
0.0000
  0
SEQEND
  0
POLYLINE
  6
continous
  8
BYBLOCK
 70
0
 66
1
  0
VERTEX
  8
0
 10
2606.0420
 20
1854.3973
 30
0.0000
  0
VERTEX
  8
0
 10
2606.6025
 20
1854.8614
 30
0.0000
  0
VERTEX
  8
0
 10
2607.0535
 20
1855.3817
 30
0.0000
  0
VERTEX
  8
0
 10
2607.3838
 20
1855.9455
 30
0.0000
  0
VERTEX
  8
0
 10
2607.5852
 20
1856.5390
 30
0.0000
  0
VERTEX
  8
0
 10
2607.6521
 20
1857.0795
 30
0.0000
  0
VERTEX
  8
0
 10
2607.6530
 20
1857.1473
 30
0.0000
  0
SEQEND
  0
POLYLINE
  6
continous
  8
BYBLOCK
 70
0
 66
1
  0
VERTEX
  8
0
 10
2554.2265
 20
1827.1473
 30
0.0000
  0
VERTEX
  8
0
 10
2554.2801
 20
1826.6061
 30
0.0000
  0
VERTEX
  8
0
 10
2554.4669
 20
1826.0103
 30
0.0000
  0
VERTEX
  8
0
 10
2554.7832
 20
1825.4425
 30
0.0000
  0
VERTEX
  8
0
 10
2555.2212
 20
1824.9167
 30
0.0000
  0
VERTEX
  8
0
 10
2555.7702
 20
1824.4458
 30
0.0000
  0
VERTEX
  8
0
 10
2556.4166
 20
1824.0414
 30
0.0000
  0
VERTEX
  8
0
 10
2557.1445
 20
1823.7135
 30
0.0000
  0
VERTEX
  8
0
 10
2557.9359
 20
1823.4701
 30
0.0000
  0
VERTEX
  8
0
 10
2558.8662
 20
1823.3061
 30
0.0000
  0
VERTEX
  8
0
 10
2559.8225
 20
1823.2588
 30
0.0000
  0
VERTEX
  8
0
 10
2560.7760
 20
1823.3297
 30
0.0000
  0
VERTEX
  8
0
 10
2561.6976
 20
1823.5166
 30
0.0000
  0
VERTEX
  8
0
 10
2562.4765
 20
1823.7793
 30
0.0000
  0
VERTEX
  8
0
 10
2563.1878
 20
1824.1250
 30
0.0000
  0
VERTEX
  8
0
 10
2563.6156
 20
1824.3973
 30
0.0000
  0
SEQEND
  0
POLYLINE
  6
continous
  8
BYBLOCK
 70
0
 66
1
  0
VERTEX
  8
0
 10
2555.8375
 20
1829.8973
 30
0.0000
  0
VERTEX
  8
0
 10
2555.2770
 20
1829.4333
 30
0.0000
  0
VERTEX
  8
0
 10
2554.8260
 20
1828.9129
 30
0.0000
  0
VERTEX
  8
0
 10
2554.4957
 20
1828.3491
 30
0.0000
  0
VERTEX
  8
0
 10
2554.2943
 20
1827.7557
 30
0.0000
  0
VERTEX
  8
0
 10
2554.2274
 20
1827.2152
 30
0.0000
  0
VERTEX
  8
0
 10
2554.2265
 20
1827.1473
 30
0.0000
  0
SEQEND
  0
POLYLINE
  6
continous
  8
BYBLOCK
 70
0
 66
1
  0
VERTEX
  8
0
 10
2565.2265
 20
1827.1473
 30
0.0000
  0
VERTEX
  8
0
 10
2565.1730
 20
1827.6886
 30
0.0000
  0
VERTEX
  8
0
 10
2564.9862
 20
1828.2844
 30
0.0000
  0
VERTEX
  8
0
 10
2564.6699
 20
1828.8522
 30
0.0000
  0
VERTEX
  8
0
 10
2564.2319
 20
1829.3780
 30
0.0000
  0
VERTEX
  8
0
 10
2563.6829
 20
1829.8489
 30
0.0000
  0
VERTEX
  8
0
 10
2563.0365
 20
1830.2533
 30
0.0000
  0
VERTEX
  8
0
 10
2562.3086
 20
1830.5812
 30
0.0000
  0
VERTEX
  8
0
 10
2561.5172
 20
1830.8245
 30
0.0000
  0
VERTEX
  8
0
 10
2560.5869
 20
1830.9885
 30
0.0000
  0
VERTEX
  8
0
 10
2559.6306
 20
1831.0358
 30
0.0000
  0
VERTEX
  8
0
 10
2558.6771
 20
1830.9650
 30
0.0000
  0
VERTEX
  8
0
 10
2557.7555
 20
1830.7781
 30
0.0000
  0
VERTEX
  8
0
 10
2556.9765
 20
1830.5154
 30
0.0000
  0
VERTEX
  8
0
 10
2556.2653
 20
1830.1697
 30
0.0000
  0
VERTEX
  8
0
 10
2555.8375
 20
1829.8973
 30
0.0000
  0
SEQEND
  0
POLYLINE
  6
continous
  8
BYBLOCK
 70
0
 66
1
  0
VERTEX
  8
0
 10
2563.6156
 20
1824.3973
 30
0.0000
  0
VERTEX
  8
0
 10
2564.1761
 20
1824.8614
 30
0.0000
  0
VERTEX
  8
0
 10
2564.6271
 20
1825.3817
 30
0.0000
  0
VERTEX
  8
0
 10
2564.9574
 20
1825.9455
 30
0.0000
  0
VERTEX
  8
0
 10
2565.1588
 20
1826.5390
 30
0.0000
  0
VERTEX
  8
0
 10
2565.2257
 20
1827.0795
 30
0.0000
  0
VERTEX
  8
0
 10
2565.2265
 20
1827.1473
 30
0.0000
  0
SEQEND
  0
POLYLINE
  6
continous
  8
BYBLOCK
 70
0
 66
1
  0
VERTEX
  8
0
 10
2511.8001
 20
1797.1473
 30
0.0000
  0
VERTEX
  8
0
 10
2511.8537
 20
1796.6061
 30
0.0000
  0
VERTEX
  8
0
 10
2512.0405
 20
1796.0103
 30
0.0000
  0
VERTEX
  8
0
 10
2512.3568
 20
1795.4425
 30
0.0000
  0
VERTEX
  8
0
 10
2512.7948
 20
1794.9167
 30
0.0000
  0
VERTEX
  8
0
 10
2513.3438
 20
1794.4458
 30
0.0000
  0
VERTEX
  8
0
 10
2513.9902
 20
1794.0414
 30
0.0000
  0
VERTEX
  8
0
 10
2514.7180
 20
1793.7135
 30
0.0000
  0
VERTEX
  8
0
 10
2515.5095
 20
1793.4701
 30
0.0000
  0
VERTEX
  8
0
 10
2516.4398
 20
1793.3061
 30
0.0000
  0
VERTEX
  8
0
 10
2517.3961
 20
1793.2588
 30
0.0000
  0
VERTEX
  8
0
 10
2518.3496
 20
1793.3297
 30
0.0000
  0
VERTEX
  8
0
 10
2519.2712
 20
1793.5166
 30
0.0000
  0
VERTEX
  8
0
 10
2520.0501
 20
1793.7793
 30
0.0000
  0
VERTEX
  8
0
 10
2520.7614
 20
1794.1250
 30
0.0000
  0
VERTEX
  8
0
 10
2521.1892
 20
1794.3973
 30
0.0000
  0
SEQEND
  0
POLYLINE
  6
continous
  8
BYBLOCK
 70
0
 66
1
  0
VERTEX
  8
0
 10
2513.4111
 20
1799.8973
 30
0.0000
  0
VERTEX
  8
0
 10
2512.8505
 20
1799.4333
 30
0.0000
  0
VERTEX
  8
0
 10
2512.3996
 20
1798.9129
 30
0.0000
  0
VERTEX
  8
0
 10
2512.0693
 20
1798.3491
 30
0.0000
  0
VERTEX
  8
0
 10
2511.8679
 20
1797.7557
 30
0.0000
  0
VERTEX
  8
0
 10
2511.8010
 20
1797.2152
 30
0.0000
  0
VERTEX
  8
0
 10
2511.8001
 20
1797.1473
 30
0.0000
  0
SEQEND
  0
POLYLINE
  6
continous
  8
BYBLOCK
 70
0
 66
1
  0
VERTEX
  8
0
 10
2522.8001
 20
1797.1473
 30
0.0000
  0
VERTEX
  8
0
 10
2522.7466
 20
1797.6886
 30
0.0000
  0
VERTEX
  8
0
 10
2522.5598
 20
1798.2844
 30
0.0000
  0
VERTEX
  8
0
 10
2522.2435
 20
1798.8522
 30
0.0000
  0
VERTEX
  8
0
 10
2521.8055
 20
1799.3780
 30
0.0000
  0
VERTEX
  8
0
 10
2521.2565
 20
1799.8489
 30
0.0000
  0
VERTEX
  8
0
 10
2520.6101
 20
1800.2533
 30
0.0000
  0
VERTEX
  8
0
 10
2519.8822
 20
1800.5812
 30
0.0000
  0
VERTEX
  8
0
 10
2519.0908
 20
1800.8245
 30
0.0000
  0
VERTEX
  8
0
 10
2518.1605
 20
1800.9885
 30
0.0000
  0
VERTEX
  8
0
 10
2517.2042
 20
1801.0358
 30
0.0000
  0
VERTEX
  8
0
 10
2516.2507
 20
1800.9650
 30
0.0000
  0
VERTEX
  8
0
 10
2515.3291
 20
1800.7781
 30
0.0000
  0
VERTEX
  8
0
 10
2514.5501
 20
1800.5154
 30
0.0000
  0
VERTEX
  8
0
 10
2513.8389
 20
1800.1697
 30
0.0000
  0
VERTEX
  8
0
 10
2513.4111
 20
1799.8973
 30
0.0000
  0
SEQEND
  0
POLYLINE
  6
continous
  8
BYBLOCK
 70
0
 66
1
  0
VERTEX
  8
0
 10
2521.1892
 20
1794.3973
 30
0.0000
  0
VERTEX
  8
0
 10
2521.7497
 20
1794.8614
 30
0.0000
  0
VERTEX
  8
0
 10
2522.2007
 20
1795.3817
 30
0.0000
  0
VERTEX
  8
0
 10
2522.5310
 20
1795.9455
 30
0.0000
  0
VERTEX
  8
0
 10
2522.7324
 20
1796.5390
 30
0.0000
  0
VERTEX
  8
0
 10
2522.7993
 20
1797.0795
 30
0.0000
  0
VERTEX
  8
0
 10
2522.8001
 20
1797.1473
 30
0.0000
  0
SEQEND
  0
POLYLINE
  6
continous
  8
BYBLOCK
 70
0
 66
1
  0
VERTEX
  8
0
 10
2469.3737
 20
1767.1473
 30
0.0000
  0
VERTEX
  8
0
 10
2469.4273
 20
1766.6061
 30
0.0000
  0
VERTEX
  8
0
 10
2469.6141
 20
1766.0103
 30
0.0000
  0
VERTEX
  8
0
 10
2469.9304
 20
1765.4425
 30
0.0000
  0
VERTEX
  8
0
 10
2470.3684
 20
1764.9167
 30
0.0000
  0
VERTEX
  8
0
 10
2470.9174
 20
1764.4458
 30
0.0000
  0
VERTEX
  8
0
 10
2471.5638
 20
1764.0414
 30
0.0000
  0
VERTEX
  8
0
 10
2472.2916
 20
1763.7135
 30
0.0000
  0
VERTEX
  8
0
 10
2473.0831
 20
1763.4701
 30
0.0000
  0
VERTEX
  8
0
 10
2474.0133
 20
1763.3061
 30
0.0000
  0
VERTEX
  8
0
 10
2474.9697
 20
1763.2588
 30
0.0000
  0
VERTEX
  8
0
 10
2475.9232
 20
1763.3297
 30
0.0000
  0
VERTEX
  8
0
 10
2476.8448
 20
1763.5166
 30
0.0000
  0
VERTEX
  8
0
 10
2477.6237
 20
1763.7793
 30
0.0000
  0
VERTEX
  8
0
 10
2478.3350
 20
1764.1250
 30
0.0000
  0
VERTEX
  8
0
 10
2478.7628
 20
1764.3973
 30
0.0000
  0
SEQEND
  0
POLYLINE
  6
continous
  8
BYBLOCK
 70
0
 66
1
  0
VERTEX
  8
0
 10
2470.9846
 20
1769.8973
 30
0.0000
  0
VERTEX
  8
0
 10
2470.4241
 20
1769.4333
 30
0.0000
  0
VERTEX
  8
0
 10
2469.9732
 20
1768.9129
 30
0.0000
  0
VERTEX
  8
0
 10
2469.6429
 20
1768.3491
 30
0.0000
  0
VERTEX
  8
0
 10
2469.4414
 20
1767.7557
 30
0.0000
  0
VERTEX
  8
0
 10
2469.3746
 20
1767.2152
 30
0.0000
  0
VERTEX
  8
0
 10
2469.3737
 20
1767.1473
 30
0.0000
  0
SEQEND
  0
POLYLINE
  6
continous
  8
BYBLOCK
 70
0
 66
1
  0
VERTEX
  8
0
 10
2480.3737
 20
1767.1473
 30
0.0000
  0
VERTEX
  8
0
 10
2480.3202
 20
1767.6886
 30
0.0000
  0
VERTEX
  8
0
 10
2480.1334
 20
1768.2844
 30
0.0000
  0
VERTEX
  8
0
 10
2479.8171
 20
1768.8522
 30
0.0000
  0
VERTEX
  8
0
 10
2479.3791
 20
1769.3780
 30
0.0000
  0
VERTEX
  8
0
 10
2478.8301
 20
1769.8489
 30
0.0000
  0
VERTEX
  8
0
 10
2478.1837
 20
1770.2533
 30
0.0000
  0
VERTEX
  8
0
 10
2477.4558
 20
1770.5812
 30
0.0000
  0
VERTEX
  8
0
 10
2476.6644
 20
1770.8245
 30
0.0000
  0
VERTEX
  8
0
 10
2475.7341
 20
1770.9885
 30
0.0000
  0
VERTEX
  8
0
 10
2474.7777
 20
1771.0358
 30
0.0000
  0
VERTEX
  8
0
 10
2473.8243
 20
1770.9650
 30
0.0000
  0
VERTEX
  8
0
 10
2472.9027
 20
1770.7781
 30
0.0000
  0
VERTEX
  8
0
 10
2472.1237
 20
1770.5154
 30
0.0000
  0
VERTEX
  8
0
 10
2471.4125
 20
1770.1697
 30
0.0000
  0
VERTEX
  8
0
 10
2470.9846
 20
1769.8973
 30
0.0000
  0
SEQEND
  0
POLYLINE
  6
continous
  8
BYBLOCK
 70
0
 66
1
  0
VERTEX
  8
0
 10
2478.7628
 20
1764.3973
 30
0.0000
  0
VERTEX
  8
0
 10
2479.3233
 20
1764.8614
 30
0.0000
  0
VERTEX
  8
0
 10
2479.7743
 20
1765.3817
 30
0.0000
  0
VERTEX
  8
0
 10
2480.1045
 20
1765.9455
 30
0.0000
  0
VERTEX
  8
0
 10
2480.3060
 20
1766.5390
 30
0.0000
  0
VERTEX
  8
0
 10
2480.3729
 20
1767.0795
 30
0.0000
  0
VERTEX
  8
0
 10
2480.3737
 20
1767.1473
 30
0.0000
  0
SEQEND
  0
POLYLINE
  6
continous
  8
BYBLOCK
 70
0
 66
1
  0
VERTEX
  8
0
 10
2426.9473
 20
1737.1473
 30
0.0000
  0
VERTEX
  8
0
 10
2427.0009
 20
1736.6061
 30
0.0000
  0
VERTEX
  8
0
 10
2427.1877
 20
1736.0103
 30
0.0000
  0
VERTEX
  8
0
 10
2427.5040
 20
1735.4425
 30
0.0000
  0
VERTEX
  8
0
 10
2427.9420
 20
1734.9167
 30
0.0000
  0
VERTEX
  8
0
 10
2428.4910
 20
1734.4458
 30
0.0000
  0
VERTEX
  8
0
 10
2429.1373
 20
1734.0414
 30
0.0000
  0
VERTEX
  8
0
 10
2429.8652
 20
1733.7135
 30
0.0000
  0
VERTEX
  8
0
 10
2430.6567
 20
1733.4701
 30
0.0000
  0
VERTEX
  8
0
 10
2431.5869
 20
1733.3061
 30
0.0000
  0
VERTEX
  8
0
 10
2432.5433
 20
1733.2588
 30
0.0000
  0
VERTEX
  8
0
 10
2433.4968
 20
1733.3297
 30
0.0000
  0
VERTEX
  8
0
 10
2434.4184
 20
1733.5166
 30
0.0000
  0
VERTEX
  8
0
 10
2435.1973
 20
1733.7793
 30
0.0000
  0
VERTEX
  8
0
 10
2435.9086
 20
1734.1250
 30
0.0000
  0
VERTEX
  8
0
 10
2436.3364
 20
1734.3973
 30
0.0000
  0
SEQEND
  0
POLYLINE
  6
continous
  8
BYBLOCK
 70
0
 66
1
  0
VERTEX
  8
0
 10
2428.5582
 20
1739.8973
 30
0.0000
  0
VERTEX
  8
0
 10
2427.9977
 20
1739.4333
 30
0.0000
  0
VERTEX
  8
0
 10
2427.5468
 20
1738.9129
 30
0.0000
  0
VERTEX
  8
0
 10
2427.2165
 20
1738.3491
 30
0.0000
  0
VERTEX
  8
0
 10
2427.0150
 20
1737.7557
 30
0.0000
  0
VERTEX
  8
0
 10
2426.9482
 20
1737.2152
 30
0.0000
  0
VERTEX
  8
0
 10
2426.9473
 20
1737.1473
 30
0.0000
  0
SEQEND
  0
POLYLINE
  6
continous
  8
BYBLOCK
 70
0
 66
1
  0
VERTEX
  8
0
 10
2437.9473
 20
1737.1473
 30
0.0000
  0
VERTEX
  8
0
 10
2437.8938
 20
1737.6886
 30
0.0000
  0
VERTEX
  8
0
 10
2437.7070
 20
1738.2844
 30
0.0000
  0
VERTEX
  8
0
 10
2437.3907
 20
1738.8522
 30
0.0000
  0
VERTEX
  8
0
 10
2436.9527
 20
1739.3780
 30
0.0000
  0
VERTEX
  8
0
 10
2436.4037
 20
1739.8489
 30
0.0000
  0
VERTEX
  8
0
 10
2435.7573
 20
1740.2533
 30
0.0000
  0
VERTEX
  8
0
 10
2435.0294
 20
1740.5812
 30
0.0000
  0
VERTEX
  8
0
 10
2434.2380
 20
1740.8245
 30
0.0000
  0
VERTEX
  8
0
 10
2433.3077
 20
1740.9885
 30
0.0000
  0
VERTEX
  8
0
 10
2432.3513
 20
1741.0358
 30
0.0000
  0
VERTEX
  8
0
 10
2431.3979
 20
1740.9650
 30
0.0000
  0
VERTEX
  8
0
 10
2430.4763
 20
1740.7781
 30
0.0000
  0
VERTEX
  8
0
 10
2429.6973
 20
1740.5154
 30
0.0000
  0
VERTEX
  8
0
 10
2428.9861
 20
1740.1697
 30
0.0000
  0
VERTEX
  8
0
 10
2428.5582
 20
1739.8973
 30
0.0000
  0
SEQEND
  0
POLYLINE
  6
continous
  8
BYBLOCK
 70
0
 66
1
  0
VERTEX
  8
0
 10
2436.3364
 20
1734.3973
 30
0.0000
  0
VERTEX
  8
0
 10
2436.8969
 20
1734.8614
 30
0.0000
  0
VERTEX
  8
0
 10
2437.3479
 20
1735.3817
 30
0.0000
  0
VERTEX
  8
0
 10
2437.6781
 20
1735.9455
 30
0.0000
  0
VERTEX
  8
0
 10
2437.8796
 20
1736.5390
 30
0.0000
  0
VERTEX
  8
0
 10
2437.9465
 20
1737.0795
 30
0.0000
  0
VERTEX
  8
0
 10
2437.9473
 20
1737.1473
 30
0.0000
  0
SEQEND
  0
POLYLINE
  6
continous
  8
BYBLOCK
 70
0
 66
1
  0
VERTEX
  8
0
 10
2384.5209
 20
1707.1473
 30
0.0000
  0
VERTEX
  8
0
 10
2384.5744
 20
1706.6061
 30
0.0000
  0
VERTEX
  8
0
 10
2384.7612
 20
1706.0103
 30
0.0000
  0
VERTEX
  8
0
 10
2385.0776
 20
1705.4425
 30
0.0000
  0
VERTEX
  8
0
 10
2385.5156
 20
1704.9167
 30
0.0000
  0
VERTEX
  8
0
 10
2386.0646
 20
1704.4458
 30
0.0000
  0
VERTEX
  8
0
 10
2386.7109
 20
1704.0414
 30
0.0000
  0
VERTEX
  8
0
 10
2387.4388
 20
1703.7135
 30
0.0000
  0
VERTEX
  8
0
 10
2388.2303
 20
1703.4701
 30
0.0000
  0
VERTEX
  8
0
 10
2389.1605
 20
1703.3061
 30
0.0000
  0
VERTEX
  8
0
 10
2390.1169
 20
1703.2588
 30
0.0000
  0
VERTEX
  8
0
 10
2391.0704
 20
1703.3297
 30
0.0000
  0
VERTEX
  8
0
 10
2391.9919
 20
1703.5166
 30
0.0000
  0
VERTEX
  8
0
 10
2392.7709
 20
1703.7793
 30
0.0000
  0
VERTEX
  8
0
 10
2393.4822
 20
1704.1250
 30
0.0000
  0
VERTEX
  8
0
 10
2393.9100
 20
1704.3973
 30
0.0000
  0
SEQEND
  0
POLYLINE
  6
continous
  8
BYBLOCK
 70
0
 66
1
  0
VERTEX
  8
0
 10
2386.1318
 20
1709.8973
 30
0.0000
  0
VERTEX
  8
0
 10
2385.5713
 20
1709.4333
 30
0.0000
  0
VERTEX
  8
0
 10
2385.1204
 20
1708.9129
 30
0.0000
  0
VERTEX
  8
0
 10
2384.7901
 20
1708.3491
 30
0.0000
  0
VERTEX
  8
0
 10
2384.5886
 20
1707.7557
 30
0.0000
  0
VERTEX
  8
0
 10
2384.5218
 20
1707.2152
 30
0.0000
  0
VERTEX
  8
0
 10
2384.5209
 20
1707.1473
 30
0.0000
  0
SEQEND
  0
POLYLINE
  6
continous
  8
BYBLOCK
 70
0
 66
1
  0
VERTEX
  8
0
 10
2395.5209
 20
1707.1473
 30
0.0000
  0
VERTEX
  8
0
 10
2395.4674
 20
1707.6886
 30
0.0000
  0
VERTEX
  8
0
 10
2395.2806
 20
1708.2844
 30
0.0000
  0
VERTEX
  8
0
 10
2394.9643
 20
1708.8522
 30
0.0000
  0
VERTEX
  8
0
 10
2394.5263
 20
1709.3780
 30
0.0000
  0
VERTEX
  8
0
 10
2393.9773
 20
1709.8489
 30
0.0000
  0
VERTEX
  8
0
 10
2393.3309
 20
1710.2533
 30
0.0000
  0
VERTEX
  8
0
 10
2392.6030
 20
1710.5812
 30
0.0000
  0
VERTEX
  8
0
 10
2391.8115
 20
1710.8245
 30
0.0000
  0
VERTEX
  8
0
 10
2390.8813
 20
1710.9885
 30
0.0000
  0
VERTEX
  8
0
 10
2389.9249
 20
1711.0358
 30
0.0000
  0
VERTEX
  8
0
 10
2388.9715
 20
1710.9650
 30
0.0000
  0
VERTEX
  8
0
 10
2388.0499
 20
1710.7781
 30
0.0000
  0
VERTEX
  8
0
 10
2387.2709
 20
1710.5154
 30
0.0000
  0
VERTEX
  8
0
 10
2386.5597
 20
1710.1697
 30
0.0000
  0
VERTEX
  8
0
 10
2386.1318
 20
1709.8973
 30
0.0000
  0
SEQEND
  0
POLYLINE
  6
continous
  8
BYBLOCK
 70
0
 66
1
  0
VERTEX
  8
0
 10
2393.9100
 20
1704.3973
 30
0.0000
  0
VERTEX
  8
0
 10
2394.4705
 20
1704.8614
 30
0.0000
  0
VERTEX
  8
0
 10
2394.9215
 20
1705.3817
 30
0.0000
  0
VERTEX
  8
0
 10
2395.2517
 20
1705.9455
 30
0.0000
  0
VERTEX
  8
0
 10
2395.4532
 20
1706.5390
 30
0.0000
  0
VERTEX
  8
0
 10
2395.5201
 20
1707.0795
 30
0.0000
  0
VERTEX
  8
0
 10
2395.5209
 20
1707.1473
 30
0.0000
  0
SEQEND
  0
POLYLINE
  6
continous
  8
BYBLOCK
 70
0
 66
1
  0
VERTEX
  8
0
 10
2342.0945
 20
1677.1473
 30
0.0000
  0
VERTEX
  8
0
 10
2342.1480
 20
1676.6061
 30
0.0000
  0
VERTEX
  8
0
 10
2342.3348
 20
1676.0103
 30
0.0000
  0
VERTEX
  8
0
 10
2342.6511
 20
1675.4425
 30
0.0000
  0
VERTEX
  8
0
 10
2343.0892
 20
1674.9167
 30
0.0000
  0
VERTEX
  8
0
 10
2343.6381
 20
1674.4458
 30
0.0000
  0
VERTEX
  8
0
 10
2344.2845
 20
1674.0414
 30
0.0000
  0
VERTEX
  8
0
 10
2345.0124
 20
1673.7135
 30
0.0000
  0
VERTEX
  8
0
 10
2345.8039
 20
1673.4701
 30
0.0000
  0
VERTEX
  8
0
 10
2346.7341
 20
1673.3061
 30
0.0000
  0
VERTEX
  8
0
 10
2347.6905
 20
1673.2588
 30
0.0000
  0
VERTEX
  8
0
 10
2348.6440
 20
1673.3297
 30
0.0000
  0
VERTEX
  8
0
 10
2349.5655
 20
1673.5166
 30
0.0000
  0
VERTEX
  8
0
 10
2350.3445
 20
1673.7793
 30
0.0000
  0
VERTEX
  8
0
 10
2351.0558
 20
1674.1250
 30
0.0000
  0
VERTEX
  8
0
 10
2351.4836
 20
1674.3973
 30
0.0000
  0
SEQEND
  0
POLYLINE
  6
continous
  8
BYBLOCK
 70
0
 66
1
  0
VERTEX
  8
0
 10
2343.7054
 20
1679.8973
 30
0.0000
  0
VERTEX
  8
0
 10
2343.1449
 20
1679.4333
 30
0.0000
  0
VERTEX
  8
0
 10
2342.6940
 20
1678.9129
 30
0.0000
  0
VERTEX
  8
0
 10
2342.3637
 20
1678.3491
 30
0.0000
  0
VERTEX
  8
0
 10
2342.1622
 20
1677.7557
 30
0.0000
  0
VERTEX
  8
0
 10
2342.0954
 20
1677.2152
 30
0.0000
  0
VERTEX
  8
0
 10
2342.0945
 20
1677.1473
 30
0.0000
  0
SEQEND
  0
POLYLINE
  6
continous
  8
BYBLOCK
 70
0
 66
1
  0
VERTEX
  8
0
 10
2353.0945
 20
1677.1473
 30
0.0000
  0
VERTEX
  8
0
 10
2353.0410
 20
1677.6886
 30
0.0000
  0
VERTEX
  8
0
 10
2352.8542
 20
1678.2844
 30
0.0000
  0
VERTEX
  8
0
 10
2352.5379
 20
1678.8522
 30
0.0000
  0
VERTEX
  8
0
 10
2352.0998
 20
1679.3780
 30
0.0000
  0
VERTEX
  8
0
 10
2351.5509
 20
1679.8489
 30
0.0000
  0
VERTEX
  8
0
 10
2350.9045
 20
1680.2533
 30
0.0000
  0
VERTEX
  8
0
 10
2350.1766
 20
1680.5812
 30
0.0000
  0
VERTEX
  8
0
 10
2349.3851
 20
1680.8245
 30
0.0000
  0
VERTEX
  8
0
 10
2348.4549
 20
1680.9885
 30
0.0000
  0
VERTEX
  8
0
 10
2347.4985
 20
1681.0358
 30
0.0000
  0
VERTEX
  8
0
 10
2346.5451
 20
1680.9650
 30
0.0000
  0
VERTEX
  8
0
 10
2345.6235
 20
1680.7781
 30
0.0000
  0
VERTEX
  8
0
 10
2344.8445
 20
1680.5154
 30
0.0000
  0
VERTEX
  8
0
 10
2344.1333
 20
1680.1697
 30
0.0000
  0
VERTEX
  8
0
 10
2343.7054
 20
1679.8973
 30
0.0000
  0
SEQEND
  0
POLYLINE
  6
continous
  8
BYBLOCK
 70
0
 66
1
  0
VERTEX
  8
0
 10
2351.4836
 20
1674.3973
 30
0.0000
  0
VERTEX
  8
0
 10
2352.0441
 20
1674.8614
 30
0.0000
  0
VERTEX
  8
0
 10
2352.4950
 20
1675.3817
 30
0.0000
  0
VERTEX
  8
0
 10
2352.8253
 20
1675.9455
 30
0.0000
  0
VERTEX
  8
0
 10
2353.0268
 20
1676.5390
 30
0.0000
  0
VERTEX
  8
0
 10
2353.0937
 20
1677.0795
 30
0.0000
  0
VERTEX
  8
0
 10
2353.0945
 20
1677.1473
 30
0.0000
  0
SEQEND
  0
POLYLINE
  6
continous
  8
BYBLOCK
 70
0
 66
1
  0
VERTEX
  8
0
 10
2299.6681
 20
1647.1473
 30
0.0000
  0
VERTEX
  8
0
 10
2299.7216
 20
1646.6061
 30
0.0000
  0
VERTEX
  8
0
 10
2299.9084
 20
1646.0103
 30
0.0000
  0
VERTEX
  8
0
 10
2300.2247
 20
1645.4425
 30
0.0000
  0
VERTEX
  8
0
 10
2300.6628
 20
1644.9167
 30
0.0000
  0
VERTEX
  8
0
 10
2301.2117
 20
1644.4458
 30
0.0000
  0
VERTEX
  8
0
 10
2301.8581
 20
1644.0414
 30
0.0000
  0
VERTEX
  8
0
 10
2302.5860
 20
1643.7135
 30
0.0000
  0
VERTEX
  8
0
 10
2303.3775
 20
1643.4701
 30
0.0000
  0
VERTEX
  8
0
 10
2304.3077
 20
1643.3061
 30
0.0000
  0
VERTEX
  8
0
 10
2305.2641
 20
1643.2588
 30
0.0000
  0
VERTEX
  8
0
 10
2306.2176
 20
1643.3297
 30
0.0000
  0
VERTEX
  8
0
 10
2307.1391
 20
1643.5166
 30
0.0000
  0
VERTEX
  8
0
 10
2307.9181
 20
1643.7793
 30
0.0000
  0
VERTEX
  8
0
 10
2308.6294
 20
1644.1250
 30
0.0000
  0
VERTEX
  8
0
 10
2309.0572
 20
1644.3973
 30
0.0000
  0
SEQEND
  0
POLYLINE
  6
continous
  8
BYBLOCK
 70
0
 66
1
  0
VERTEX
  8
0
 10
2301.2790
 20
1649.8973
 30
0.0000
  0
VERTEX
  8
0
 10
2300.7185
 20
1649.4333
 30
0.0000
  0
VERTEX
  8
0
 10
2300.2676
 20
1648.9129
 30
0.0000
  0
VERTEX
  8
0
 10
2299.9373
 20
1648.3491
 30
0.0000
  0
VERTEX
  8
0
 10
2299.7358
 20
1647.7557
 30
0.0000
  0
VERTEX
  8
0
 10
2299.6689
 20
1647.2152
 30
0.0000
  0
VERTEX
  8
0
 10
2299.6681
 20
1647.1473
 30
0.0000
  0
SEQEND
  0
POLYLINE
  6
continous
  8
BYBLOCK
 70
0
 66
1
  0
VERTEX
  8
0
 10
2310.6681
 20
1647.1473
 30
0.0000
  0
VERTEX
  8
0
 10
2310.6146
 20
1647.6886
 30
0.0000
  0
VERTEX
  8
0
 10
2310.4278
 20
1648.2844
 30
0.0000
  0
VERTEX
  8
0
 10
2310.1115
 20
1648.8522
 30
0.0000
  0
VERTEX
  8
0
 10
2309.6734
 20
1649.3780
 30
0.0000
  0
VERTEX
  8
0
 10
2309.1245
 20
1649.8489
 30
0.0000
  0
VERTEX
  8
0
 10
2308.4781
 20
1650.2533
 30
0.0000
  0
VERTEX
  8
0
 10
2307.7502
 20
1650.5812
 30
0.0000
  0
VERTEX
  8
0
 10
2306.9587
 20
1650.8245
 30
0.0000
  0
VERTEX
  8
0
 10
2306.0285
 20
1650.9885
 30
0.0000
  0
VERTEX
  8
0
 10
2305.0721
 20
1651.0358
 30
0.0000
  0
VERTEX
  8
0
 10
2304.1187
 20
1650.9650
 30
0.0000
  0
VERTEX
  8
0
 10
2303.1971
 20
1650.7781
 30
0.0000
  0
VERTEX
  8
0
 10
2302.4181
 20
1650.5154
 30
0.0000
  0
VERTEX
  8
0
 10
2301.7068
 20
1650.1697
 30
0.0000
  0
VERTEX
  8
0
 10
2301.2790
 20
1649.8973
 30
0.0000
  0
SEQEND
  0
POLYLINE
  6
continous
  8
BYBLOCK
 70
0
 66
1
  0
VERTEX
  8
0
 10
2309.0572
 20
1644.3973
 30
0.0000
  0
VERTEX
  8
0
 10
2309.6177
 20
1644.8614
 30
0.0000
  0
VERTEX
  8
0
 10
2310.0686
 20
1645.3817
 30
0.0000
  0
VERTEX
  8
0
 10
2310.3989
 20
1645.9455
 30
0.0000
  0
VERTEX
  8
0
 10
2310.6004
 20
1646.5390
 30
0.0000
  0
VERTEX
  8
0
 10
2310.6673
 20
1647.0795
 30
0.0000
  0
VERTEX
  8
0
 10
2310.6681
 20
1647.1473
 30
0.0000
  0
SEQEND
  0
POLYLINE
  6
continous
  8
BYBLOCK
 70
0
 66
1
  0
VERTEX
  8
0
 10
2257.2417
 20
1617.1473
 30
0.0000
  0
VERTEX
  8
0
 10
2257.2952
 20
1616.6061
 30
0.0000
  0
VERTEX
  8
0
 10
2257.4820
 20
1616.0103
 30
0.0000
  0
VERTEX
  8
0
 10
2257.7983
 20
1615.4425
 30
0.0000
  0
VERTEX
  8
0
 10
2258.2364
 20
1614.9167
 30
0.0000
  0
VERTEX
  8
0
 10
2258.7853
 20
1614.4458
 30
0.0000
  0
VERTEX
  8
0
 10
2259.4317
 20
1614.0414
 30
0.0000
  0
VERTEX
  8
0
 10
2260.1596
 20
1613.7135
 30
0.0000
  0
VERTEX
  8
0
 10
2260.9511
 20
1613.4701
 30
0.0000
  0
VERTEX
  8
0
 10
2261.8813
 20
1613.3061
 30
0.0000
  0
VERTEX
  8
0
 10
2262.8377
 20
1613.2588
 30
0.0000
  0
VERTEX
  8
0
 10
2263.7911
 20
1613.3297
 30
0.0000
  0
VERTEX
  8
0
 10
2264.7127
 20
1613.5166
 30
0.0000
  0
VERTEX
  8
0
 10
2265.4917
 20
1613.7793
 30
0.0000
  0
VERTEX
  8
0
 10
2266.2030
 20
1614.1250
 30
0.0000
  0
VERTEX
  8
0
 10
2266.6308
 20
1614.3973
 30
0.0000
  0
SEQEND
  0
POLYLINE
  6
continous
  8
BYBLOCK
 70
0
 66
1
  0
VERTEX
  8
0
 10
2258.8526
 20
1619.8973
 30
0.0000
  0
VERTEX
  8
0
 10
2258.2921
 20
1619.4333
 30
0.0000
  0
VERTEX
  8
0
 10
2257.8412
 20
1618.9129
 30
0.0000
  0
VERTEX
  8
0
 10
2257.5109
 20
1618.3491
 30
0.0000
  0
VERTEX
  8
0
 10
2257.3094
 20
1617.7557
 30
0.0000
  0
VERTEX
  8
0
 10
2257.2425
 20
1617.2152
 30
0.0000
  0
VERTEX
  8
0
 10
2257.2417
 20
1617.1473
 30
0.0000
  0
SEQEND
  0
POLYLINE
  6
continous
  8
BYBLOCK
 70
0
 66
1
  0
VERTEX
  8
0
 10
2268.2417
 20
1617.1473
 30
0.0000
  0
VERTEX
  8
0
 10
2268.1882
 20
1617.6886
 30
0.0000
  0
VERTEX
  8
0
 10
2268.0014
 20
1618.2844
 30
0.0000
  0
VERTEX
  8
0
 10
2267.6851
 20
1618.8522
 30
0.0000
  0
VERTEX
  8
0
 10
2267.2470
 20
1619.3780
 30
0.0000
  0
VERTEX
  8
0
 10
2266.6981
 20
1619.8489
 30
0.0000
  0
VERTEX
  8
0
 10
2266.0517
 20
1620.2533
 30
0.0000
  0
VERTEX
  8
0
 10
2265.3238
 20
1620.5812
 30
0.0000
  0
VERTEX
  8
0
 10
2264.5323
 20
1620.8245
 30
0.0000
  0
VERTEX
  8
0
 10
2263.6021
 20
1620.9885
 30
0.0000
  0
VERTEX
  8
0
 10
2262.6457
 20
1621.0358
 30
0.0000
  0
VERTEX
  8
0
 10
2261.6923
 20
1620.9650
 30
0.0000
  0
VERTEX
  8
0
 10
2260.7707
 20
1620.7781
 30
0.0000
  0
VERTEX
  8
0
 10
2259.9917
 20
1620.5154
 30
0.0000
  0
VERTEX
  8
0
 10
2259.2804
 20
1620.1697
 30
0.0000
  0
VERTEX
  8
0
 10
2258.8526
 20
1619.8973
 30
0.0000
  0
SEQEND
  0
POLYLINE
  6
continous
  8
BYBLOCK
 70
0
 66
1
  0
VERTEX
  8
0
 10
2266.6308
 20
1614.3973
 30
0.0000
  0
VERTEX
  8
0
 10
2267.1913
 20
1614.8614
 30
0.0000
  0
VERTEX
  8
0
 10
2267.6422
 20
1615.3817
 30
0.0000
  0
VERTEX
  8
0
 10
2267.9725
 20
1615.9455
 30
0.0000
  0
VERTEX
  8
0
 10
2268.1740
 20
1616.5390
 30
0.0000
  0
VERTEX
  8
0
 10
2268.2409
 20
1617.0795
 30
0.0000
  0
VERTEX
  8
0
 10
2268.2417
 20
1617.1473
 30
0.0000
  0
SEQEND
  0
POLYLINE
  6
continous
  8
BYBLOCK
 70
0
 66
1
  0
VERTEX
  8
0
 10
2214.8153
 20
1587.1473
 30
0.0000
  0
VERTEX
  8
0
 10
2214.8688
 20
1586.6061
 30
0.0000
  0
VERTEX
  8
0
 10
2215.0556
 20
1586.0103
 30
0.0000
  0
VERTEX
  8
0
 10
2215.3719
 20
1585.4425
 30
0.0000
  0
VERTEX
  8
0
 10
2215.8100
 20
1584.9167
 30
0.0000
  0
VERTEX
  8
0
 10
2216.3589
 20
1584.4458
 30
0.0000
  0
VERTEX
  8
0
 10
2217.0053
 20
1584.0414
 30
0.0000
  0
VERTEX
  8
0
 10
2217.7332
 20
1583.7135
 30
0.0000
  0
VERTEX
  8
0
 10
2218.5247
 20
1583.4701
 30
0.0000
  0
VERTEX
  8
0
 10
2219.4549
 20
1583.3061
 30
0.0000
  0
VERTEX
  8
0
 10
2220.4113
 20
1583.2588
 30
0.0000
  0
VERTEX
  8
0
 10
2221.3647
 20
1583.3297
 30
0.0000
  0
VERTEX
  8
0
 10
2222.2863
 20
1583.5166
 30
0.0000
  0
VERTEX
  8
0
 10
2223.0653
 20
1583.7793
 30
0.0000
  0
VERTEX
  8
0
 10
2223.7766
 20
1584.1250
 30
0.0000
  0
VERTEX
  8
0
 10
2224.2044
 20
1584.3973
 30
0.0000
  0
SEQEND
  0
POLYLINE
  6
continous
  8
BYBLOCK
 70
0
 66
1
  0
VERTEX
  8
0
 10
2216.4262
 20
1589.8973
 30
0.0000
  0
VERTEX
  8
0
 10
2215.8657
 20
1589.4333
 30
0.0000
  0
VERTEX
  8
0
 10
2215.4148
 20
1588.9129
 30
0.0000
  0
VERTEX
  8
0
 10
2215.0845
 20
1588.3491
 30
0.0000
  0
VERTEX
  8
0
 10
2214.8830
 20
1587.7557
 30
0.0000
  0
VERTEX
  8
0
 10
2214.8161
 20
1587.2152
 30
0.0000
  0
VERTEX
  8
0
 10
2214.8153
 20
1587.1473
 30
0.0000
  0
SEQEND
  0
POLYLINE
  6
continous
  8
BYBLOCK
 70
0
 66
1
  0
VERTEX
  8
0
 10
2225.8153
 20
1587.1473
 30
0.0000
  0
VERTEX
  8
0
 10
2225.7618
 20
1587.6886
 30
0.0000
  0
VERTEX
  8
0
 10
2225.5750
 20
1588.2844
 30
0.0000
  0
VERTEX
  8
0
 10
2225.2587
 20
1588.8522
 30
0.0000
  0
VERTEX
  8
0
 10
2224.8206
 20
1589.3780
 30
0.0000
  0
VERTEX
  8
0
 10
2224.2717
 20
1589.8489
 30
0.0000
  0
VERTEX
  8
0
 10
2223.6253
 20
1590.2533
 30
0.0000
  0
VERTEX
  8
0
 10
2222.8974
 20
1590.5812
 30
0.0000
  0
VERTEX
  8
0
 10
2222.1059
 20
1590.8245
 30
0.0000
  0
VERTEX
  8
0
 10
2221.1757
 20
1590.9885
 30
0.0000
  0
VERTEX
  8
0
 10
2220.2193
 20
1591.0358
 30
0.0000
  0
VERTEX
  8
0
 10
2219.2658
 20
1590.9650
 30
0.0000
  0
VERTEX
  8
0
 10
2218.3443
 20
1590.7781
 30
0.0000
  0
VERTEX
  8
0
 10
2217.5653
 20
1590.5154
 30
0.0000
  0
VERTEX
  8
0
 10
2216.8540
 20
1590.1697
 30
0.0000
  0
VERTEX
  8
0
 10
2216.4262
 20
1589.8973
 30
0.0000
  0
SEQEND
  0
POLYLINE
  6
continous
  8
BYBLOCK
 70
0
 66
1
  0
VERTEX
  8
0
 10
2224.2044
 20
1584.3973
 30
0.0000
  0
VERTEX
  8
0
 10
2224.7649
 20
1584.8614
 30
0.0000
  0
VERTEX
  8
0
 10
2225.2158
 20
1585.3817
 30
0.0000
  0
VERTEX
  8
0
 10
2225.5461
 20
1585.9455
 30
0.0000
  0
VERTEX
  8
0
 10
2225.7476
 20
1586.5390
 30
0.0000
  0
VERTEX
  8
0
 10
2225.8145
 20
1587.0795
 30
0.0000
  0
VERTEX
  8
0
 10
2225.8153
 20
1587.1473
 30
0.0000
  0
SEQEND
  0
POLYLINE
  6
continous
  8
BYBLOCK
 70
0
 66
1
  0
VERTEX
  8
0
 10
2172.3889
 20
1557.1473
 30
0.0000
  0
VERTEX
  8
0
 10
2172.4424
 20
1556.6061
 30
0.0000
  0
VERTEX
  8
0
 10
2172.6292
 20
1556.0103
 30
0.0000
  0
VERTEX
  8
0
 10
2172.9455
 20
1555.4425
 30
0.0000
  0
VERTEX
  8
0
 10
2173.3835
 20
1554.9167
 30
0.0000
  0
VERTEX
  8
0
 10
2173.9325
 20
1554.4458
 30
0.0000
  0
VERTEX
  8
0
 10
2174.5789
 20
1554.0414
 30
0.0000
  0
VERTEX
  8
0
 10
2175.3068
 20
1553.7135
 30
0.0000
  0
VERTEX
  8
0
 10
2176.0983
 20
1553.4701
 30
0.0000
  0
VERTEX
  8
0
 10
2177.0285
 20
1553.3061
 30
0.0000
  0
VERTEX
  8
0
 10
2177.9849
 20
1553.2588
 30
0.0000
  0
VERTEX
  8
0
 10
2178.9383
 20
1553.3297
 30
0.0000
  0
VERTEX
  8
0
 10
2179.8599
 20
1553.5166
 30
0.0000
  0
VERTEX
  8
0
 10
2180.6389
 20
1553.7793
 30
0.0000
  0
VERTEX
  8
0
 10
2181.3501
 20
1554.1250
 30
0.0000
  0
VERTEX
  8
0
 10
2181.7780
 20
1554.3973
 30
0.0000
  0
SEQEND
  0
POLYLINE
  6
continous
  8
BYBLOCK
 70
0
 66
1
  0
VERTEX
  8
0
 10
2173.9998
 20
1559.8973
 30
0.0000
  0
VERTEX
  8
0
 10
2173.4393
 20
1559.4333
 30
0.0000
  0
VERTEX
  8
0
 10
2172.9884
 20
1558.9129
 30
0.0000
  0
VERTEX
  8
0
 10
2172.6581
 20
1558.3491
 30
0.0000
  0
VERTEX
  8
0
 10
2172.4566
 20
1557.7557
 30
0.0000
  0
VERTEX
  8
0
 10
2172.3897
 20
1557.2152
 30
0.0000
  0
VERTEX
  8
0
 10
2172.3889
 20
1557.1473
 30
0.0000
  0
SEQEND
  0
POLYLINE
  6
continous
  8
BYBLOCK
 70
0
 66
1
  0
VERTEX
  8
0
 10
2183.3889
 20
1557.1473
 30
0.0000
  0
VERTEX
  8
0
 10
2183.3354
 20
1557.6886
 30
0.0000
  0
VERTEX
  8
0
 10
2183.1486
 20
1558.2844
 30
0.0000
  0
VERTEX
  8
0
 10
2182.8323
 20
1558.8522
 30
0.0000
  0
VERTEX
  8
0
 10
2182.3942
 20
1559.3780
 30
0.0000
  0
VERTEX
  8
0
 10
2181.8453
 20
1559.8489
 30
0.0000
  0
VERTEX
  8
0
 10
2181.1989
 20
1560.2533
 30
0.0000
  0
VERTEX
  8
0
 10
2180.4710
 20
1560.5812
 30
0.0000
  0
VERTEX
  8
0
 10
2179.6795
 20
1560.8245
 30
0.0000
  0
VERTEX
  8
0
 10
2178.7493
 20
1560.9885
 30
0.0000
  0
VERTEX
  8
0
 10
2177.7929
 20
1561.0358
 30
0.0000
  0
VERTEX
  8
0
 10
2176.8394
 20
1560.9650
 30
0.0000
  0
VERTEX
  8
0
 10
2175.9179
 20
1560.7781
 30
0.0000
  0
VERTEX
  8
0
 10
2175.1389
 20
1560.5154
 30
0.0000
  0
VERTEX
  8
0
 10
2174.4276
 20
1560.1697
 30
0.0000
  0
VERTEX
  8
0
 10
2173.9998
 20
1559.8973
 30
0.0000
  0
SEQEND
  0
POLYLINE
  6
continous
  8
BYBLOCK
 70
0
 66
1
  0
VERTEX
  8
0
 10
2181.7780
 20
1554.3973
 30
0.0000
  0
VERTEX
  8
0
 10
2182.3385
 20
1554.8614
 30
0.0000
  0
VERTEX
  8
0
 10
2182.7894
 20
1555.3817
 30
0.0000
  0
VERTEX
  8
0
 10
2183.1197
 20
1555.9455
 30
0.0000
  0
VERTEX
  8
0
 10
2183.3212
 20
1556.5390
 30
0.0000
  0
VERTEX
  8
0
 10
2183.3880
 20
1557.0795
 30
0.0000
  0
VERTEX
  8
0
 10
2183.3889
 20
1557.1473
 30
0.0000
  0
SEQEND
  0
POLYLINE
  6
continous
  8
BYBLOCK
 70
0
 66
1
  0
VERTEX
  8
0
 10
2129.9625
 20
1527.1473
 30
0.0000
  0
VERTEX
  8
0
 10
2130.0160
 20
1526.6061
 30
0.0000
  0
VERTEX
  8
0
 10
2130.2028
 20
1526.0103
 30
0.0000
  0
VERTEX
  8
0
 10
2130.5191
 20
1525.4425
 30
0.0000
  0
VERTEX
  8
0
 10
2130.9571
 20
1524.9167
 30
0.0000
  0
VERTEX
  8
0
 10
2131.5061
 20
1524.4458
 30
0.0000
  0
VERTEX
  8
0
 10
2132.1525
 20
1524.0414
 30
0.0000
  0
VERTEX
  8
0
 10
2132.8804
 20
1523.7135
 30
0.0000
  0
VERTEX
  8
0
 10
2133.6719
 20
1523.4701
 30
0.0000
  0
VERTEX
  8
0
 10
2134.6021
 20
1523.3061
 30
0.0000
  0
VERTEX
  8
0
 10
2135.5585
 20
1523.2588
 30
0.0000
  0
VERTEX
  8
0
 10
2136.5119
 20
1523.3297
 30
0.0000
  0
VERTEX
  8
0
 10
2137.4335
 20
1523.5166
 30
0.0000
  0
VERTEX
  8
0
 10
2138.2125
 20
1523.7793
 30
0.0000
  0
VERTEX
  8
0
 10
2138.9237
 20
1524.1250
 30
0.0000
  0
VERTEX
  8
0
 10
2139.3516
 20
1524.3973
 30
0.0000
  0
SEQEND
  0
POLYLINE
  6
continous
  8
BYBLOCK
 70
0
 66
1
  0
VERTEX
  8
0
 10
2131.5734
 20
1529.8973
 30
0.0000
  0
VERTEX
  8
0
 10
2131.0129
 20
1529.4333
 30
0.0000
  0
VERTEX
  8
0
 10
2130.5619
 20
1528.9129
 30
0.0000
  0
VERTEX
  8
0
 10
2130.2317
 20
1528.3491
 30
0.0000
  0
VERTEX
  8
0
 10
2130.0302
 20
1527.7557
 30
0.0000
  0
VERTEX
  8
0
 10
2129.9633
 20
1527.2152
 30
0.0000
  0
VERTEX
  8
0
 10
2129.9625
 20
1527.1473
 30
0.0000
  0
SEQEND
  0
POLYLINE
  6
continous
  8
BYBLOCK
 70
0
 66
1
  0
VERTEX
  8
0
 10
2140.9625
 20
1527.1473
 30
0.0000
  0
VERTEX
  8
0
 10
2140.9090
 20
1527.6886
 30
0.0000
  0
VERTEX
  8
0
 10
2140.7222
 20
1528.2844
 30
0.0000
  0
VERTEX
  8
0
 10
2140.4058
 20
1528.8522
 30
0.0000
  0
VERTEX
  8
0
 10
2139.9678
 20
1529.3780
 30
0.0000
  0
VERTEX
  8
0
 10
2139.4188
 20
1529.8489
 30
0.0000
  0
VERTEX
  8
0
 10
2138.7725
 20
1530.2533
 30
0.0000
  0
VERTEX
  8
0
 10
2138.0446
 20
1530.5812
 30
0.0000
  0
VERTEX
  8
0
 10
2137.2531
 20
1530.8245
 30
0.0000
  0
VERTEX
  8
0
 10
2136.3229
 20
1530.9885
 30
0.0000
  0
VERTEX
  8
0
 10
2135.3665
 20
1531.0358
 30
0.0000
  0
VERTEX
  8
0
 10
2134.4130
 20
1530.9650
 30
0.0000
  0
VERTEX
  8
0
 10
2133.4915
 20
1530.7781
 30
0.0000
  0
VERTEX
  8
0
 10
2132.7125
 20
1530.5154
 30
0.0000
  0
VERTEX
  8
0
 10
2132.0012
 20
1530.1697
 30
0.0000
  0
VERTEX
  8
0
 10
2131.5734
 20
1529.8973
 30
0.0000
  0
SEQEND
  0
POLYLINE
  6
continous
  8
BYBLOCK
 70
0
 66
1
  0
VERTEX
  8
0
 10
2139.3516
 20
1524.3973
 30
0.0000
  0
VERTEX
  8
0
 10
2139.9121
 20
1524.8614
 30
0.0000
  0
VERTEX
  8
0
 10
2140.3630
 20
1525.3817
 30
0.0000
  0
VERTEX
  8
0
 10
2140.6933
 20
1525.9455
 30
0.0000
  0
VERTEX
  8
0
 10
2140.8948
 20
1526.5390
 30
0.0000
  0
VERTEX
  8
0
 10
2140.9616
 20
1527.0795
 30
0.0000
  0
VERTEX
  8
0
 10
2140.9625
 20
1527.1473
 30
0.0000
  0
SEQEND
  0
POLYLINE
  6
continous
  8
BYBLOCK
 70
0
 66
1
  0
VERTEX
  8
0
 10
2087.5361
 20
1497.1473
 30
0.0000
  0
VERTEX
  8
0
 10
2087.5896
 20
1496.6061
 30
0.0000
  0
VERTEX
  8
0
 10
2087.7764
 20
1496.0103
 30
0.0000
  0
VERTEX
  8
0
 10
2088.0927
 20
1495.4425
 30
0.0000
  0
VERTEX
  8
0
 10
2088.5307
 20
1494.9167
 30
0.0000
  0
VERTEX
  8
0
 10
2089.0797
 20
1494.4458
 30
0.0000
  0
VERTEX
  8
0
 10
2089.7261
 20
1494.0414
 30
0.0000
  0
VERTEX
  8
0
 10
2090.4540
 20
1493.7135
 30
0.0000
  0
VERTEX
  8
0
 10
2091.2454
 20
1493.4701
 30
0.0000
  0
VERTEX
  8
0
 10
2092.1757
 20
1493.3061
 30
0.0000
  0
VERTEX
  8
0
 10
2093.1321
 20
1493.2588
 30
0.0000
  0
VERTEX
  8
0
 10
2094.0855
 20
1493.3297
 30
0.0000
  0
VERTEX
  8
0
 10
2095.0071
 20
1493.5166
 30
0.0000
  0
VERTEX
  8
0
 10
2095.7861
 20
1493.7793
 30
0.0000
  0
VERTEX
  8
0
 10
2096.4973
 20
1494.1250
 30
0.0000
  0
VERTEX
  8
0
 10
2096.9252
 20
1494.3973
 30
0.0000
  0
SEQEND
  0
POLYLINE
  6
continous
  8
BYBLOCK
 70
0
 66
1
  0
VERTEX
  8
0
 10
2089.1470
 20
1499.8973
 30
0.0000
  0
VERTEX
  8
0
 10
2088.5865
 20
1499.4333
 30
0.0000
  0
VERTEX
  8
0
 10
2088.1355
 20
1498.9129
 30
0.0000
  0
VERTEX
  8
0
 10
2087.8053
 20
1498.3491
 30
0.0000
  0
VERTEX
  8
0
 10
2087.6038
 20
1497.7557
 30
0.0000
  0
VERTEX
  8
0
 10
2087.5369
 20
1497.2152
 30
0.0000
  0
VERTEX
  8
0
 10
2087.5361
 20
1497.1473
 30
0.0000
  0
SEQEND
  0
POLYLINE
  6
continous
  8
BYBLOCK
 70
0
 66
1
  0
VERTEX
  8
0
 10
2098.5361
 20
1497.1473
 30
0.0000
  0
VERTEX
  8
0
 10
2098.4825
 20
1497.6886
 30
0.0000
  0
VERTEX
  8
0
 10
2098.2957
 20
1498.2844
 30
0.0000
  0
VERTEX
  8
0
 10
2097.9794
 20
1498.8522
 30
0.0000
  0
VERTEX
  8
0
 10
2097.5414
 20
1499.3780
 30
0.0000
  0
VERTEX
  8
0
 10
2096.9924
 20
1499.8489
 30
0.0000
  0
VERTEX
  8
0
 10
2096.3461
 20
1500.2533
 30
0.0000
  0
VERTEX
  8
0
 10
2095.6182
 20
1500.5812
 30
0.0000
  0
VERTEX
  8
0
 10
2094.8267
 20
1500.8245
 30
0.0000
  0
VERTEX
  8
0
 10
2093.8965
 20
1500.9885
 30
0.0000
  0
VERTEX
  8
0
 10
2092.9401
 20
1501.0358
 30
0.0000
  0
VERTEX
  8
0
 10
2091.9866
 20
1500.9650
 30
0.0000
  0
VERTEX
  8
0
 10
2091.0650
 20
1500.7781
 30
0.0000
  0
VERTEX
  8
0
 10
2090.2861
 20
1500.5154
 30
0.0000
  0
VERTEX
  8
0
 10
2089.5748
 20
1500.1697
 30
0.0000
  0
VERTEX
  8
0
 10
2089.1470
 20
1499.8973
 30
0.0000
  0
SEQEND
  0
POLYLINE
  6
continous
  8
BYBLOCK
 70
0
 66
1
  0
VERTEX
  8
0
 10
2096.9252
 20
1494.3973
 30
0.0000
  0
VERTEX
  8
0
 10
2097.4857
 20
1494.8614
 30
0.0000
  0
VERTEX
  8
0
 10
2097.9366
 20
1495.3817
 30
0.0000
  0
VERTEX
  8
0
 10
2098.2669
 20
1495.9455
 30
0.0000
  0
VERTEX
  8
0
 10
2098.4684
 20
1496.5390
 30
0.0000
  0
VERTEX
  8
0
 10
2098.5352
 20
1497.0795
 30
0.0000
  0
VERTEX
  8
0
 10
2098.5361
 20
1497.1473
 30
0.0000
  0
SEQEND
  0
POLYLINE
  6
continous
  8
BYBLOCK
 70
0
 66
1
  0
VERTEX
  8
0
 10
2045.1097
 20
1467.1473
 30
0.0000
  0
VERTEX
  8
0
 10
2045.1632
 20
1466.6061
 30
0.0000
  0
VERTEX
  8
0
 10
2045.3500
 20
1466.0103
 30
0.0000
  0
VERTEX
  8
0
 10
2045.6663
 20
1465.4425
 30
0.0000
  0
VERTEX
  8
0
 10
2046.1043
 20
1464.9167
 30
0.0000
  0
VERTEX
  8
0
 10
2046.6533
 20
1464.4458
 30
0.0000
  0
VERTEX
  8
0
 10
2047.2997
 20
1464.0414
 30
0.0000
  0
VERTEX
  8
0
 10
2048.0276
 20
1463.7135
 30
0.0000
  0
VERTEX
  8
0
 10
2048.8190
 20
1463.4701
 30
0.0000
  0
VERTEX
  8
0
 10
2049.7493
 20
1463.3061
 30
0.0000
  0
VERTEX
  8
0
 10
2050.7057
 20
1463.2588
 30
0.0000
  0
VERTEX
  8
0
 10
2051.6591
 20
1463.3297
 30
0.0000
  0
VERTEX
  8
0
 10
2052.5807
 20
1463.5166
 30
0.0000
  0
VERTEX
  8
0
 10
2053.3597
 20
1463.7793
 30
0.0000
  0
VERTEX
  8
0
 10
2054.0709
 20
1464.1250
 30
0.0000
  0
VERTEX
  8
0
 10
2054.4988
 20
1464.3973
 30
0.0000
  0
SEQEND
  0
POLYLINE
  6
continous
  8
BYBLOCK
 70
0
 66
1
  0
VERTEX
  8
0
 10
2046.7206
 20
1469.8973
 30
0.0000
  0
VERTEX
  8
0
 10
2046.1601
 20
1469.4333
 30
0.0000
  0
VERTEX
  8
0
 10
2045.7091
 20
1468.9129
 30
0.0000
  0
VERTEX
  8
0
 10
2045.3789
 20
1468.3491
 30
0.0000
  0
VERTEX
  8
0
 10
2045.1774
 20
1467.7557
 30
0.0000
  0
VERTEX
  8
0
 10
2045.1105
 20
1467.2152
 30
0.0000
  0
VERTEX
  8
0
 10
2045.1097
 20
1467.1473
 30
0.0000
  0
SEQEND
  0
POLYLINE
  6
continous
  8
BYBLOCK
 70
0
 66
1
  0
VERTEX
  8
0
 10
2056.1097
 20
1467.1473
 30
0.0000
  0
VERTEX
  8
0
 10
2056.0561
 20
1467.6886
 30
0.0000
  0
VERTEX
  8
0
 10
2055.8693
 20
1468.2844
 30
0.0000
  0
VERTEX
  8
0
 10
2055.5530
 20
1468.8522
 30
0.0000
  0
VERTEX
  8
0
 10
2055.1150
 20
1469.3780
 30
0.0000
  0
VERTEX
  8
0
 10
2054.5660
 20
1469.8489
 30
0.0000
  0
VERTEX
  8
0
 10
2053.9196
 20
1470.2533
 30
0.0000
  0
VERTEX
  8
0
 10
2053.1918
 20
1470.5812
 30
0.0000
  0
VERTEX
  8
0
 10
2052.4003
 20
1470.8245
 30
0.0000
  0
VERTEX
  8
0
 10
2051.4701
 20
1470.9885
 30
0.0000
  0
VERTEX
  8
0
 10
2050.5137
 20
1471.0358
 30
0.0000
  0
VERTEX
  8
0
 10
2049.5602
 20
1470.9650
 30
0.0000
  0
VERTEX
  8
0
 10
2048.6386
 20
1470.7781
 30
0.0000
  0
VERTEX
  8
0
 10
2047.8597
 20
1470.5154
 30
0.0000
  0
VERTEX
  8
0
 10
2047.1484
 20
1470.1697
 30
0.0000
  0
VERTEX
  8
0
 10
2046.7206
 20
1469.8973
 30
0.0000
  0
SEQEND
  0
POLYLINE
  6
continous
  8
BYBLOCK
 70
0
 66
1
  0
VERTEX
  8
0
 10
2054.4988
 20
1464.3973
 30
0.0000
  0
VERTEX
  8
0
 10
2055.0593
 20
1464.8614
 30
0.0000
  0
VERTEX
  8
0
 10
2055.5102
 20
1465.3817
 30
0.0000
  0
VERTEX
  8
0
 10
2055.8405
 20
1465.9455
 30
0.0000
  0
VERTEX
  8
0
 10
2056.0420
 20
1466.5390
 30
0.0000
  0
VERTEX
  8
0
 10
2056.1088
 20
1467.0795
 30
0.0000
  0
VERTEX
  8
0
 10
2056.1097
 20
1467.1473
 30
0.0000
  0
SEQEND
  0
POLYLINE
  6
continous
  8
BYBLOCK
 70
0
 66
1
  0
VERTEX
  8
0
 10
2002.6833
 20
1437.1473
 30
0.0000
  0
VERTEX
  8
0
 10
2002.7368
 20
1436.6061
 30
0.0000
  0
VERTEX
  8
0
 10
2002.9236
 20
1436.0103
 30
0.0000
  0
VERTEX
  8
0
 10
2003.2399
 20
1435.4425
 30
0.0000
  0
VERTEX
  8
0
 10
2003.6779
 20
1434.9167
 30
0.0000
  0
VERTEX
  8
0
 10
2004.2269
 20
1434.4458
 30
0.0000
  0
VERTEX
  8
0
 10
2004.8733
 20
1434.0414
 30
0.0000
  0
VERTEX
  8
0
 10
2005.6012
 20
1433.7135
 30
0.0000
  0
VERTEX
  8
0
 10
2006.3926
 20
1433.4701
 30
0.0000
  0
VERTEX
  8
0
 10
2007.3229
 20
1433.3061
 30
0.0000
  0
VERTEX
  8
0
 10
2008.2792
 20
1433.2588
 30
0.0000
  0
VERTEX
  8
0
 10
2009.2327
 20
1433.3297
 30
0.0000
  0
VERTEX
  8
0
 10
2010.1543
 20
1433.5166
 30
0.0000
  0
VERTEX
  8
0
 10
2010.9333
 20
1433.7793
 30
0.0000
  0
VERTEX
  8
0
 10
2011.6445
 20
1434.1250
 30
0.0000
  0
VERTEX
  8
0
 10
2012.0723
 20
1434.3973
 30
0.0000
  0
SEQEND
  0
POLYLINE
  6
continous
  8
BYBLOCK
 70
0
 66
1
  0
VERTEX
  8
0
 10
2004.2942
 20
1439.8973
 30
0.0000
  0
VERTEX
  8
0
 10
2003.7337
 20
1439.4333
 30
0.0000
  0
VERTEX
  8
0
 10
2003.2827
 20
1438.9129
 30
0.0000
  0
VERTEX
  8
0
 10
2002.9524
 20
1438.3491
 30
0.0000
  0
VERTEX
  8
0
 10
2002.7510
 20
1437.7557
 30
0.0000
  0
VERTEX
  8
0
 10
2002.6841
 20
1437.2152
 30
0.0000
  0
VERTEX
  8
0
 10
2002.6833
 20
1437.1473
 30
0.0000
  0
SEQEND
  0
POLYLINE
  6
continous
  8
BYBLOCK
 70
0
 66
1
  0
VERTEX
  8
0
 10
2013.6833
 20
1437.1473
 30
0.0000
  0
VERTEX
  8
0
 10
2013.6297
 20
1437.6886
 30
0.0000
  0
VERTEX
  8
0
 10
2013.4429
 20
1438.2844
 30
0.0000
  0
VERTEX
  8
0
 10
2013.1266
 20
1438.8522
 30
0.0000
  0
VERTEX
  8
0
 10
2012.6886
 20
1439.3780
 30
0.0000
  0
VERTEX
  8
0
 10
2012.1396
 20
1439.8489
 30
0.0000
  0
VERTEX
  8
0
 10
2011.4932
 20
1440.2533
 30
0.0000
  0
VERTEX
  8
0
 10
2010.7654
 20
1440.5812
 30
0.0000
  0
VERTEX
  8
0
 10
2009.9739
 20
1440.8245
 30
0.0000
  0
VERTEX
  8
0
 10
2009.0436
 20
1440.9885
 30
0.0000
  0
VERTEX
  8
0
 10
2008.0873
 20
1441.0358
 30
0.0000
  0
VERTEX
  8
0
 10
2007.1338
 20
1440.9650
 30
0.0000
  0
VERTEX
  8
0
 10
2006.2122
 20
1440.7781
 30
0.0000
  0
VERTEX
  8
0
 10
2005.4333
 20
1440.5154
 30
0.0000
  0
VERTEX
  8
0
 10
2004.7220
 20
1440.1697
 30
0.0000
  0
VERTEX
  8
0
 10
2004.2942
 20
1439.8973
 30
0.0000
  0
SEQEND
  0
POLYLINE
  6
continous
  8
BYBLOCK
 70
0
 66
1
  0
VERTEX
  8
0
 10
2012.0723
 20
1434.3973
 30
0.0000
  0
VERTEX
  8
0
 10
2012.6329
 20
1434.8614
 30
0.0000
  0
VERTEX
  8
0
 10
2013.0838
 20
1435.3817
 30
0.0000
  0
VERTEX
  8
0
 10
2013.4141
 20
1435.9455
 30
0.0000
  0
VERTEX
  8
0
 10
2013.6155
 20
1436.5390
 30
0.0000
  0
VERTEX
  8
0
 10
2013.6824
 20
1437.0795
 30
0.0000
  0
VERTEX
  8
0
 10
2013.6833
 20
1437.1473
 30
0.0000
  0
SEQEND
  0
POLYLINE
  6
continous
  8
BYBLOCK
 70
0
 66
1
  0
VERTEX
  8
0
 10
1960.2569
 20
1407.1473
 30
0.0000
  0
VERTEX
  8
0
 10
1960.3104
 20
1406.6061
 30
0.0000
  0
VERTEX
  8
0
 10
1960.4972
 20
1406.0103
 30
0.0000
  0
VERTEX
  8
0
 10
1960.8135
 20
1405.4425
 30
0.0000
  0
VERTEX
  8
0
 10
1961.2515
 20
1404.9167
 30
0.0000
  0
VERTEX
  8
0
 10
1961.8005
 20
1404.4458
 30
0.0000
  0
VERTEX
  8
0
 10
1962.4469
 20
1404.0414
 30
0.0000
  0
VERTEX
  8
0
 10
1963.1748
 20
1403.7135
 30
0.0000
  0
VERTEX
  8
0
 10
1963.9662
 20
1403.4701
 30
0.0000
  0
VERTEX
  8
0
 10
1964.8965
 20
1403.3061
 30
0.0000
  0
VERTEX
  8
0
 10
1965.8528
 20
1403.2588
 30
0.0000
  0
VERTEX
  8
0
 10
1966.8063
 20
1403.3297
 30
0.0000
  0
VERTEX
  8
0
 10
1967.7279
 20
1403.5166
 30
0.0000
  0
VERTEX
  8
0
 10
1968.5069
 20
1403.7793
 30
0.0000
  0
VERTEX
  8
0
 10
1969.2181
 20
1404.1250
 30
0.0000
  0
VERTEX
  8
0
 10
1969.6459
 20
1404.3973
 30
0.0000
  0
SEQEND
  0
POLYLINE
  6
continous
  8
BYBLOCK
 70
0
 66
1
  0
VERTEX
  8
0
 10
1961.8678
 20
1409.8973
 30
0.0000
  0
VERTEX
  8
0
 10
1961.3073
 20
1409.4333
 30
0.0000
  0
VERTEX
  8
0
 10
1960.8563
 20
1408.9129
 30
0.0000
  0
VERTEX
  8
0
 10
1960.5260
 20
1408.3491
 30
0.0000
  0
VERTEX
  8
0
 10
1960.3246
 20
1407.7557
 30
0.0000
  0
VERTEX
  8
0
 10
1960.2577
 20
1407.2152
 30
0.0000
  0
VERTEX
  8
0
 10
1960.2569
 20
1407.1473
 30
0.0000
  0
SEQEND
  0
POLYLINE
  6
continous
  8
BYBLOCK
 70
0
 66
1
  0
VERTEX
  8
0
 10
1971.2569
 20
1407.1473
 30
0.0000
  0
VERTEX
  8
0
 10
1971.2033
 20
1407.6886
 30
0.0000
  0
VERTEX
  8
0
 10
1971.0165
 20
1408.2844
 30
0.0000
  0
VERTEX
  8
0
 10
1970.7002
 20
1408.8522
 30
0.0000
  0
VERTEX
  8
0
 10
1970.2622
 20
1409.3780
 30
0.0000
  0
VERTEX
  8
0
 10
1969.7132
 20
1409.8489
 30
0.0000
  0
VERTEX
  8
0
 10
1969.0668
 20
1410.2533
 30
0.0000
  0
VERTEX
  8
0
 10
1968.3389
 20
1410.5812
 30
0.0000
  0
VERTEX
  8
0
 10
1967.5475
 20
1410.8245
 30
0.0000
  0
VERTEX
  8
0
 10
1966.6172
 20
1410.9885
 30
0.0000
  0
VERTEX
  8
0
 10
1965.6609
 20
1411.0358
 30
0.0000
  0
VERTEX
  8
0
 10
1964.7074
 20
1410.9650
 30
0.0000
  0
VERTEX
  8
0
 10
1963.7858
 20
1410.7781
 30
0.0000
  0
VERTEX
  8
0
 10
1963.0069
 20
1410.5154
 30
0.0000
  0
VERTEX
  8
0
 10
1962.2956
 20
1410.1697
 30
0.0000
  0
VERTEX
  8
0
 10
1961.8678
 20
1409.8973
 30
0.0000
  0
SEQEND
  0
POLYLINE
  6
continous
  8
BYBLOCK
 70
0
 66
1
  0
VERTEX
  8
0
 10
1969.6459
 20
1404.3973
 30
0.0000
  0
VERTEX
  8
0
 10
1970.2064
 20
1404.8614
 30
0.0000
  0
VERTEX
  8
0
 10
1970.6574
 20
1405.3817
 30
0.0000
  0
VERTEX
  8
0
 10
1970.9877
 20
1405.9455
 30
0.0000
  0
VERTEX
  8
0
 10
1971.1891
 20
1406.5390
 30
0.0000
  0
VERTEX
  8
0
 10
1971.2560
 20
1407.0795
 30
0.0000
  0
VERTEX
  8
0
 10
1971.2569
 20
1407.1473
 30
0.0000
  0
SEQEND
  0
POLYLINE
  6
continous
  8
BYBLOCK
 70
0
 66
1
  0
VERTEX
  8
0
 10
1917.8304
 20
1377.1473
 30
0.0000
  0
VERTEX
  8
0
 10
1917.8840
 20
1376.6061
 30
0.0000
  0
VERTEX
  8
0
 10
1918.0708
 20
1376.0103
 30
0.0000
  0
VERTEX
  8
0
 10
1918.3871
 20
1375.4425
 30
0.0000
  0
VERTEX
  8
0
 10
1918.8251
 20
1374.9167
 30
0.0000
  0
VERTEX
  8
0
 10
1919.3741
 20
1374.4458
 30
0.0000
  0
VERTEX
  8
0
 10
1920.0205
 20
1374.0414
 30
0.0000
  0
VERTEX
  8
0
 10
1920.7484
 20
1373.7135
 30
0.0000
  0
VERTEX
  8
0
 10
1921.5398
 20
1373.4701
 30
0.0000
  0
VERTEX
  8
0
 10
1922.4701
 20
1373.3061
 30
0.0000
  0
VERTEX
  8
0
 10
1923.4264
 20
1373.2588
 30
0.0000
  0
VERTEX
  8
0
 10
1924.3799
 20
1373.3297
 30
0.0000
  0
VERTEX
  8
0
 10
1925.3015
 20
1373.5166
 30
0.0000
  0
VERTEX
  8
0
 10
1926.0804
 20
1373.7793
 30
0.0000
  0
VERTEX
  8
0
 10
1926.7917
 20
1374.1250
 30
0.0000
  0
VERTEX
  8
0
 10
1927.2195
 20
1374.3973
 30
0.0000
  0
SEQEND
  0
POLYLINE
  6
continous
  8
BYBLOCK
 70
0
 66
1
  0
VERTEX
  8
0
 10
1919.4414
 20
1379.8973
 30
0.0000
  0
VERTEX
  8
0
 10
1918.8809
 20
1379.4333
 30
0.0000
  0
VERTEX
  8
0
 10
1918.4299
 20
1378.9129
 30
0.0000
  0
VERTEX
  8
0
 10
1918.0996
 20
1378.3491
 30
0.0000
  0
VERTEX
  8
0
 10
1917.8982
 20
1377.7557
 30
0.0000
  0
VERTEX
  8
0
 10
1917.8313
 20
1377.2152
 30
0.0000
  0
VERTEX
  8
0
 10
1917.8304
 20
1377.1473
 30
0.0000
  0
SEQEND
  0
POLYLINE
  6
continous
  8
BYBLOCK
 70
0
 66
1
  0
VERTEX
  8
0
 10
1928.8304
 20
1377.1473
 30
0.0000
  0
VERTEX
  8
0
 10
1928.7769
 20
1377.6886
 30
0.0000
  0
VERTEX
  8
0
 10
1928.5901
 20
1378.2844
 30
0.0000
  0
VERTEX
  8
0
 10
1928.2738
 20
1378.8522
 30
0.0000
  0
VERTEX
  8
0
 10
1927.8358
 20
1379.3780
 30
0.0000
  0
VERTEX
  8
0
 10
1927.2868
 20
1379.8489
 30
0.0000
  0
VERTEX
  8
0
 10
1926.6404
 20
1380.2533
 30
0.0000
  0
VERTEX
  8
0
 10
1925.9125
 20
1380.5812
 30
0.0000
  0
VERTEX
  8
0
 10
1925.1211
 20
1380.8245
 30
0.0000
  0
VERTEX
  8
0
 10
1924.1908
 20
1380.9885
 30
0.0000
  0
VERTEX
  8
0
 10
1923.2345
 20
1381.0358
 30
0.0000
  0
VERTEX
  8
0
 10
1922.2810
 20
1380.9650
 30
0.0000
  0
VERTEX
  8
0
 10
1921.3594
 20
1380.7781
 30
0.0000
  0
VERTEX
  8
0
 10
1920.5804
 20
1380.5154
 30
0.0000
  0
VERTEX
  8
0
 10
1919.8692
 20
1380.1697
 30
0.0000
  0
VERTEX
  8
0
 10
1919.4414
 20
1379.8973
 30
0.0000
  0
SEQEND
  0
POLYLINE
  6
continous
  8
BYBLOCK
 70
0
 66
1
  0
VERTEX
  8
0
 10
1927.2195
 20
1374.3973
 30
0.0000
  0
VERTEX
  8
0
 10
1927.7800
 20
1374.8614
 30
0.0000
  0
VERTEX
  8
0
 10
1928.2310
 20
1375.3817
 30
0.0000
  0
VERTEX
  8
0
 10
1928.5613
 20
1375.9455
 30
0.0000
  0
VERTEX
  8
0
 10
1928.7627
 20
1376.5390
 30
0.0000
  0
VERTEX
  8
0
 10
1928.8296
 20
1377.0795
 30
0.0000
  0
VERTEX
  8
0
 10
1928.8304
 20
1377.1473
 30
0.0000
  0
SEQEND
  0
POLYLINE
  6
continous
  8
BYBLOCK
 70
0
 66
1
  0
VERTEX
  8
0
 10
1875.4040
 20
1347.1473
 30
0.0000
  0
VERTEX
  8
0
 10
1875.4576
 20
1346.6061
 30
0.0000
  0
VERTEX
  8
0
 10
1875.6444
 20
1346.0103
 30
0.0000
  0
VERTEX
  8
0
 10
1875.9607
 20
1345.4425
 30
0.0000
  0
VERTEX
  8
0
 10
1876.3987
 20
1344.9167
 30
0.0000
  0
VERTEX
  8
0
 10
1876.9477
 20
1344.4458
 30
0.0000
  0
VERTEX
  8
0
 10
1877.5941
 20
1344.0414
 30
0.0000
  0
VERTEX
  8
0
 10
1878.3219
 20
1343.7135
 30
0.0000
  0
VERTEX
  8
0
 10
1879.1134
 20
1343.4701
 30
0.0000
  0
VERTEX
  8
0
 10
1880.0436
 20
1343.3061
 30
0.0000
  0
VERTEX
  8
0
 10
1881.0000
 20
1343.2588
 30
0.0000
  0
VERTEX
  8
0
 10
1881.9535
 20
1343.3297
 30
0.0000
  0
VERTEX
  8
0
 10
1882.8751
 20
1343.5166
 30
0.0000
  0
VERTEX
  8
0
 10
1883.6540
 20
1343.7793
 30
0.0000
  0
VERTEX
  8
0
 10
1884.3653
 20
1344.1250
 30
0.0000
  0
VERTEX
  8
0
 10
1884.7931
 20
1344.3973
 30
0.0000
  0
SEQEND
  0
POLYLINE
  6
continous
  8
BYBLOCK
 70
0
 66
1
  0
VERTEX
  8
0
 10
1877.0150
 20
1349.8973
 30
0.0000
  0
VERTEX
  8
0
 10
1876.4544
 20
1349.4333
 30
0.0000
  0
VERTEX
  8
0
 10
1876.0035
 20
1348.9129
 30
0.0000
  0
VERTEX
  8
0
 10
1875.6732
 20
1348.3491
 30
0.0000
  0
VERTEX
  8
0
 10
1875.4718
 20
1347.7557
 30
0.0000
  0
VERTEX
  8
0
 10
1875.4049
 20
1347.2152
 30
0.0000
  0
VERTEX
  8
0
 10
1875.4040
 20
1347.1473
 30
0.0000
  0
SEQEND
  0
POLYLINE
  6
continous
  8
BYBLOCK
 70
0
 66
1
  0
VERTEX
  8
0
 10
1886.4040
 20
1347.1473
 30
0.0000
  0
VERTEX
  8
0
 10
1886.3505
 20
1347.6886
 30
0.0000
  0
VERTEX
  8
0
 10
1886.1637
 20
1348.2844
 30
0.0000
  0
VERTEX
  8
0
 10
1885.8474
 20
1348.8522
 30
0.0000
  0
VERTEX
  8
0
 10
1885.4094
 20
1349.3780
 30
0.0000
  0
VERTEX
  8
0
 10
1884.8604
 20
1349.8489
 30
0.0000
  0
VERTEX
  8
0
 10
1884.2140
 20
1350.2533
 30
0.0000
  0
VERTEX
  8
0
 10
1883.4861
 20
1350.5812
 30
0.0000
  0
VERTEX
  8
0
 10
1882.6947
 20
1350.8245
 30
0.0000
  0
VERTEX
  8
0
 10
1881.7644
 20
1350.9885
 30
0.0000
  0
VERTEX
  8
0
 10
1880.8080
 20
1351.0358
 30
0.0000
  0
VERTEX
  8
0
 10
1879.8546
 20
1350.9650
 30
0.0000
  0
VERTEX
  8
0
 10
1878.9330
 20
1350.7781
 30
0.0000
  0
VERTEX
  8
0
 10
1878.1540
 20
1350.5154
 30
0.0000
  0
VERTEX
  8
0
 10
1877.4428
 20
1350.1697
 30
0.0000
  0
VERTEX
  8
0
 10
1877.0150
 20
1349.8973
 30
0.0000
  0
SEQEND
  0
POLYLINE
  6
continous
  8
BYBLOCK
 70
0
 66
1
  0
VERTEX
  8
0
 10
1884.7931
 20
1344.3973
 30
0.0000
  0
VERTEX
  8
0
 10
1885.3536
 20
1344.8614
 30
0.0000
  0
VERTEX
  8
0
 10
1885.8046
 20
1345.3817
 30
0.0000
  0
VERTEX
  8
0
 10
1886.1348
 20
1345.9455
 30
0.0000
  0
VERTEX
  8
0
 10
1886.3363
 20
1346.5390
 30
0.0000
  0
VERTEX
  8
0
 10
1886.4032
 20
1347.0795
 30
0.0000
  0
VERTEX
  8
0
 10
1886.4040
 20
1347.1473
 30
0.0000
  0
SEQEND
  0
POLYLINE
  6
continous
  8
BYBLOCK
 70
0
 66
1
  0
VERTEX
  8
0
 10
1832.9776
 20
1317.1473
 30
0.0000
  0
VERTEX
  8
0
 10
1833.0312
 20
1316.6061
 30
0.0000
  0
VERTEX
  8
0
 10
1833.2180
 20
1316.0103
 30
0.0000
  0
VERTEX
  8
0
 10
1833.5343
 20
1315.4425
 30
0.0000
  0
VERTEX
  8
0
 10
1833.9723
 20
1314.9167
 30
0.0000
  0
VERTEX
  8
0
 10
1834.5213
 20
1314.4458
 30
0.0000
  0
VERTEX
  8
0
 10
1835.1676
 20
1314.0414
 30
0.0000
  0
VERTEX
  8
0
 10
1835.8955
 20
1313.7135
 30
0.0000
  0
VERTEX
  8
0
 10
1836.6870
 20
1313.4701
 30
0.0000
  0
VERTEX
  8
0
 10
1837.6172
 20
1313.3061
 30
0.0000
  0
VERTEX
  8
0
 10
1838.5736
 20
1313.2588
 30
0.0000
  0
VERTEX
  8
0
 10
1839.5271
 20
1313.3297
 30
0.0000
  0
VERTEX
  8
0
 10
1840.4487
 20
1313.5166
 30
0.0000
  0
VERTEX
  8
0
 10
1841.2276
 20
1313.7793
 30
0.0000
  0
VERTEX
  8
0
 10
1841.9389
 20
1314.1250
 30
0.0000
  0
VERTEX
  8
0
 10
1842.3667
 20
1314.3973
 30
0.0000
  0
SEQEND
  0
POLYLINE
  6
continous
  8
BYBLOCK
 70
0
 66
1
  0
VERTEX
  8
0
 10
1834.5885
 20
1319.8973
 30
0.0000
  0
VERTEX
  8
0
 10
1834.0280
 20
1319.4333
 30
0.0000
  0
VERTEX
  8
0
 10
1833.5771
 20
1318.9129
 30
0.0000
  0
VERTEX
  8
0
 10
1833.2468
 20
1318.3491
 30
0.0000
  0
VERTEX
  8
0
 10
1833.0453
 20
1317.7557
 30
0.0000
  0
VERTEX
  8
0
 10
1832.9785
 20
1317.2152
 30
0.0000
  0
VERTEX
  8
0
 10
1832.9776
 20
1317.1473
 30
0.0000
  0
SEQEND
  0
POLYLINE
  6
continous
  8
BYBLOCK
 70
0
 66
1
  0
VERTEX
  8
0
 10
1843.9776
 20
1317.1473
 30
0.0000
  0
VERTEX
  8
0
 10
1843.9241
 20
1317.6886
 30
0.0000
  0
VERTEX
  8
0
 10
1843.7373
 20
1318.2844
 30
0.0000
  0
VERTEX
  8
0
 10
1843.4210
 20
1318.8522
 30
0.0000
  0
VERTEX
  8
0
 10
1842.9830
 20
1319.3780
 30
0.0000
  0
VERTEX
  8
0
 10
1842.4340
 20
1319.8489
 30
0.0000
  0
VERTEX
  8
0
 10
1841.7876
 20
1320.2533
 30
0.0000
  0
VERTEX
  8
0
 10
1841.0597
 20
1320.5812
 30
0.0000
  0
VERTEX
  8
0
 10
1840.2683
 20
1320.8245
 30
0.0000
  0
VERTEX
  8
0
 10
1839.3380
 20
1320.9885
 30
0.0000
  0
VERTEX
  8
0
 10
1838.3816
 20
1321.0358
 30
0.0000
  0
VERTEX
  8
0
 10
1837.4282
 20
1320.9650
 30
0.0000
  0
VERTEX
  8
0
 10
1836.5066
 20
1320.7781
 30
0.0000
  0
VERTEX
  8
0
 10
1835.7276
 20
1320.5154
 30
0.0000
  0
VERTEX
  8
0
 10
1835.0164
 20
1320.1697
 30
0.0000
  0
VERTEX
  8
0
 10
1834.5885
 20
1319.8973
 30
0.0000
  0
SEQEND
  0
POLYLINE
  6
continous
  8
BYBLOCK
 70
0
 66
1
  0
VERTEX
  8
0
 10
1842.3667
 20
1314.3973
 30
0.0000
  0
VERTEX
  8
0
 10
1842.9272
 20
1314.8614
 30
0.0000
  0
VERTEX
  8
0
 10
1843.3782
 20
1315.3817
 30
0.0000
  0
VERTEX
  8
0
 10
1843.7084
 20
1315.9455
 30
0.0000
  0
VERTEX
  8
0
 10
1843.9099
 20
1316.5390
 30
0.0000
  0
VERTEX
  8
0
 10
1843.9768
 20
1317.0795
 30
0.0000
  0
VERTEX
  8
0
 10
1843.9776
 20
1317.1473
 30
0.0000
  0
SEQEND
  0
POLYLINE
  6
continous
  8
BYBLOCK
 70
0
 66
1
  0
VERTEX
  8
0
 10
1790.5512
 20
1287.1473
 30
0.0000
  0
VERTEX
  8
0
 10
1790.6047
 20
1286.6061
 30
0.0000
  0
VERTEX
  8
0
 10
1790.7915
 20
1286.0103
 30
0.0000
  0
VERTEX
  8
0
 10
1791.1079
 20
1285.4425
 30
0.0000
  0
VERTEX
  8
0
 10
1791.5459
 20
1284.9167
 30
0.0000
  0
VERTEX
  8
0
 10
1792.0949
 20
1284.4458
 30
0.0000
  0
VERTEX
  8
0
 10
1792.7412
 20
1284.0414
 30
0.0000
  0
VERTEX
  8
0
 10
1793.4691
 20
1283.7135
 30
0.0000
  0
VERTEX
  8
0
 10
1794.2606
 20
1283.4701
 30
0.0000
  0
VERTEX
  8
0
 10
1795.1908
 20
1283.3061
 30
0.0000
  0
VERTEX
  8
0
 10
1796.1472
 20
1283.2588
 30
0.0000
  0
VERTEX
  8
0
 10
1797.1007
 20
1283.3297
 30
0.0000
  0
VERTEX
  8
0
 10
1798.0222
 20
1283.5166
 30
0.0000
  0
VERTEX
  8
0
 10
1798.8012
 20
1283.7793
 30
0.0000
  0
VERTEX
  8
0
 10
1799.5125
 20
1284.1250
 30
0.0000
  0
VERTEX
  8
0
 10
1799.9403
 20
1284.3973
 30
0.0000
  0
SEQEND
  0
POLYLINE
  6
continous
  8
BYBLOCK
 70
0
 66
1
  0
VERTEX
  8
0
 10
1792.1621
 20
1289.8973
 30
0.0000
  0
VERTEX
  8
0
 10
1791.6016
 20
1289.4333
 30
0.0000
  0
VERTEX
  8
0
 10
1791.1507
 20
1288.9129
 30
0.0000
  0
VERTEX
  8
0
 10
1790.8204
 20
1288.3491
 30
0.0000
  0
VERTEX
  8
0
 10
1790.6189
 20
1287.7557
 30
0.0000
  0
VERTEX
  8
0
 10
1790.5521
 20
1287.2152
 30
0.0000
  0
VERTEX
  8
0
 10
1790.5512
 20
1287.1473
 30
0.0000
  0
SEQEND
  0
POLYLINE
  6
continous
  8
BYBLOCK
 70
0
 66
1
  0
VERTEX
  8
0
 10
1801.5512
 20
1287.1473
 30
0.0000
  0
VERTEX
  8
0
 10
1801.4977
 20
1287.6886
 30
0.0000
  0
VERTEX
  8
0
 10
1801.3109
 20
1288.2844
 30
0.0000
  0
VERTEX
  8
0
 10
1800.9946
 20
1288.8522
 30
0.0000
  0
VERTEX
  8
0
 10
1800.5566
 20
1289.3780
 30
0.0000
  0
VERTEX
  8
0
 10
1800.0076
 20
1289.8489
 30
0.0000
  0
VERTEX
  8
0
 10
1799.3612
 20
1290.2533
 30
0.0000
  0
VERTEX
  8
0
 10
1798.6333
 20
1290.5812
 30
0.0000
  0
VERTEX
  8
0
 10
1797.8418
 20
1290.8245
 30
0.0000
  0
VERTEX
  8
0
 10
1796.9116
 20
1290.9885
 30
0.0000
  0
VERTEX
  8
0
 10
1795.9552
 20
1291.0358
 30
0.0000
  0
VERTEX
  8
0
 10
1795.0018
 20
1290.9650
 30
0.0000
  0
VERTEX
  8
0
 10
1794.0802
 20
1290.7781
 30
0.0000
  0
VERTEX
  8
0
 10
1793.3012
 20
1290.5154
 30
0.0000
  0
VERTEX
  8
0
 10
1792.5900
 20
1290.1697
 30
0.0000
  0
VERTEX
  8
0
 10
1792.1621
 20
1289.8973
 30
0.0000
  0
SEQEND
  0
POLYLINE
  6
continous
  8
BYBLOCK
 70
0
 66
1
  0
VERTEX
  8
0
 10
1799.9403
 20
1284.3973
 30
0.0000
  0
VERTEX
  8
0
 10
1800.5008
 20
1284.8614
 30
0.0000
  0
VERTEX
  8
0
 10
1800.9518
 20
1285.3817
 30
0.0000
  0
VERTEX
  8
0
 10
1801.2820
 20
1285.9455
 30
0.0000
  0
VERTEX
  8
0
 10
1801.4835
 20
1286.5390
 30
0.0000
  0
VERTEX
  8
0
 10
1801.5504
 20
1287.0795
 30
0.0000
  0
VERTEX
  8
0
 10
1801.5512
 20
1287.1473
 30
0.0000
  0
SEQEND
  0
POLYLINE
  6
continous
  8
BYBLOCK
 70
0
 66
1
  0
VERTEX
  8
0
 10
1748.1248
 20
1257.1473
 30
0.0000
  0
VERTEX
  8
0
 10
1748.1783
 20
1256.6061
 30
0.0000
  0
VERTEX
  8
0
 10
1748.3651
 20
1256.0103
 30
0.0000
  0
VERTEX
  8
0
 10
1748.6815
 20
1255.4425
 30
0.0000
  0
VERTEX
  8
0
 10
1749.1195
 20
1254.9167
 30
0.0000
  0
VERTEX
  8
0
 10
1749.6684
 20
1254.4458
 30
0.0000
  0
VERTEX
  8
0
 10
1750.3148
 20
1254.0414
 30
0.0000
  0
VERTEX
  8
0
 10
1751.0427
 20
1253.7135
 30
0.0000
  0
VERTEX
  8
0
 10
1751.8342
 20
1253.4701
 30
0.0000
  0
VERTEX
  8
0
 10
1752.7644
 20
1253.3061
 30
0.0000
  0
VERTEX
  8
0
 10
1753.7208
 20
1253.2588
 30
0.0000
  0
VERTEX
  8
0
 10
1754.6743
 20
1253.3297
 30
0.0000
  0
VERTEX
  8
0
 10
1755.5958
 20
1253.5166
 30
0.0000
  0
VERTEX
  8
0
 10
1756.3748
 20
1253.7793
 30
0.0000
  0
VERTEX
  8
0
 10
1757.0861
 20
1254.1250
 30
0.0000
  0
VERTEX
  8
0
 10
1757.5139
 20
1254.3973
 30
0.0000
  0
SEQEND
  0
POLYLINE
  6
continous
  8
BYBLOCK
 70
0
 66
1
  0
VERTEX
  8
0
 10
1749.7357
 20
1259.8973
 30
0.0000
  0
VERTEX
  8
0
 10
1749.1752
 20
1259.4333
 30
0.0000
  0
VERTEX
  8
0
 10
1748.7243
 20
1258.9129
 30
0.0000
  0
VERTEX
  8
0
 10
1748.3940
 20
1258.3491
 30
0.0000
  0
VERTEX
  8
0
 10
1748.1925
 20
1257.7557
 30
0.0000
  0
VERTEX
  8
0
 10
1748.1257
 20
1257.2152
 30
0.0000
  0
VERTEX
  8
0
 10
1748.1248
 20
1257.1473
 30
0.0000
  0
SEQEND
  0
POLYLINE
  6
continous
  8
BYBLOCK
 70
0
 66
1
  0
VERTEX
  8
0
 10
1759.1248
 20
1257.1473
 30
0.0000
  0
VERTEX
  8
0
 10
1759.0713
 20
1257.6886
 30
0.0000
  0
VERTEX
  8
0
 10
1758.8845
 20
1258.2844
 30
0.0000
  0
VERTEX
  8
0
 10
1758.5682
 20
1258.8522
 30
0.0000
  0
VERTEX
  8
0
 10
1758.1302
 20
1259.3780
 30
0.0000
  0
VERTEX
  8
0
 10
1757.5812
 20
1259.8489
 30
0.0000
  0
VERTEX
  8
0
 10
1756.9348
 20
1260.2533
 30
0.0000
  0
VERTEX
  8
0
 10
1756.2069
 20
1260.5812
 30
0.0000
  0
VERTEX
  8
0
 10
1755.4154
 20
1260.8245
 30
0.0000
  0
VERTEX
  8
0
 10
1754.4852
 20
1260.9885
 30
0.0000
  0
VERTEX
  8
0
 10
1753.5288
 20
1261.0358
 30
0.0000
  0
VERTEX
  8
0
 10
1752.5754
 20
1260.9650
 30
0.0000
  0
VERTEX
  8
0
 10
1751.6538
 20
1260.7781
 30
0.0000
  0
VERTEX
  8
0
 10
1750.8748
 20
1260.5154
 30
0.0000
  0
VERTEX
  8
0
 10
1750.1636
 20
1260.1697
 30
0.0000
  0
VERTEX
  8
0
 10
1749.7357
 20
1259.8973
 30
0.0000
  0
SEQEND
  0
POLYLINE
  6
continous
  8
BYBLOCK
 70
0
 66
1
  0
VERTEX
  8
0
 10
1757.5139
 20
1254.3973
 30
0.0000
  0
VERTEX
  8
0
 10
1758.0744
 20
1254.8614
 30
0.0000
  0
VERTEX
  8
0
 10
1758.5254
 20
1255.3817
 30
0.0000
  0
VERTEX
  8
0
 10
1758.8556
 20
1255.9455
 30
0.0000
  0
VERTEX
  8
0
 10
1759.0571
 20
1256.5390
 30
0.0000
  0
VERTEX
  8
0
 10
1759.1240
 20
1257.0795
 30
0.0000
  0
VERTEX
  8
0
 10
1759.1248
 20
1257.1473
 30
0.0000
  0
SEQEND
  0
POLYLINE
  6
continous
  8
BYBLOCK
 70
0
 66
1
  0
VERTEX
  8
0
 10
1705.6984
 20
1227.1473
 30
0.0000
  0
VERTEX
  8
0
 10
1705.7519
 20
1226.6061
 30
0.0000
  0
VERTEX
  8
0
 10
1705.9387
 20
1226.0103
 30
0.0000
  0
VERTEX
  8
0
 10
1706.2550
 20
1225.4425
 30
0.0000
  0
VERTEX
  8
0
 10
1706.6931
 20
1224.9167
 30
0.0000
  0
VERTEX
  8
0
 10
1707.2420
 20
1224.4458
 30
0.0000
  0
VERTEX
  8
0
 10
1707.8884
 20
1224.0414
 30
0.0000
  0
VERTEX
  8
0
 10
1708.6163
 20
1223.7135
 30
0.0000
  0
VERTEX
  8
0
 10
1709.4078
 20
1223.4701
 30
0.0000
  0
VERTEX
  8
0
 10
1710.3380
 20
1223.3061
 30
0.0000
  0
VERTEX
  8
0
 10
1711.2944
 20
1223.2588
 30
0.0000
  0
VERTEX
  8
0
 10
1712.2479
 20
1223.3297
 30
0.0000
  0
VERTEX
  8
0
 10
1713.1694
 20
1223.5166
 30
0.0000
  0
VERTEX
  8
0
 10
1713.9484
 20
1223.7793
 30
0.0000
  0
VERTEX
  8
0
 10
1714.6597
 20
1224.1250
 30
0.0000
  0
VERTEX
  8
0
 10
1715.0875
 20
1224.3973
 30
0.0000
  0
SEQEND
  0
POLYLINE
  6
continous
  8
BYBLOCK
 70
0
 66
1
  0
VERTEX
  8
0
 10
1707.3093
 20
1229.8973
 30
0.0000
  0
VERTEX
  8
0
 10
1706.7488
 20
1229.4333
 30
0.0000
  0
VERTEX
  8
0
 10
1706.2979
 20
1228.9129
 30
0.0000
  0
VERTEX
  8
0
 10
1705.9676
 20
1228.3491
 30
0.0000
  0
VERTEX
  8
0
 10
1705.7661
 20
1227.7557
 30
0.0000
  0
VERTEX
  8
0
 10
1705.6992
 20
1227.2152
 30
0.0000
  0
VERTEX
  8
0
 10
1705.6984
 20
1227.1473
 30
0.0000
  0
SEQEND
  0
POLYLINE
  6
continous
  8
BYBLOCK
 70
0
 66
1
  0
VERTEX
  8
0
 10
1716.6984
 20
1227.1473
 30
0.0000
  0
VERTEX
  8
0
 10
1716.6449
 20
1227.6886
 30
0.0000
  0
VERTEX
  8
0
 10
1716.4581
 20
1228.2844
 30
0.0000
  0
VERTEX
  8
0
 10
1716.1418
 20
1228.8522
 30
0.0000
  0
VERTEX
  8
0
 10
1715.7037
 20
1229.3780
 30
0.0000
  0
VERTEX
  8
0
 10
1715.1548
 20
1229.8489
 30
0.0000
  0
VERTEX
  8
0
 10
1714.5084
 20
1230.2533
 30
0.0000
  0
VERTEX
  8
0
 10
1713.7805
 20
1230.5812
 30
0.0000
  0
VERTEX
  8
0
 10
1712.9890
 20
1230.8245
 30
0.0000
  0
VERTEX
  8
0
 10
1712.0588
 20
1230.9885
 30
0.0000
  0
VERTEX
  8
0
 10
1711.1024
 20
1231.0358
 30
0.0000
  0
VERTEX
  8
0
 10
1710.1490
 20
1230.9650
 30
0.0000
  0
VERTEX
  8
0
 10
1709.2274
 20
1230.7781
 30
0.0000
  0
VERTEX
  8
0
 10
1708.4484
 20
1230.5154
 30
0.0000
  0
VERTEX
  8
0
 10
1707.7371
 20
1230.1697
 30
0.0000
  0
VERTEX
  8
0
 10
1707.3093
 20
1229.8973
 30
0.0000
  0
SEQEND
  0
POLYLINE
  6
continous
  8
BYBLOCK
 70
0
 66
1
  0
VERTEX
  8
0
 10
1715.0875
 20
1224.3973
 30
0.0000
  0
VERTEX
  8
0
 10
1715.6480
 20
1224.8614
 30
0.0000
  0
VERTEX
  8
0
 10
1716.0989
 20
1225.3817
 30
0.0000
  0
VERTEX
  8
0
 10
1716.4292
 20
1225.9455
 30
0.0000
  0
VERTEX
  8
0
 10
1716.6307
 20
1226.5390
 30
0.0000
  0
VERTEX
  8
0
 10
1716.6976
 20
1227.0795
 30
0.0000
  0
VERTEX
  8
0
 10
1716.6984
 20
1227.1473
 30
0.0000
  0
SEQEND
  0
POLYLINE
  6
continous
  8
BYBLOCK
 70
0
 66
1
  0
VERTEX
  8
0
 10
1663.2720
 20
1197.1473
 30
0.0000
  0
VERTEX
  8
0
 10
1663.3255
 20
1196.6061
 30
0.0000
  0
VERTEX
  8
0
 10
1663.5123
 20
1196.0103
 30
0.0000
  0
VERTEX
  8
0
 10
1663.8286
 20
1195.4425
 30
0.0000
  0
VERTEX
  8
0
 10
1664.2667
 20
1194.9167
 30
0.0000
  0
VERTEX
  8
0
 10
1664.8156
 20
1194.4458
 30
0.0000
  0
VERTEX
  8
0
 10
1665.4620
 20
1194.0414
 30
0.0000
  0
VERTEX
  8
0
 10
1666.1899
 20
1193.7135
 30
0.0000
  0
VERTEX
  8
0
 10
1666.9814
 20
1193.4701
 30
0.0000
  0
VERTEX
  8
0
 10
1667.9116
 20
1193.3061
 30
0.0000
  0
VERTEX
  8
0
 10
1668.8680
 20
1193.2588
 30
0.0000
  0
VERTEX
  8
0
 10
1669.8215
 20
1193.3297
 30
0.0000
  0
VERTEX
  8
0
 10
1670.7430
 20
1193.5166
 30
0.0000
  0
VERTEX
  8
0
 10
1671.5220
 20
1193.7793
 30
0.0000
  0
VERTEX
  8
0
 10
1672.2333
 20
1194.1250
 30
0.0000
  0
VERTEX
  8
0
 10
1672.6611
 20
1194.3973
 30
0.0000
  0
SEQEND
  0
POLYLINE
  6
continous
  8
BYBLOCK
 70
0
 66
1
  0
VERTEX
  8
0
 10
1664.8829
 20
1199.8973
 30
0.0000
  0
VERTEX
  8
0
 10
1664.3224
 20
1199.4333
 30
0.0000
  0
VERTEX
  8
0
 10
1663.8715
 20
1198.9129
 30
0.0000
  0
VERTEX
  8
0
 10
1663.5412
 20
1198.3491
 30
0.0000
  0
VERTEX
  8
0
 10
1663.3397
 20
1197.7557
 30
0.0000
  0
VERTEX
  8
0
 10
1663.2728
 20
1197.2152
 30
0.0000
  0
VERTEX
  8
0
 10
1663.2720
 20
1197.1473
 30
0.0000
  0
SEQEND
  0
POLYLINE
  6
continous
  8
BYBLOCK
 70
0
 66
1
  0
VERTEX
  8
0
 10
1674.2720
 20
1197.1473
 30
0.0000
  0
VERTEX
  8
0
 10
1674.2185
 20
1197.6886
 30
0.0000
  0
VERTEX
  8
0
 10
1674.0317
 20
1198.2844
 30
0.0000
  0
VERTEX
  8
0
 10
1673.7154
 20
1198.8522
 30
0.0000
  0
VERTEX
  8
0
 10
1673.2773
 20
1199.3780
 30
0.0000
  0
VERTEX
  8
0
 10
1672.7284
 20
1199.8489
 30
0.0000
  0
VERTEX
  8
0
 10
1672.0820
 20
1200.2533
 30
0.0000
  0
VERTEX
  8
0
 10
1671.3541
 20
1200.5812
 30
0.0000
  0
VERTEX
  8
0
 10
1670.5626
 20
1200.8245
 30
0.0000
  0
VERTEX
  8
0
 10
1669.6324
 20
1200.9885
 30
0.0000
  0
VERTEX
  8
0
 10
1668.6760
 20
1201.0358
 30
0.0000
  0
VERTEX
  8
0
 10
1667.7226
 20
1200.9650
 30
0.0000
  0
VERTEX
  8
0
 10
1666.8010
 20
1200.7781
 30
0.0000
  0
VERTEX
  8
0
 10
1666.0220
 20
1200.5154
 30
0.0000
  0
VERTEX
  8
0
 10
1665.3107
 20
1200.1697
 30
0.0000
  0
VERTEX
  8
0
 10
1664.8829
 20
1199.8973
 30
0.0000
  0
SEQEND
  0
POLYLINE
  6
continous
  8
BYBLOCK
 70
0
 66
1
  0
VERTEX
  8
0
 10
1672.6611
 20
1194.3973
 30
0.0000
  0
VERTEX
  8
0
 10
1673.2216
 20
1194.8614
 30
0.0000
  0
VERTEX
  8
0
 10
1673.6725
 20
1195.3817
 30
0.0000
  0
VERTEX
  8
0
 10
1674.0028
 20
1195.9455
 30
0.0000
  0
VERTEX
  8
0
 10
1674.2043
 20
1196.5390
 30
0.0000
  0
VERTEX
  8
0
 10
1674.2712
 20
1197.0795
 30
0.0000
  0
VERTEX
  8
0
 10
1674.2720
 20
1197.1473
 30
0.0000
  0
SEQEND
  0
POLYLINE
  6
continous
  8
BYBLOCK
 70
0
 66
1
  0
VERTEX
  8
0
 10
1620.8456
 20
1167.1473
 30
0.0000
  0
VERTEX
  8
0
 10
1620.8991
 20
1166.6061
 30
0.0000
  0
VERTEX
  8
0
 10
1621.0859
 20
1166.0103
 30
0.0000
  0
VERTEX
  8
0
 10
1621.4022
 20
1165.4425
 30
0.0000
  0
VERTEX
  8
0
 10
1621.8403
 20
1164.9167
 30
0.0000
  0
VERTEX
  8
0
 10
1622.3892
 20
1164.4458
 30
0.0000
  0
VERTEX
  8
0
 10
1623.0356
 20
1164.0414
 30
0.0000
  0
VERTEX
  8
0
 10
1623.7635
 20
1163.7135
 30
0.0000
  0
VERTEX
  8
0
 10
1624.5550
 20
1163.4701
 30
0.0000
  0
VERTEX
  8
0
 10
1625.4852
 20
1163.3061
 30
0.0000
  0
VERTEX
  8
0
 10
1626.4416
 20
1163.2588
 30
0.0000
  0
VERTEX
  8
0
 10
1627.3950
 20
1163.3297
 30
0.0000
  0
VERTEX
  8
0
 10
1628.3166
 20
1163.5166
 30
0.0000
  0
VERTEX
  8
0
 10
1629.0956
 20
1163.7793
 30
0.0000
  0
VERTEX
  8
0
 10
1629.8069
 20
1164.1250
 30
0.0000
  0
VERTEX
  8
0
 10
1630.2347
 20
1164.3973
 30
0.0000
  0
SEQEND
  0
POLYLINE
  6
continous
  8
BYBLOCK
 70
0
 66
1
  0
VERTEX
  8
0
 10
1622.4565
 20
1169.8973
 30
0.0000
  0
VERTEX
  8
0
 10
1621.8960
 20
1169.4333
 30
0.0000
  0
VERTEX
  8
0
 10
1621.4451
 20
1168.9129
 30
0.0000
  0
VERTEX
  8
0
 10
1621.1148
 20
1168.3491
 30
0.0000
  0
VERTEX
  8
0
 10
1620.9133
 20
1167.7557
 30
0.0000
  0
VERTEX
  8
0
 10
1620.8464
 20
1167.2152
 30
0.0000
  0
VERTEX
  8
0
 10
1620.8456
 20
1167.1473
 30
0.0000
  0
SEQEND
  0
POLYLINE
  6
continous
  8
BYBLOCK
 70
0
 66
1
  0
VERTEX
  8
0
 10
1631.8456
 20
1167.1473
 30
0.0000
  0
VERTEX
  8
0
 10
1631.7921
 20
1167.6886
 30
0.0000
  0
VERTEX
  8
0
 10
1631.6053
 20
1168.2844
 30
0.0000
  0
VERTEX
  8
0
 10
1631.2890
 20
1168.8522
 30
0.0000
  0
VERTEX
  8
0
 10
1630.8509
 20
1169.3780
 30
0.0000
  0
VERTEX
  8
0
 10
1630.3020
 20
1169.8489
 30
0.0000
  0
VERTEX
  8
0
 10
1629.6556
 20
1170.2533
 30
0.0000
  0
VERTEX
  8
0
 10
1628.9277
 20
1170.5812
 30
0.0000
  0
VERTEX
  8
0
 10
1628.1362
 20
1170.8245
 30
0.0000
  0
VERTEX
  8
0
 10
1627.2060
 20
1170.9885
 30
0.0000
  0
VERTEX
  8
0
 10
1626.2496
 20
1171.0358
 30
0.0000
  0
VERTEX
  8
0
 10
1625.2961
 20
1170.9650
 30
0.0000
  0
VERTEX
  8
0
 10
1624.3746
 20
1170.7781
 30
0.0000
  0
VERTEX
  8
0
 10
1623.5956
 20
1170.5154
 30
0.0000
  0
VERTEX
  8
0
 10
1622.8843
 20
1170.1697
 30
0.0000
  0
VERTEX
  8
0
 10
1622.4565
 20
1169.8973
 30
0.0000
  0
SEQEND
  0
POLYLINE
  6
continous
  8
BYBLOCK
 70
0
 66
1
  0
VERTEX
  8
0
 10
1630.2347
 20
1164.3973
 30
0.0000
  0
VERTEX
  8
0
 10
1630.7952
 20
1164.8614
 30
0.0000
  0
VERTEX
  8
0
 10
1631.2461
 20
1165.3817
 30
0.0000
  0
VERTEX
  8
0
 10
1631.5764
 20
1165.9455
 30
0.0000
  0
VERTEX
  8
0
 10
1631.7779
 20
1166.5390
 30
0.0000
  0
VERTEX
  8
0
 10
1631.8448
 20
1167.0795
 30
0.0000
  0
VERTEX
  8
0
 10
1631.8456
 20
1167.1473
 30
0.0000
  0
SEQEND
  0
POLYLINE
  6
continous
  8
BYBLOCK
 70
0
 66
1
  0
VERTEX
  8
0
 10
1578.4192
 20
1137.1473
 30
0.0000
  0
VERTEX
  8
0
 10
1578.4727
 20
1136.6061
 30
0.0000
  0
VERTEX
  8
0
 10
1578.6595
 20
1136.0103
 30
0.0000
  0
VERTEX
  8
0
 10
1578.9758
 20
1135.4425
 30
0.0000
  0
VERTEX
  8
0
 10
1579.4139
 20
1134.9167
 30
0.0000
  0
VERTEX
  8
0
 10
1579.9628
 20
1134.4458
 30
0.0000
  0
VERTEX
  8
0
 10
1580.6092
 20
1134.0414
 30
0.0000
  0
VERTEX
  8
0
 10
1581.3371
 20
1133.7135
 30
0.0000
  0
VERTEX
  8
0
 10
1582.1286
 20
1133.4701
 30
0.0000
  0
VERTEX
  8
0
 10
1583.0588
 20
1133.3061
 30
0.0000
  0
VERTEX
  8
0
 10
1584.0152
 20
1133.2588
 30
0.0000
  0
VERTEX
  8
0
 10
1584.9686
 20
1133.3297
 30
0.0000
  0
VERTEX
  8
0
 10
1585.8902
 20
1133.5166
 30
0.0000
  0
VERTEX
  8
0
 10
1586.6692
 20
1133.7793
 30
0.0000
  0
VERTEX
  8
0
 10
1587.3805
 20
1134.1250
 30
0.0000
  0
VERTEX
  8
0
 10
1587.8083
 20
1134.3973
 30
0.0000
  0
SEQEND
  0
POLYLINE
  6
continous
  8
BYBLOCK
 70
0
 66
1
  0
VERTEX
  8
0
 10
1580.0301
 20
1139.8973
 30
0.0000
  0
VERTEX
  8
0
 10
1579.4696
 20
1139.4333
 30
0.0000
  0
VERTEX
  8
0
 10
1579.0187
 20
1138.9129
 30
0.0000
  0
VERTEX
  8
0
 10
1578.6884
 20
1138.3491
 30
0.0000
  0
VERTEX
  8
0
 10
1578.4869
 20
1137.7557
 30
0.0000
  0
VERTEX
  8
0
 10
1578.4200
 20
1137.2152
 30
0.0000
  0
VERTEX
  8
0
 10
1578.4192
 20
1137.1473
 30
0.0000
  0
SEQEND
  0
POLYLINE
  6
continous
  8
BYBLOCK
 70
0
 66
1
  0
VERTEX
  8
0
 10
1589.4192
 20
1137.1473
 30
0.0000
  0
VERTEX
  8
0
 10
1589.3657
 20
1137.6886
 30
0.0000
  0
VERTEX
  8
0
 10
1589.1789
 20
1138.2844
 30
0.0000
  0
VERTEX
  8
0
 10
1588.8626
 20
1138.8522
 30
0.0000
  0
VERTEX
  8
0
 10
1588.4245
 20
1139.3780
 30
0.0000
  0
VERTEX
  8
0
 10
1587.8756
 20
1139.8489
 30
0.0000
  0
VERTEX
  8
0
 10
1587.2292
 20
1140.2533
 30
0.0000
  0
VERTEX
  8
0
 10
1586.5013
 20
1140.5812
 30
0.0000
  0
VERTEX
  8
0
 10
1585.7098
 20
1140.8245
 30
0.0000
  0
VERTEX
  8
0
 10
1584.7796
 20
1140.9885
 30
0.0000
  0
VERTEX
  8
0
 10
1583.8232
 20
1141.0358
 30
0.0000
  0
VERTEX
  8
0
 10
1582.8697
 20
1140.9650
 30
0.0000
  0
VERTEX
  8
0
 10
1581.9482
 20
1140.7781
 30
0.0000
  0
VERTEX
  8
0
 10
1581.1692
 20
1140.5154
 30
0.0000
  0
VERTEX
  8
0
 10
1580.4579
 20
1140.1697
 30
0.0000
  0
VERTEX
  8
0
 10
1580.0301
 20
1139.8973
 30
0.0000
  0
SEQEND
  0
POLYLINE
  6
continous
  8
BYBLOCK
 70
0
 66
1
  0
VERTEX
  8
0
 10
1587.8083
 20
1134.3973
 30
0.0000
  0
VERTEX
  8
0
 10
1588.3688
 20
1134.8614
 30
0.0000
  0
VERTEX
  8
0
 10
1588.8197
 20
1135.3817
 30
0.0000
  0
VERTEX
  8
0
 10
1589.1500
 20
1135.9455
 30
0.0000
  0
VERTEX
  8
0
 10
1589.3515
 20
1136.5390
 30
0.0000
  0
VERTEX
  8
0
 10
1589.4184
 20
1137.0795
 30
0.0000
  0
VERTEX
  8
0
 10
1589.4192
 20
1137.1473
 30
0.0000
  0
SEQEND
  0
POLYLINE
  6
continous
  8
BYBLOCK
 70
0
 66
1
  0
VERTEX
  8
0
 10
1535.9928
 20
1107.1473
 30
0.0000
  0
VERTEX
  8
0
 10
1536.0463
 20
1106.6061
 30
0.0000
  0
VERTEX
  8
0
 10
1536.2331
 20
1106.0103
 30
0.0000
  0
VERTEX
  8
0
 10
1536.5494
 20
1105.4425
 30
0.0000
  0
VERTEX
  8
0
 10
1536.9874
 20
1104.9167
 30
0.0000
  0
VERTEX
  8
0
 10
1537.5364
 20
1104.4458
 30
0.0000
  0
VERTEX
  8
0
 10
1538.1828
 20
1104.0414
 30
0.0000
  0
VERTEX
  8
0
 10
1538.9107
 20
1103.7135
 30
0.0000
  0
VERTEX
  8
0
 10
1539.7022
 20
1103.4701
 30
0.0000
  0
VERTEX
  8
0
 10
1540.6324
 20
1103.3061
 30
0.0000
  0
VERTEX
  8
0
 10
1541.5888
 20
1103.2588
 30
0.0000
  0
VERTEX
  8
0
 10
1542.5422
 20
1103.3297
 30
0.0000
  0
VERTEX
  8
0
 10
1543.4638
 20
1103.5166
 30
0.0000
  0
VERTEX
  8
0
 10
1544.2428
 20
1103.7793
 30
0.0000
  0
VERTEX
  8
0
 10
1544.9540
 20
1104.1250
 30
0.0000
  0
VERTEX
  8
0
 10
1545.3819
 20
1104.3973
 30
0.0000
  0
SEQEND
  0
POLYLINE
  6
continous
  8
BYBLOCK
 70
0
 66
1
  0
VERTEX
  8
0
 10
1537.6037
 20
1109.8973
 30
0.0000
  0
VERTEX
  8
0
 10
1537.0432
 20
1109.4333
 30
0.0000
  0
VERTEX
  8
0
 10
1536.5922
 20
1108.9129
 30
0.0000
  0
VERTEX
  8
0
 10
1536.2620
 20
1108.3491
 30
0.0000
  0
VERTEX
  8
0
 10
1536.0605
 20
1107.7557
 30
0.0000
  0
VERTEX
  8
0
 10
1535.9936
 20
1107.2152
 30
0.0000
  0
VERTEX
  8
0
 10
1535.9928
 20
1107.1473
 30
0.0000
  0
SEQEND
  0
POLYLINE
  6
continous
  8
BYBLOCK
 70
0
 66
1
  0
VERTEX
  8
0
 10
1546.9928
 20
1107.1473
 30
0.0000
  0
VERTEX
  8
0
 10
1546.9393
 20
1107.6886
 30
0.0000
  0
VERTEX
  8
0
 10
1546.7525
 20
1108.2844
 30
0.0000
  0
VERTEX
  8
0
 10
1546.4362
 20
1108.8522
 30
0.0000
  0
VERTEX
  8
0
 10
1545.9981
 20
1109.3780
 30
0.0000
  0
VERTEX
  8
0
 10
1545.4492
 20
1109.8489
 30
0.0000
  0
VERTEX
  8
0
 10
1544.8028
 20
1110.2533
 30
0.0000
  0
VERTEX
  8
0
 10
1544.0749
 20
1110.5812
 30
0.0000
  0
VERTEX
  8
0
 10
1543.2834
 20
1110.8245
 30
0.0000
  0
VERTEX
  8
0
 10
1542.3532
 20
1110.9885
 30
0.0000
  0
VERTEX
  8
0
 10
1541.3968
 20
1111.0358
 30
0.0000
  0
VERTEX
  8
0
 10
1540.4433
 20
1110.9650
 30
0.0000
  0
VERTEX
  8
0
 10
1539.5218
 20
1110.7781
 30
0.0000
  0
VERTEX
  8
0
 10
1538.7428
 20
1110.5154
 30
0.0000
  0
VERTEX
  8
0
 10
1538.0315
 20
1110.1697
 30
0.0000
  0
VERTEX
  8
0
 10
1537.6037
 20
1109.8973
 30
0.0000
  0
SEQEND
  0
POLYLINE
  6
continous
  8
BYBLOCK
 70
0
 66
1
  0
VERTEX
  8
0
 10
1545.3819
 20
1104.3973
 30
0.0000
  0
VERTEX
  8
0
 10
1545.9424
 20
1104.8614
 30
0.0000
  0
VERTEX
  8
0
 10
1546.3933
 20
1105.3817
 30
0.0000
  0
VERTEX
  8
0
 10
1546.7236
 20
1105.9455
 30
0.0000
  0
VERTEX
  8
0
 10
1546.9251
 20
1106.5390
 30
0.0000
  0
VERTEX
  8
0
 10
1546.9919
 20
1107.0795
 30
0.0000
  0
VERTEX
  8
0
 10
1546.9928
 20
1107.1473
 30
0.0000
  0
SEQEND
  0
POLYLINE
  6
continous
  8
BYBLOCK
 70
0
 66
1
  0
VERTEX
  8
0
 10
1493.5664
 20
1077.1473
 30
0.0000
  0
VERTEX
  8
0
 10
1493.6199
 20
1076.6061
 30
0.0000
  0
VERTEX
  8
0
 10
1493.8067
 20
1076.0103
 30
0.0000
  0
VERTEX
  8
0
 10
1494.1230
 20
1075.4425
 30
0.0000
  0
VERTEX
  8
0
 10
1494.5610
 20
1074.9167
 30
0.0000
  0
VERTEX
  8
0
 10
1495.1100
 20
1074.4458
 30
0.0000
  0
VERTEX
  8
0
 10
1495.7564
 20
1074.0414
 30
0.0000
  0
VERTEX
  8
0
 10
1496.4843
 20
1073.7135
 30
0.0000
  0
VERTEX
  8
0
 10
1497.2758
 20
1073.4701
 30
0.0000
  0
VERTEX
  8
0
 10
1498.2060
 20
1073.3061
 30
0.0000
  0
VERTEX
  8
0
 10
1499.1624
 20
1073.2588
 30
0.0000
  0
VERTEX
  8
0
 10
1500.1158
 20
1073.3297
 30
0.0000
  0
VERTEX
  8
0
 10
1501.0374
 20
1073.5166
 30
0.0000
  0
VERTEX
  8
0
 10
1501.8164
 20
1073.7793
 30
0.0000
  0
VERTEX
  8
0
 10
1502.5276
 20
1074.1250
 30
0.0000
  0
VERTEX
  8
0
 10
1502.9555
 20
1074.3973
 30
0.0000
  0
SEQEND
  0
POLYLINE
  6
continous
  8
BYBLOCK
 70
0
 66
1
  0
VERTEX
  8
0
 10
1495.1773
 20
1079.8973
 30
0.0000
  0
VERTEX
  8
0
 10
1494.6168
 20
1079.4333
 30
0.0000
  0
VERTEX
  8
0
 10
1494.1658
 20
1078.9129
 30
0.0000
  0
VERTEX
  8
0
 10
1493.8356
 20
1078.3491
 30
0.0000
  0
VERTEX
  8
0
 10
1493.6341
 20
1077.7557
 30
0.0000
  0
VERTEX
  8
0
 10
1493.5672
 20
1077.2152
 30
0.0000
  0
VERTEX
  8
0
 10
1493.5664
 20
1077.1473
 30
0.0000
  0
SEQEND
  0
POLYLINE
  6
continous
  8
BYBLOCK
 70
0
 66
1
  0
VERTEX
  8
0
 10
1504.5664
 20
1077.1473
 30
0.0000
  0
VERTEX
  8
0
 10
1504.5129
 20
1077.6886
 30
0.0000
  0
VERTEX
  8
0
 10
1504.3261
 20
1078.2844
 30
0.0000
  0
VERTEX
  8
0
 10
1504.0097
 20
1078.8522
 30
0.0000
  0
VERTEX
  8
0
 10
1503.5717
 20
1079.3780
 30
0.0000
  0
VERTEX
  8
0
 10
1503.0227
 20
1079.8489
 30
0.0000
  0
VERTEX
  8
0
 10
1502.3764
 20
1080.2533
 30
0.0000
  0
VERTEX
  8
0
 10
1501.6485
 20
1080.5812
 30
0.0000
  0
VERTEX
  8
0
 10
1500.8570
 20
1080.8245
 30
0.0000
  0
VERTEX
  8
0
 10
1499.9268
 20
1080.9885
 30
0.0000
  0
VERTEX
  8
0
 10
1498.9704
 20
1081.0358
 30
0.0000
  0
VERTEX
  8
0
 10
1498.0169
 20
1080.9650
 30
0.0000
  0
VERTEX
  8
0
 10
1497.0954
 20
1080.7781
 30
0.0000
  0
VERTEX
  8
0
 10
1496.3164
 20
1080.5154
 30
0.0000
  0
VERTEX
  8
0
 10
1495.6051
 20
1080.1697
 30
0.0000
  0
VERTEX
  8
0
 10
1495.1773
 20
1079.8973
 30
0.0000
  0
SEQEND
  0
POLYLINE
  6
continous
  8
BYBLOCK
 70
0
 66
1
  0
VERTEX
  8
0
 10
1502.9555
 20
1074.3973
 30
0.0000
  0
VERTEX
  8
0
 10
1503.5160
 20
1074.8614
 30
0.0000
  0
VERTEX
  8
0
 10
1503.9669
 20
1075.3817
 30
0.0000
  0
VERTEX
  8
0
 10
1504.2972
 20
1075.9455
 30
0.0000
  0
VERTEX
  8
0
 10
1504.4987
 20
1076.5390
 30
0.0000
  0
VERTEX
  8
0
 10
1504.5655
 20
1077.0795
 30
0.0000
  0
VERTEX
  8
0
 10
1504.5664
 20
1077.1473
 30
0.0000
  0
SEQEND
  0
POLYLINE
  6
continous
  8
BYBLOCK
 70
0
 66
1
  0
VERTEX
  8
0
 10
1451.1400
 20
1047.1473
 30
0.0000
  0
VERTEX
  8
0
 10
1451.1935
 20
1046.6061
 30
0.0000
  0
VERTEX
  8
0
 10
1451.3803
 20
1046.0103
 30
0.0000
  0
VERTEX
  8
0
 10
1451.6966
 20
1045.4425
 30
0.0000
  0
VERTEX
  8
0
 10
1452.1346
 20
1044.9167
 30
0.0000
  0
VERTEX
  8
0
 10
1452.6836
 20
1044.4458
 30
0.0000
  0
VERTEX
  8
0
 10
1453.3300
 20
1044.0414
 30
0.0000
  0
VERTEX
  8
0
 10
1454.0579
 20
1043.7135
 30
0.0000
  0
VERTEX
  8
0
 10
1454.8493
 20
1043.4701
 30
0.0000
  0
VERTEX
  8
0
 10
1455.7796
 20
1043.3061
 30
0.0000
  0
VERTEX
  8
0
 10
1456.7360
 20
1043.2588
 30
0.0000
  0
VERTEX
  8
0
 10
1457.6894
 20
1043.3297
 30
0.0000
  0
VERTEX
  8
0
 10
1458.6110
 20
1043.5166
 30
0.0000
  0
VERTEX
  8
0
 10
1459.3900
 20
1043.7793
 30
0.0000
  0
VERTEX
  8
0
 10
1460.1012
 20
1044.1250
 30
0.0000
  0
VERTEX
  8
0
 10
1460.5291
 20
1044.3973
 30
0.0000
  0
SEQEND
  0
POLYLINE
  6
continous
  8
BYBLOCK
 70
0
 66
1
  0
VERTEX
  8
0
 10
1452.7509
 20
1049.8973
 30
0.0000
  0
VERTEX
  8
0
 10
1452.1904
 20
1049.4333
 30
0.0000
  0
VERTEX
  8
0
 10
1451.7394
 20
1048.9129
 30
0.0000
  0
VERTEX
  8
0
 10
1451.4092
 20
1048.3491
 30
0.0000
  0
VERTEX
  8
0
 10
1451.2077
 20
1047.7557
 30
0.0000
  0
VERTEX
  8
0
 10
1451.1408
 20
1047.2152
 30
0.0000
  0
VERTEX
  8
0
 10
1451.1400
 20
1047.1473
 30
0.0000
  0
SEQEND
  0
POLYLINE
  6
continous
  8
BYBLOCK
 70
0
 66
1
  0
VERTEX
  8
0
 10
1462.1400
 20
1047.1473
 30
0.0000
  0
VERTEX
  8
0
 10
1462.0864
 20
1047.6886
 30
0.0000
  0
VERTEX
  8
0
 10
1461.8996
 20
1048.2844
 30
0.0000
  0
VERTEX
  8
0
 10
1461.5833
 20
1048.8522
 30
0.0000
  0
VERTEX
  8
0
 10
1461.1453
 20
1049.3780
 30
0.0000
  0
VERTEX
  8
0
 10
1460.5963
 20
1049.8489
 30
0.0000
  0
VERTEX
  8
0
 10
1459.9500
 20
1050.2533
 30
0.0000
  0
VERTEX
  8
0
 10
1459.2221
 20
1050.5812
 30
0.0000
  0
VERTEX
  8
0
 10
1458.4306
 20
1050.8245
 30
0.0000
  0
VERTEX
  8
0
 10
1457.5004
 20
1050.9885
 30
0.0000
  0
VERTEX
  8
0
 10
1456.5440
 20
1051.0358
 30
0.0000
  0
VERTEX
  8
0
 10
1455.5905
 20
1050.9650
 30
0.0000
  0
VERTEX
  8
0
 10
1454.6689
 20
1050.7781
 30
0.0000
  0
VERTEX
  8
0
 10
1453.8900
 20
1050.5154
 30
0.0000
  0
VERTEX
  8
0
 10
1453.1787
 20
1050.1697
 30
0.0000
  0
VERTEX
  8
0
 10
1452.7509
 20
1049.8973
 30
0.0000
  0
SEQEND
  0
POLYLINE
  6
continous
  8
BYBLOCK
 70
0
 66
1
  0
VERTEX
  8
0
 10
1460.5291
 20
1044.3973
 30
0.0000
  0
VERTEX
  8
0
 10
1461.0896
 20
1044.8614
 30
0.0000
  0
VERTEX
  8
0
 10
1461.5405
 20
1045.3817
 30
0.0000
  0
VERTEX
  8
0
 10
1461.8708
 20
1045.9455
 30
0.0000
  0
VERTEX
  8
0
 10
1462.0723
 20
1046.5390
 30
0.0000
  0
VERTEX
  8
0
 10
1462.1391
 20
1047.0795
 30
0.0000
  0
VERTEX
  8
0
 10
1462.1400
 20
1047.1473
 30
0.0000
  0
SEQEND
  0
POLYLINE
  6
continous
  8
BYBLOCK
 70
0
 66
1
  0
VERTEX
  8
0
 10
1408.7136
 20
1017.1473
 30
0.0000
  0
VERTEX
  8
0
 10
1408.7671
 20
1016.6061
 30
0.0000
  0
VERTEX
  8
0
 10
1408.9539
 20
1016.0103
 30
0.0000
  0
VERTEX
  8
0
 10
1409.2702
 20
1015.4425
 30
0.0000
  0
VERTEX
  8
0
 10
1409.7082
 20
1014.9167
 30
0.0000
  0
VERTEX
  8
0
 10
1410.2572
 20
1014.4458
 30
0.0000
  0
VERTEX
  8
0
 10
1410.9036
 20
1014.0414
 30
0.0000
  0
VERTEX
  8
0
 10
1411.6315
 20
1013.7135
 30
0.0000
  0
VERTEX
  8
0
 10
1412.4229
 20
1013.4701
 30
0.0000
  0
VERTEX
  8
0
 10
1413.3532
 20
1013.3061
 30
0.0000
  0
VERTEX
  8
0
 10
1414.3096
 20
1013.2588
 30
0.0000
  0
VERTEX
  8
0
 10
1415.2630
 20
1013.3297
 30
0.0000
  0
VERTEX
  8
0
 10
1416.1846
 20
1013.5166
 30
0.0000
  0
VERTEX
  8
0
 10
1416.9636
 20
1013.7793
 30
0.0000
  0
VERTEX
  8
0
 10
1417.6748
 20
1014.1250
 30
0.0000
  0
VERTEX
  8
0
 10
1418.1026
 20
1014.3973
 30
0.0000
  0
SEQEND
  0
POLYLINE
  6
continous
  8
BYBLOCK
 70
0
 66
1
  0
VERTEX
  8
0
 10
1410.3245
 20
1019.8973
 30
0.0000
  0
VERTEX
  8
0
 10
1409.7640
 20
1019.4333
 30
0.0000
  0
VERTEX
  8
0
 10
1409.3130
 20
1018.9129
 30
0.0000
  0
VERTEX
  8
0
 10
1408.9828
 20
1018.3491
 30
0.0000
  0
VERTEX
  8
0
 10
1408.7813
 20
1017.7557
 30
0.0000
  0
VERTEX
  8
0
 10
1408.7144
 20
1017.2152
 30
0.0000
  0
VERTEX
  8
0
 10
1408.7136
 20
1017.1473
 30
0.0000
  0
SEQEND
  0
POLYLINE
  6
continous
  8
BYBLOCK
 70
0
 66
1
  0
VERTEX
  8
0
 10
1419.7136
 20
1017.1473
 30
0.0000
  0
VERTEX
  8
0
 10
1419.6600
 20
1017.6886
 30
0.0000
  0
VERTEX
  8
0
 10
1419.4732
 20
1018.2844
 30
0.0000
  0
VERTEX
  8
0
 10
1419.1569
 20
1018.8522
 30
0.0000
  0
VERTEX
  8
0
 10
1418.7189
 20
1019.3780
 30
0.0000
  0
VERTEX
  8
0
 10
1418.1699
 20
1019.8489
 30
0.0000
  0
VERTEX
  8
0
 10
1417.5235
 20
1020.2533
 30
0.0000
  0
VERTEX
  8
0
 10
1416.7957
 20
1020.5812
 30
0.0000
  0
VERTEX
  8
0
 10
1416.0042
 20
1020.8245
 30
0.0000
  0
VERTEX
  8
0
 10
1415.0740
 20
1020.9885
 30
0.0000
  0
VERTEX
  8
0
 10
1414.1176
 20
1021.0358
 30
0.0000
  0
VERTEX
  8
0
 10
1413.1641
 20
1020.9650
 30
0.0000
  0
VERTEX
  8
0
 10
1412.2425
 20
1020.7781
 30
0.0000
  0
VERTEX
  8
0
 10
1411.4636
 20
1020.5154
 30
0.0000
  0
VERTEX
  8
0
 10
1410.7523
 20
1020.1697
 30
0.0000
  0
VERTEX
  8
0
 10
1410.3245
 20
1019.8973
 30
0.0000
  0
SEQEND
  0
POLYLINE
  6
continous
  8
BYBLOCK
 70
0
 66
1
  0
VERTEX
  8
0
 10
1418.1026
 20
1014.3973
 30
0.0000
  0
VERTEX
  8
0
 10
1418.6632
 20
1014.8614
 30
0.0000
  0
VERTEX
  8
0
 10
1419.1141
 20
1015.3817
 30
0.0000
  0
VERTEX
  8
0
 10
1419.4444
 20
1015.9455
 30
0.0000
  0
VERTEX
  8
0
 10
1419.6458
 20
1016.5390
 30
0.0000
  0
VERTEX
  8
0
 10
1419.7127
 20
1017.0795
 30
0.0000
  0
VERTEX
  8
0
 10
1419.7136
 20
1017.1473
 30
0.0000
  0
SEQEND
  0
POLYLINE
  6
continous
  8
BYBLOCK
 70
0
 66
1
  0
VERTEX
  8
0
 10
1366.2872
 20
987.1473
 30
0.0000
  0
VERTEX
  8
0
 10
1366.3407
 20
986.6061
 30
0.0000
  0
VERTEX
  8
0
 10
1366.5275
 20
986.0103
 30
0.0000
  0
VERTEX
  8
0
 10
1366.8438
 20
985.4425
 30
0.0000
  0
VERTEX
  8
0
 10
1367.2818
 20
984.9167
 30
0.0000
  0
VERTEX
  8
0
 10
1367.8308
 20
984.4458
 30
0.0000
  0
VERTEX
  8
0
 10
1368.4772
 20
984.0414
 30
0.0000
  0
VERTEX
  8
0
 10
1369.2051
 20
983.7135
 30
0.0000
  0
VERTEX
  8
0
 10
1369.9965
 20
983.4701
 30
0.0000
  0
VERTEX
  8
0
 10
1370.9268
 20
983.3061
 30
0.0000
  0
VERTEX
  8
0
 10
1371.8831
 20
983.2588
 30
0.0000
  0
VERTEX
  8
0
 10
1372.8366
 20
983.3297
 30
0.0000
  0
VERTEX
  8
0
 10
1373.7582
 20
983.5166
 30
0.0000
  0
VERTEX
  8
0
 10
1374.5372
 20
983.7793
 30
0.0000
  0
VERTEX
  8
0
 10
1375.2484
 20
984.1250
 30
0.0000
  0
VERTEX
  8
0
 10
1375.6762
 20
984.3973
 30
0.0000
  0
SEQEND
  0
POLYLINE
  6
continous
  8
BYBLOCK
 70
0
 66
1
  0
VERTEX
  8
0
 10
1367.8981
 20
989.8973
 30
0.0000
  0
VERTEX
  8
0
 10
1367.3376
 20
989.4333
 30
0.0000
  0
VERTEX
  8
0
 10
1366.8866
 20
988.9129
 30
0.0000
  0
VERTEX
  8
0
 10
1366.5563
 20
988.3491
 30
0.0000
  0
VERTEX
  8
0
 10
1366.3549
 20
987.7557
 30
0.0000
  0
VERTEX
  8
0
 10
1366.2880
 20
987.2152
 30
0.0000
  0
VERTEX
  8
0
 10
1366.2872
 20
987.1473
 30
0.0000
  0
SEQEND
  0
POLYLINE
  6
continous
  8
BYBLOCK
 70
0
 66
1
  0
VERTEX
  8
0
 10
1377.2872
 20
987.1473
 30
0.0000
  0
VERTEX
  8
0
 10
1377.2336
 20
987.6886
 30
0.0000
  0
VERTEX
  8
0
 10
1377.0468
 20
988.2844
 30
0.0000
  0
VERTEX
  8
0
 10
1376.7305
 20
988.8522
 30
0.0000
  0
VERTEX
  8
0
 10
1376.2925
 20
989.3780
 30
0.0000
  0
VERTEX
  8
0
 10
1375.7435
 20
989.8489
 30
0.0000
  0
VERTEX
  8
0
 10
1375.0971
 20
990.2533
 30
0.0000
  0
VERTEX
  8
0
 10
1374.3692
 20
990.5812
 30
0.0000
  0
VERTEX
  8
0
 10
1373.5778
 20
990.8245
 30
0.0000
  0
VERTEX
  8
0
 10
1372.6475
 20
990.9885
 30
0.0000
  0
VERTEX
  8
0
 10
1371.6912
 20
991.0358
 30
0.0000
  0
VERTEX
  8
0
 10
1370.7377
 20
990.9650
 30
0.0000
  0
VERTEX
  8
0
 10
1369.8161
 20
990.7781
 30
0.0000
  0
VERTEX
  8
0
 10
1369.0372
 20
990.5154
 30
0.0000
  0
VERTEX
  8
0
 10
1368.3259
 20
990.1697
 30
0.0000
  0
VERTEX
  8
0
 10
1367.8981
 20
989.8973
 30
0.0000
  0
SEQEND
  0
POLYLINE
  6
continous
  8
BYBLOCK
 70
0
 66
1
  0
VERTEX
  8
0
 10
1375.6762
 20
984.3973
 30
0.0000
  0
VERTEX
  8
0
 10
1376.2367
 20
984.8614
 30
0.0000
  0
VERTEX
  8
0
 10
1376.6877
 20
985.3817
 30
0.0000
  0
VERTEX
  8
0
 10
1377.0180
 20
985.9455
 30
0.0000
  0
VERTEX
  8
0
 10
1377.2194
 20
986.5390
 30
0.0000
  0
VERTEX
  8
0
 10
1377.2863
 20
987.0795
 30
0.0000
  0
VERTEX
  8
0
 10
1377.2872
 20
987.1473
 30
0.0000
  0
SEQEND
  0
POLYLINE
  6
continous
  8
BYBLOCK
 70
0
 66
1
  0
VERTEX
  8
0
 10
1323.8607
 20
957.1473
 30
0.0000
  0
VERTEX
  8
0
 10
1323.9143
 20
956.6061
 30
0.0000
  0
VERTEX
  8
0
 10
1324.1011
 20
956.0103
 30
0.0000
  0
VERTEX
  8
0
 10
1324.4174
 20
955.4425
 30
0.0000
  0
VERTEX
  8
0
 10
1324.8554
 20
954.9167
 30
0.0000
  0
VERTEX
  8
0
 10
1325.4044
 20
954.4458
 30
0.0000
  0
VERTEX
  8
0
 10
1326.0508
 20
954.0414
 30
0.0000
  0
VERTEX
  8
0
 10
1326.7787
 20
953.7135
 30
0.0000
  0
VERTEX
  8
0
 10
1327.5701
 20
953.4701
 30
0.0000
  0
VERTEX
  8
0
 10
1328.5004
 20
953.3061
 30
0.0000
  0
VERTEX
  8
0
 10
1329.4567
 20
953.2588
 30
0.0000
  0
VERTEX
  8
0
 10
1330.4102
 20
953.3297
 30
0.0000
  0
VERTEX
  8
0
 10
1331.3318
 20
953.5166
 30
0.0000
  0
VERTEX
  8
0
 10
1332.1107
 20
953.7793
 30
0.0000
  0
VERTEX
  8
0
 10
1332.8220
 20
954.1250
 30
0.0000
  0
VERTEX
  8
0
 10
1333.2498
 20
954.3973
 30
0.0000
  0
SEQEND
  0
POLYLINE
  6
continous
  8
BYBLOCK
 70
0
 66
1
  0
VERTEX
  8
0
 10
1325.4717
 20
959.8973
 30
0.0000
  0
VERTEX
  8
0
 10
1324.9112
 20
959.4333
 30
0.0000
  0
VERTEX
  8
0
 10
1324.4602
 20
958.9129
 30
0.0000
  0
VERTEX
  8
0
 10
1324.1299
 20
958.3491
 30
0.0000
  0
VERTEX
  8
0
 10
1323.9285
 20
957.7557
 30
0.0000
  0
VERTEX
  8
0
 10
1323.8616
 20
957.2152
 30
0.0000
  0
VERTEX
  8
0
 10
1323.8607
 20
957.1473
 30
0.0000
  0
SEQEND
  0
POLYLINE
  6
continous
  8
BYBLOCK
 70
0
 66
1
  0
VERTEX
  8
0
 10
1334.8607
 20
957.1473
 30
0.0000
  0
VERTEX
  8
0
 10
1334.8072
 20
957.6886
 30
0.0000
  0
VERTEX
  8
0
 10
1334.6204
 20
958.2844
 30
0.0000
  0
VERTEX
  8
0
 10
1334.3041
 20
958.8522
 30
0.0000
  0
VERTEX
  8
0
 10
1333.8661
 20
959.3780
 30
0.0000
  0
VERTEX
  8
0
 10
1333.3171
 20
959.8489
 30
0.0000
  0
VERTEX
  8
0
 10
1332.6707
 20
960.2533
 30
0.0000
  0
VERTEX
  8
0
 10
1331.9428
 20
960.5812
 30
0.0000
  0
VERTEX
  8
0
 10
1331.1514
 20
960.8245
 30
0.0000
  0
VERTEX
  8
0
 10
1330.2211
 20
960.9885
 30
0.0000
  0
VERTEX
  8
0
 10
1329.2648
 20
961.0358
 30
0.0000
  0
VERTEX
  8
0
 10
1328.3113
 20
960.9650
 30
0.0000
  0
VERTEX
  8
0
 10
1327.3897
 20
960.7781
 30
0.0000
  0
VERTEX
  8
0
 10
1326.6107
 20
960.5154
 30
0.0000
  0
VERTEX
  8
0
 10
1325.8995
 20
960.1697
 30
0.0000
  0
VERTEX
  8
0
 10
1325.4717
 20
959.8973
 30
0.0000
  0
SEQEND
  0
POLYLINE
  6
continous
  8
BYBLOCK
 70
0
 66
1
  0
VERTEX
  8
0
 10
1333.2498
 20
954.3973
 30
0.0000
  0
VERTEX
  8
0
 10
1333.8103
 20
954.8614
 30
0.0000
  0
VERTEX
  8
0
 10
1334.2613
 20
955.3817
 30
0.0000
  0
VERTEX
  8
0
 10
1334.5916
 20
955.9455
 30
0.0000
  0
VERTEX
  8
0
 10
1334.7930
 20
956.5390
 30
0.0000
  0
VERTEX
  8
0
 10
1334.8599
 20
957.0795
 30
0.0000
  0
VERTEX
  8
0
 10
1334.8607
 20
957.1473
 30
0.0000
  0
SEQEND
  0
POLYLINE
  6
continous
  8
BYBLOCK
 70
0
 66
1
  0
VERTEX
  8
0
 10
1281.4343
 20
927.1473
 30
0.0000
  0
VERTEX
  8
0
 10
1281.4879
 20
926.6061
 30
0.0000
  0
VERTEX
  8
0
 10
1281.6747
 20
926.0103
 30
0.0000
  0
VERTEX
  8
0
 10
1281.9910
 20
925.4425
 30
0.0000
  0
VERTEX
  8
0
 10
1282.4290
 20
924.9167
 30
0.0000
  0
VERTEX
  8
0
 10
1282.9780
 20
924.4458
 30
0.0000
  0
VERTEX
  8
0
 10
1283.6244
 20
924.0414
 30
0.0000
  0
VERTEX
  8
0
 10
1284.3522
 20
923.7135
 30
0.0000
  0
VERTEX
  8
0
 10
1285.1437
 20
923.4701
 30
0.0000
  0
VERTEX
  8
0
 10
1286.0740
 20
923.3061
 30
0.0000
  0
VERTEX
  8
0
 10
1287.0303
 20
923.2588
 30
0.0000
  0
VERTEX
  8
0
 10
1287.9838
 20
923.3297
 30
0.0000
  0
VERTEX
  8
0
 10
1288.9054
 20
923.5166
 30
0.0000
  0
VERTEX
  8
0
 10
1289.6843
 20
923.7793
 30
0.0000
  0
VERTEX
  8
0
 10
1290.3956
 20
924.1250
 30
0.0000
  0
VERTEX
  8
0
 10
1290.8234
 20
924.3973
 30
0.0000
  0
SEQEND
  0
POLYLINE
  6
continous
  8
BYBLOCK
 70
0
 66
1
  0
VERTEX
  8
0
 10
1283.0453
 20
929.8973
 30
0.0000
  0
VERTEX
  8
0
 10
1282.4847
 20
929.4333
 30
0.0000
  0
VERTEX
  8
0
 10
1282.0338
 20
928.9129
 30
0.0000
  0
VERTEX
  8
0
 10
1281.7035
 20
928.3491
 30
0.0000
  0
VERTEX
  8
0
 10
1281.5021
 20
927.7557
 30
0.0000
  0
VERTEX
  8
0
 10
1281.4352
 20
927.2152
 30
0.0000
  0
VERTEX
  8
0
 10
1281.4343
 20
927.1473
 30
0.0000
  0
SEQEND
  0
POLYLINE
  6
continous
  8
BYBLOCK
 70
0
 66
1
  0
VERTEX
  8
0
 10
1292.4343
 20
927.1473
 30
0.0000
  0
VERTEX
  8
0
 10
1292.3808
 20
927.6886
 30
0.0000
  0
VERTEX
  8
0
 10
1292.1940
 20
928.2844
 30
0.0000
  0
VERTEX
  8
0
 10
1291.8777
 20
928.8522
 30
0.0000
  0
VERTEX
  8
0
 10
1291.4397
 20
929.3780
 30
0.0000
  0
VERTEX
  8
0
 10
1290.8907
 20
929.8489
 30
0.0000
  0
VERTEX
  8
0
 10
1290.2443
 20
930.2533
 30
0.0000
  0
VERTEX
  8
0
 10
1289.5164
 20
930.5812
 30
0.0000
  0
VERTEX
  8
0
 10
1288.7250
 20
930.8245
 30
0.0000
  0
VERTEX
  8
0
 10
1287.7947
 20
930.9885
 30
0.0000
  0
VERTEX
  8
0
 10
1286.8384
 20
931.0358
 30
0.0000
  0
VERTEX
  8
0
 10
1285.8849
 20
930.9650
 30
0.0000
  0
VERTEX
  8
0
 10
1284.9633
 20
930.7781
 30
0.0000
  0
VERTEX
  8
0
 10
1284.1843
 20
930.5154
 30
0.0000
  0
VERTEX
  8
0
 10
1283.4731
 20
930.1697
 30
0.0000
  0
VERTEX
  8
0
 10
1283.0453
 20
929.8973
 30
0.0000
  0
SEQEND
  0
POLYLINE
  6
continous
  8
BYBLOCK
 70
0
 66
1
  0
VERTEX
  8
0
 10
1290.8234
 20
924.3973
 30
0.0000
  0
VERTEX
  8
0
 10
1291.3839
 20
924.8614
 30
0.0000
  0
VERTEX
  8
0
 10
1291.8349
 20
925.3817
 30
0.0000
  0
VERTEX
  8
0
 10
1292.1652
 20
925.9455
 30
0.0000
  0
VERTEX
  8
0
 10
1292.3666
 20
926.5390
 30
0.0000
  0
VERTEX
  8
0
 10
1292.4335
 20
927.0795
 30
0.0000
  0
VERTEX
  8
0
 10
1292.4343
 20
927.1473
 30
0.0000
  0
SEQEND
  0
POLYLINE
  6
continous
  8
BYBLOCK
 70
0
 66
1
  0
VERTEX
  8
0
 10
1239.0079
 20
897.1473
 30
0.0000
  0
VERTEX
  8
0
 10
1239.0615
 20
896.6061
 30
0.0000
  0
VERTEX
  8
0
 10
1239.2483
 20
896.0103
 30
0.0000
  0
VERTEX
  8
0
 10
1239.5646
 20
895.4425
 30
0.0000
  0
VERTEX
  8
0
 10
1240.0026
 20
894.9167
 30
0.0000
  0
VERTEX
  8
0
 10
1240.5516
 20
894.4458
 30
0.0000
  0
VERTEX
  8
0
 10
1241.1980
 20
894.0414
 30
0.0000
  0
VERTEX
  8
0
 10
1241.9258
 20
893.7135
 30
0.0000
  0
VERTEX
  8
0
 10
1242.7173
 20
893.4701
 30
0.0000
  0
VERTEX
  8
0
 10
1243.6475
 20
893.3061
 30
0.0000
  0
VERTEX
  8
0
 10
1244.6039
 20
893.2588
 30
0.0000
  0
VERTEX
  8
0
 10
1245.5574
 20
893.3297
 30
0.0000
  0
VERTEX
  8
0
 10
1246.4790
 20
893.5166
 30
0.0000
  0
VERTEX
  8
0
 10
1247.2579
 20
893.7793
 30
0.0000
  0
VERTEX
  8
0
 10
1247.9692
 20
894.1250
 30
0.0000
  0
VERTEX
  8
0
 10
1248.3970
 20
894.3973
 30
0.0000
  0
SEQEND
  0
POLYLINE
  6
continous
  8
BYBLOCK
 70
0
 66
1
  0
VERTEX
  8
0
 10
1240.6188
 20
899.8973
 30
0.0000
  0
VERTEX
  8
0
 10
1240.0583
 20
899.4333
 30
0.0000
  0
VERTEX
  8
0
 10
1239.6074
 20
898.9129
 30
0.0000
  0
VERTEX
  8
0
 10
1239.2771
 20
898.3491
 30
0.0000
  0
VERTEX
  8
0
 10
1239.0756
 20
897.7557
 30
0.0000
  0
VERTEX
  8
0
 10
1239.0088
 20
897.2152
 30
0.0000
  0
VERTEX
  8
0
 10
1239.0079
 20
897.1473
 30
0.0000
  0
SEQEND
  0
POLYLINE
  6
continous
  8
BYBLOCK
 70
0
 66
1
  0
VERTEX
  8
0
 10
1250.0079
 20
897.1473
 30
0.0000
  0
VERTEX
  8
0
 10
1249.9544
 20
897.6886
 30
0.0000
  0
VERTEX
  8
0
 10
1249.7676
 20
898.2844
 30
0.0000
  0
VERTEX
  8
0
 10
1249.4513
 20
898.8522
 30
0.0000
  0
VERTEX
  8
0
 10
1249.0133
 20
899.3780
 30
0.0000
  0
VERTEX
  8
0
 10
1248.4643
 20
899.8489
 30
0.0000
  0
VERTEX
  8
0
 10
1247.8179
 20
900.2533
 30
0.0000
  0
VERTEX
  8
0
 10
1247.0900
 20
900.5812
 30
0.0000
  0
VERTEX
  8
0
 10
1246.2986
 20
900.8245
 30
0.0000
  0
VERTEX
  8
0
 10
1245.3683
 20
900.9885
 30
0.0000
  0
VERTEX
  8
0
 10
1244.4119
 20
901.0358
 30
0.0000
  0
VERTEX
  8
0
 10
1243.4585
 20
900.9650
 30
0.0000
  0
VERTEX
  8
0
 10
1242.5369
 20
900.7781
 30
0.0000
  0
VERTEX
  8
0
 10
1241.7579
 20
900.5154
 30
0.0000
  0
VERTEX
  8
0
 10
1241.0467
 20
900.1697
 30
0.0000
  0
VERTEX
  8
0
 10
1240.6188
 20
899.8973
 30
0.0000
  0
SEQEND
  0
POLYLINE
  6
continous
  8
BYBLOCK
 70
0
 66
1
  0
VERTEX
  8
0
 10
1248.3970
 20
894.3973
 30
0.0000
  0
VERTEX
  8
0
 10
1248.9575
 20
894.8614
 30
0.0000
  0
VERTEX
  8
0
 10
1249.4085
 20
895.3817
 30
0.0000
  0
VERTEX
  8
0
 10
1249.7387
 20
895.9455
 30
0.0000
  0
VERTEX
  8
0
 10
1249.9402
 20
896.5390
 30
0.0000
  0
VERTEX
  8
0
 10
1250.0071
 20
897.0795
 30
0.0000
  0
VERTEX
  8
0
 10
1250.0079
 20
897.1473
 30
0.0000
  0
SEQEND
  0
POLYLINE
  6
continous
  8
BYBLOCK
 70
0
 66
1
  0
VERTEX
  8
0
 10
1196.5815
 20
867.1473
 30
0.0000
  0
VERTEX
  8
0
 10
1196.6351
 20
866.6061
 30
0.0000
  0
VERTEX
  8
0
 10
1196.8219
 20
866.0103
 30
0.0000
  0
VERTEX
  8
0
 10
1197.1382
 20
865.4425
 30
0.0000
  0
VERTEX
  8
0
 10
1197.5762
 20
864.9167
 30
0.0000
  0
VERTEX
  8
0
 10
1198.1252
 20
864.4458
 30
0.0000
  0
VERTEX
  8
0
 10
1198.7715
 20
864.0414
 30
0.0000
  0
VERTEX
  8
0
 10
1199.4994
 20
863.7135
 30
0.0000
  0
VERTEX
  8
0
 10
1200.2909
 20
863.4701
 30
0.0000
  0
VERTEX
  8
0
 10
1201.2211
 20
863.3061
 30
0.0000
  0
VERTEX
  8
0
 10
1202.1775
 20
863.2588
 30
0.0000
  0
VERTEX
  8
0
 10
1203.1310
 20
863.3297
 30
0.0000
  0
VERTEX
  8
0
 10
1204.0526
 20
863.5166
 30
0.0000
  0
VERTEX
  8
0
 10
1204.8315
 20
863.7793
 30
0.0000
  0
VERTEX
  8
0
 10
1205.5428
 20
864.1250
 30
0.0000
  0
VERTEX
  8
0
 10
1205.9706
 20
864.3973
 30
0.0000
  0
SEQEND
  0
POLYLINE
  6
continous
  8
BYBLOCK
 70
0
 66
1
  0
VERTEX
  8
0
 10
1198.1924
 20
869.8973
 30
0.0000
  0
VERTEX
  8
0
 10
1197.6319
 20
869.4333
 30
0.0000
  0
VERTEX
  8
0
 10
1197.1810
 20
868.9129
 30
0.0000
  0
VERTEX
  8
0
 10
1196.8507
 20
868.3491
 30
0.0000
  0
VERTEX
  8
0
 10
1196.6492
 20
867.7557
 30
0.0000
  0
VERTEX
  8
0
 10
1196.5824
 20
867.2152
 30
0.0000
  0
VERTEX
  8
0
 10
1196.5815
 20
867.1473
 30
0.0000
  0
SEQEND
  0
POLYLINE
  6
continous
  8
BYBLOCK
 70
0
 66
1
  0
VERTEX
  8
0
 10
1207.5815
 20
867.1473
 30
0.0000
  0
VERTEX
  8
0
 10
1207.5280
 20
867.6886
 30
0.0000
  0
VERTEX
  8
0
 10
1207.3412
 20
868.2844
 30
0.0000
  0
VERTEX
  8
0
 10
1207.0249
 20
868.8522
 30
0.0000
  0
VERTEX
  8
0
 10
1206.5869
 20
869.3780
 30
0.0000
  0
VERTEX
  8
0
 10
1206.0379
 20
869.8489
 30
0.0000
  0
VERTEX
  8
0
 10
1205.3915
 20
870.2533
 30
0.0000
  0
VERTEX
  8
0
 10
1204.6636
 20
870.5812
 30
0.0000
  0
VERTEX
  8
0
 10
1203.8722
 20
870.8245
 30
0.0000
  0
VERTEX
  8
0
 10
1202.9419
 20
870.9885
 30
0.0000
  0
VERTEX
  8
0
 10
1201.9855
 20
871.0358
 30
0.0000
  0
VERTEX
  8
0
 10
1201.0321
 20
870.9650
 30
0.0000
  0
VERTEX
  8
0
 10
1200.1105
 20
870.7781
 30
0.0000
  0
VERTEX
  8
0
 10
1199.3315
 20
870.5154
 30
0.0000
  0
VERTEX
  8
0
 10
1198.6203
 20
870.1697
 30
0.0000
  0
VERTEX
  8
0
 10
1198.1924
 20
869.8973
 30
0.0000
  0
SEQEND
  0
POLYLINE
  6
continous
  8
BYBLOCK
 70
0
 66
1
  0
VERTEX
  8
0
 10
1205.9706
 20
864.3973
 30
0.0000
  0
VERTEX
  8
0
 10
1206.5311
 20
864.8614
 30
0.0000
  0
VERTEX
  8
0
 10
1206.9821
 20
865.3817
 30
0.0000
  0
VERTEX
  8
0
 10
1207.3123
 20
865.9455
 30
0.0000
  0
VERTEX
  8
0
 10
1207.5138
 20
866.5390
 30
0.0000
  0
VERTEX
  8
0
 10
1207.5807
 20
867.0795
 30
0.0000
  0
VERTEX
  8
0
 10
1207.5815
 20
867.1473
 30
0.0000
  0
SEQEND
  0
POLYLINE
  6
continous
  8
BYBLOCK
 70
0
 66
1
  0
VERTEX
  8
0
 10
1154.1551
 20
837.1473
 30
0.0000
  0
VERTEX
  8
0
 10
1154.2086
 20
836.6061
 30
0.0000
  0
VERTEX
  8
0
 10
1154.3954
 20
836.0103
 30
0.0000
  0
VERTEX
  8
0
 10
1154.7118
 20
835.4425
 30
0.0000
  0
VERTEX
  8
0
 10
1155.1498
 20
834.9167
 30
0.0000
  0
VERTEX
  8
0
 10
1155.6988
 20
834.4458
 30
0.0000
  0
VERTEX
  8
0
 10
1156.3451
 20
834.0414
 30
0.0000
  0
VERTEX
  8
0
 10
1157.0730
 20
833.7135
 30
0.0000
  0
VERTEX
  8
0
 10
1157.8645
 20
833.4701
 30
0.0000
  0
VERTEX
  8
0
 10
1158.7947
 20
833.3061
 30
0.0000
  0
VERTEX
  8
0
 10
1159.7511
 20
833.2588
 30
0.0000
  0
VERTEX
  8
0
 10
1160.7046
 20
833.3297
 30
0.0000
  0
VERTEX
  8
0
 10
1161.6261
 20
833.5166
 30
0.0000
  0
VERTEX
  8
0
 10
1162.4051
 20
833.7793
 30
0.0000
  0
VERTEX
  8
0
 10
1163.1164
 20
834.1250
 30
0.0000
  0
VERTEX
  8
0
 10
1163.5442
 20
834.3973
 30
0.0000
  0
SEQEND
  0
POLYLINE
  6
continous
  8
BYBLOCK
 70
0
 66
1
  0
VERTEX
  8
0
 10
1155.7660
 20
839.8973
 30
0.0000
  0
VERTEX
  8
0
 10
1155.2055
 20
839.4333
 30
0.0000
  0
VERTEX
  8
0
 10
1154.7546
 20
838.9129
 30
0.0000
  0
VERTEX
  8
0
 10
1154.4243
 20
838.3491
 30
0.0000
  0
VERTEX
  8
0
 10
1154.2228
 20
837.7557
 30
0.0000
  0
VERTEX
  8
0
 10
1154.1560
 20
837.2152
 30
0.0000
  0
VERTEX
  8
0
 10
1154.1551
 20
837.1473
 30
0.0000
  0
SEQEND
  0
POLYLINE
  6
continous
  8
BYBLOCK
 70
0
 66
1
  0
VERTEX
  8
0
 10
1165.1551
 20
837.1473
 30
0.0000
  0
VERTEX
  8
0
 10
1165.1016
 20
837.6886
 30
0.0000
  0
VERTEX
  8
0
 10
1164.9148
 20
838.2844
 30
0.0000
  0
VERTEX
  8
0
 10
1164.5985
 20
838.8522
 30
0.0000
  0
VERTEX
  8
0
 10
1164.1605
 20
839.3780
 30
0.0000
  0
VERTEX
  8
0
 10
1163.6115
 20
839.8489
 30
0.0000
  0
VERTEX
  8
0
 10
1162.9651
 20
840.2533
 30
0.0000
  0
VERTEX
  8
0
 10
1162.2372
 20
840.5812
 30
0.0000
  0
VERTEX
  8
0
 10
1161.4457
 20
840.8245
 30
0.0000
  0
VERTEX
  8
0
 10
1160.5155
 20
840.9885
 30
0.0000
  0
VERTEX
  8
0
 10
1159.5591
 20
841.0358
 30
0.0000
  0
VERTEX
  8
0
 10
1158.6057
 20
840.9650
 30
0.0000
  0
VERTEX
  8
0
 10
1157.6841
 20
840.7781
 30
0.0000
  0
VERTEX
  8
0
 10
1156.9051
 20
840.5154
 30
0.0000
  0
VERTEX
  8
0
 10
1156.1939
 20
840.1697
 30
0.0000
  0
VERTEX
  8
0
 10
1155.7660
 20
839.8973
 30
0.0000
  0
SEQEND
  0
POLYLINE
  6
continous
  8
BYBLOCK
 70
0
 66
1
  0
VERTEX
  8
0
 10
1163.5442
 20
834.3973
 30
0.0000
  0
VERTEX
  8
0
 10
1164.1047
 20
834.8614
 30
0.0000
  0
VERTEX
  8
0
 10
1164.5557
 20
835.3817
 30
0.0000
  0
VERTEX
  8
0
 10
1164.8859
 20
835.9455
 30
0.0000
  0
VERTEX
  8
0
 10
1165.0874
 20
836.5390
 30
0.0000
  0
VERTEX
  8
0
 10
1165.1543
 20
837.0795
 30
0.0000
  0
VERTEX
  8
0
 10
1165.1551
 20
837.1473
 30
0.0000
  0
SEQEND
  0
POLYLINE
  6
continous
  8
BYBLOCK
 70
0
 66
1
  0
VERTEX
  8
0
 10
1111.7287
 20
807.1473
 30
0.0000
  0
VERTEX
  8
0
 10
1111.7822
 20
806.6061
 30
0.0000
  0
VERTEX
  8
0
 10
1111.9690
 20
806.0103
 30
0.0000
  0
VERTEX
  8
0
 10
1112.2853
 20
805.4425
 30
0.0000
  0
VERTEX
  8
0
 10
1112.7234
 20
804.9167
 30
0.0000
  0
VERTEX
  8
0
 10
1113.2723
 20
804.4458
 30
0.0000
  0
VERTEX
  8
0
 10
1113.9187
 20
804.0414
 30
0.0000
  0
VERTEX
  8
0
 10
1114.6466
 20
803.7135
 30
0.0000
  0
VERTEX
  8
0
 10
1115.4381
 20
803.4701
 30
0.0000
  0
VERTEX
  8
0
 10
1116.3683
 20
803.3061
 30
0.0000
  0
VERTEX
  8
0
 10
1117.3247
 20
803.2588
 30
0.0000
  0
VERTEX
  8
0
 10
1118.2782
 20
803.3297
 30
0.0000
  0
VERTEX
  8
0
 10
1119.1997
 20
803.5166
 30
0.0000
  0
VERTEX
  8
0
 10
1119.9787
 20
803.7793
 30
0.0000
  0
VERTEX
  8
0
 10
1120.6900
 20
804.1250
 30
0.0000
  0
VERTEX
  8
0
 10
1121.1178
 20
804.3973
 30
0.0000
  0
SEQEND
  0
POLYLINE
  6
continous
  8
BYBLOCK
 70
0
 66
1
  0
VERTEX
  8
0
 10
1113.3396
 20
809.8973
 30
0.0000
  0
VERTEX
  8
0
 10
1112.7791
 20
809.4333
 30
0.0000
  0
VERTEX
  8
0
 10
1112.3282
 20
808.9129
 30
0.0000
  0
VERTEX
  8
0
 10
1111.9979
 20
808.3491
 30
0.0000
  0
VERTEX
  8
0
 10
1111.7964
 20
807.7557
 30
0.0000
  0
VERTEX
  8
0
 10
1111.7296
 20
807.2152
 30
0.0000
  0
VERTEX
  8
0
 10
1111.7287
 20
807.1473
 30
0.0000
  0
SEQEND
  0
POLYLINE
  6
continous
  8
BYBLOCK
 70
0
 66
1
  0
VERTEX
  8
0
 10
1122.7287
 20
807.1473
 30
0.0000
  0
VERTEX
  8
0
 10
1122.6752
 20
807.6886
 30
0.0000
  0
VERTEX
  8
0
 10
1122.4884
 20
808.2844
 30
0.0000
  0
VERTEX
  8
0
 10
1122.1721
 20
808.8522
 30
0.0000
  0
VERTEX
  8
0
 10
1121.7341
 20
809.3780
 30
0.0000
  0
VERTEX
  8
0
 10
1121.1851
 20
809.8489
 30
0.0000
  0
VERTEX
  8
0
 10
1120.5387
 20
810.2533
 30
0.0000
  0
VERTEX
  8
0
 10
1119.8108
 20
810.5812
 30
0.0000
  0
VERTEX
  8
0
 10
1119.0193
 20
810.8245
 30
0.0000
  0
VERTEX
  8
0
 10
1118.0891
 20
810.9885
 30
0.0000
  0
VERTEX
  8
0
 10
1117.1327
 20
811.0358
 30
0.0000
  0
VERTEX
  8
0
 10
1116.1793
 20
810.9650
 30
0.0000
  0
VERTEX
  8
0
 10
1115.2577
 20
810.7781
 30
0.0000
  0
VERTEX
  8
0
 10
1114.4787
 20
810.5154
 30
0.0000
  0
VERTEX
  8
0
 10
1113.7675
 20
810.1697
 30
0.0000
  0
VERTEX
  8
0
 10
1113.3396
 20
809.8973
 30
0.0000
  0
SEQEND
  0
POLYLINE
  6
continous
  8
BYBLOCK
 70
0
 66
1
  0
VERTEX
  8
0
 10
1121.1178
 20
804.3973
 30
0.0000
  0
VERTEX
  8
0
 10
1121.6783
 20
804.8614
 30
0.0000
  0
VERTEX
  8
0
 10
1122.1293
 20
805.3817
 30
0.0000
  0
VERTEX
  8
0
 10
1122.4595
 20
805.9455
 30
0.0000
  0
VERTEX
  8
0
 10
1122.6610
 20
806.5390
 30
0.0000
  0
VERTEX
  8
0
 10
1122.7279
 20
807.0795
 30
0.0000
  0
VERTEX
  8
0
 10
1122.7287
 20
807.1473
 30
0.0000
  0
SEQEND
  0
POLYLINE
  6
continous
  8
BYBLOCK
 70
0
 66
1
  0
VERTEX
  8
0
 10
1069.3023
 20
777.1473
 30
0.0000
  0
VERTEX
  8
0
 10
1069.3558
 20
776.6061
 30
0.0000
  0
VERTEX
  8
0
 10
1069.5426
 20
776.0103
 30
0.0000
  0
VERTEX
  8
0
 10
1069.8589
 20
775.4425
 30
0.0000
  0
VERTEX
  8
0
 10
1070.2970
 20
774.9167
 30
0.0000
  0
VERTEX
  8
0
 10
1070.8459
 20
774.4458
 30
0.0000
  0
VERTEX
  8
0
 10
1071.4923
 20
774.0414
 30
0.0000
  0
VERTEX
  8
0
 10
1072.2202
 20
773.7135
 30
0.0000
  0
VERTEX
  8
0
 10
1073.0117
 20
773.4701
 30
0.0000
  0
VERTEX
  8
0
 10
1073.9419
 20
773.3061
 30
0.0000
  0
VERTEX
  8
0
 10
1074.8983
 20
773.2588
 30
0.0000
  0
VERTEX
  8
0
 10
1075.8518
 20
773.3297
 30
0.0000
  0
VERTEX
  8
0
 10
1076.7733
 20
773.5166
 30
0.0000
  0
VERTEX
  8
0
 10
1077.5523
 20
773.7793
 30
0.0000
  0
VERTEX
  8
0
 10
1078.2636
 20
774.1250
 30
0.0000
  0
VERTEX
  8
0
 10
1078.6914
 20
774.3973
 30
0.0000
  0
SEQEND
  0
POLYLINE
  6
continous
  8
BYBLOCK
 70
0
 66
1
  0
VERTEX
  8
0
 10
1070.9132
 20
779.8973
 30
0.0000
  0
VERTEX
  8
0
 10
1070.3527
 20
779.4333
 30
0.0000
  0
VERTEX
  8
0
 10
1069.9018
 20
778.9129
 30
0.0000
  0
VERTEX
  8
0
 10
1069.5715
 20
778.3491
 30
0.0000
  0
VERTEX
  8
0
 10
1069.3700
 20
777.7557
 30
0.0000
  0
VERTEX
  8
0
 10
1069.3031
 20
777.2152
 30
0.0000
  0
VERTEX
  8
0
 10
1069.3023
 20
777.1473
 30
0.0000
  0
SEQEND
  0
POLYLINE
  6
continous
  8
BYBLOCK
 70
0
 66
1
  0
VERTEX
  8
0
 10
1080.3023
 20
777.1473
 30
0.0000
  0
VERTEX
  8
0
 10
1080.2488
 20
777.6886
 30
0.0000
  0
VERTEX
  8
0
 10
1080.0620
 20
778.2844
 30
0.0000
  0
VERTEX
  8
0
 10
1079.7457
 20
778.8522
 30
0.0000
  0
VERTEX
  8
0
 10
1079.3076
 20
779.3780
 30
0.0000
  0
VERTEX
  8
0
 10
1078.7587
 20
779.8489
 30
0.0000
  0
VERTEX
  8
0
 10
1078.1123
 20
780.2533
 30
0.0000
  0
VERTEX
  8
0
 10
1077.3844
 20
780.5812
 30
0.0000
  0
VERTEX
  8
0
 10
1076.5929
 20
780.8245
 30
0.0000
  0
VERTEX
  8
0
 10
1075.6627
 20
780.9885
 30
0.0000
  0
VERTEX
  8
0
 10
1074.7063
 20
781.0358
 30
0.0000
  0
VERTEX
  8
0
 10
1073.7529
 20
780.9650
 30
0.0000
  0
VERTEX
  8
0
 10
1072.8313
 20
780.7781
 30
0.0000
  0
VERTEX
  8
0
 10
1072.0523
 20
780.5154
 30
0.0000
  0
VERTEX
  8
0
 10
1071.3410
 20
780.1697
 30
0.0000
  0
VERTEX
  8
0
 10
1070.9132
 20
779.8973
 30
0.0000
  0
SEQEND
  0
POLYLINE
  6
continous
  8
BYBLOCK
 70
0
 66
1
  0
VERTEX
  8
0
 10
1078.6914
 20
774.3973
 30
0.0000
  0
VERTEX
  8
0
 10
1079.2519
 20
774.8614
 30
0.0000
  0
VERTEX
  8
0
 10
1079.7028
 20
775.3817
 30
0.0000
  0
VERTEX
  8
0
 10
1080.0331
 20
775.9455
 30
0.0000
  0
VERTEX
  8
0
 10
1080.2346
 20
776.5390
 30
0.0000
  0
VERTEX
  8
0
 10
1080.3015
 20
777.0795
 30
0.0000
  0
VERTEX
  8
0
 10
1080.3023
 20
777.1473
 30
0.0000
  0
SEQEND
  0
POLYLINE
  6
continous
  8
BYBLOCK
 70
0
 66
1
  0
VERTEX
  8
0
 10
1026.8759
 20
747.1473
 30
0.0000
  0
VERTEX
  8
0
 10
1026.9294
 20
746.6061
 30
0.0000
  0
VERTEX
  8
0
 10
1027.1162
 20
746.0103
 30
0.0000
  0
VERTEX
  8
0
 10
1027.4325
 20
745.4425
 30
0.0000
  0
VERTEX
  8
0
 10
1027.8706
 20
744.9167
 30
0.0000
  0
VERTEX
  8
0
 10
1028.4195
 20
744.4458
 30
0.0000
  0
VERTEX
  8
0
 10
1029.0659
 20
744.0414
 30
0.0000
  0
VERTEX
  8
0
 10
1029.7938
 20
743.7135
 30
0.0000
  0
VERTEX
  8
0
 10
1030.5853
 20
743.4701
 30
0.0000
  0
VERTEX
  8
0
 10
1031.5155
 20
743.3061
 30
0.0000
  0
VERTEX
  8
0
 10
1032.4719
 20
743.2588
 30
0.0000
  0
VERTEX
  8
0
 10
1033.4254
 20
743.3297
 30
0.0000
  0
VERTEX
  8
0
 10
1034.3469
 20
743.5166
 30
0.0000
  0
VERTEX
  8
0
 10
1035.1259
 20
743.7793
 30
0.0000
  0
VERTEX
  8
0
 10
1035.8372
 20
744.1250
 30
0.0000
  0
VERTEX
  8
0
 10
1036.2650
 20
744.3973
 30
0.0000
  0
SEQEND
  0
POLYLINE
  6
continous
  8
BYBLOCK
 70
0
 66
1
  0
VERTEX
  8
0
 10
1028.4868
 20
749.8973
 30
0.0000
  0
VERTEX
  8
0
 10
1027.9263
 20
749.4333
 30
0.0000
  0
VERTEX
  8
0
 10
1027.4754
 20
748.9129
 30
0.0000
  0
VERTEX
  8
0
 10
1027.1451
 20
748.3491
 30
0.0000
  0
VERTEX
  8
0
 10
1026.9436
 20
747.7557
 30
0.0000
  0
VERTEX
  8
0
 10
1026.8767
 20
747.2152
 30
0.0000
  0
VERTEX
  8
0
 10
1026.8759
 20
747.1473
 30
0.0000
  0
SEQEND
  0
POLYLINE
  6
continous
  8
BYBLOCK
 70
0
 66
1
  0
VERTEX
  8
0
 10
1037.8759
 20
747.1473
 30
0.0000
  0
VERTEX
  8
0
 10
1037.8224
 20
747.6886
 30
0.0000
  0
VERTEX
  8
0
 10
1037.6356
 20
748.2844
 30
0.0000
  0
VERTEX
  8
0
 10
1037.3193
 20
748.8522
 30
0.0000
  0
VERTEX
  8
0
 10
1036.8812
 20
749.3780
 30
0.0000
  0
VERTEX
  8
0
 10
1036.3323
 20
749.8489
 30
0.0000
  0
VERTEX
  8
0
 10
1035.6859
 20
750.2533
 30
0.0000
  0
VERTEX
  8
0
 10
1034.9580
 20
750.5812
 30
0.0000
  0
VERTEX
  8
0
 10
1034.1665
 20
750.8245
 30
0.0000
  0
VERTEX
  8
0
 10
1033.2363
 20
750.9885
 30
0.0000
  0
VERTEX
  8
0
 10
1032.2799
 20
751.0358
 30
0.0000
  0
VERTEX
  8
0
 10
1031.3265
 20
750.9650
 30
0.0000
  0
VERTEX
  8
0
 10
1030.4049
 20
750.7781
 30
0.0000
  0
VERTEX
  8
0
 10
1029.6259
 20
750.5154
 30
0.0000
  0
VERTEX
  8
0
 10
1028.9146
 20
750.1697
 30
0.0000
  0
VERTEX
  8
0
 10
1028.4868
 20
749.8973
 30
0.0000
  0
SEQEND
  0
POLYLINE
  6
continous
  8
BYBLOCK
 70
0
 66
1
  0
VERTEX
  8
0
 10
1036.2650
 20
744.3973
 30
0.0000
  0
VERTEX
  8
0
 10
1036.8255
 20
744.8614
 30
0.0000
  0
VERTEX
  8
0
 10
1037.2764
 20
745.3817
 30
0.0000
  0
VERTEX
  8
0
 10
1037.6067
 20
745.9455
 30
0.0000
  0
VERTEX
  8
0
 10
1037.8082
 20
746.5390
 30
0.0000
  0
VERTEX
  8
0
 10
1037.8751
 20
747.0795
 30
0.0000
  0
VERTEX
  8
0
 10
1037.8759
 20
747.1473
 30
0.0000
  0
SEQEND
  0
POLYLINE
  6
continous
  8
BYBLOCK
 70
0
 66
1
  0
VERTEX
  8
0
 10
984.4495
 20
717.1473
 30
0.0000
  0
VERTEX
  8
0
 10
984.5030
 20
716.6061
 30
0.0000
  0
VERTEX
  8
0
 10
984.6898
 20
716.0103
 30
0.0000
  0
VERTEX
  8
0
 10
985.0061
 20
715.4425
 30
0.0000
  0
VERTEX
  8
0
 10
985.4442
 20
714.9167
 30
0.0000
  0
VERTEX
  8
0
 10
985.9931
 20
714.4458
 30
0.0000
  0
VERTEX
  8
0
 10
986.6395
 20
714.0414
 30
0.0000
  0
VERTEX
  8
0
 10
987.3674
 20
713.7135
 30
0.0000
  0
VERTEX
  8
0
 10
988.1589
 20
713.4701
 30
0.0000
  0
VERTEX
  8
0
 10
989.0891
 20
713.3061
 30
0.0000
  0
VERTEX
  8
0
 10
990.0455
 20
713.2588
 30
0.0000
  0
VERTEX
  8
0
 10
990.9989
 20
713.3297
 30
0.0000
  0
VERTEX
  8
0
 10
991.9205
 20
713.5166
 30
0.0000
  0
VERTEX
  8
0
 10
992.6995
 20
713.7793
 30
0.0000
  0
VERTEX
  8
0
 10
993.4108
 20
714.1250
 30
0.0000
  0
VERTEX
  8
0
 10
993.8386
 20
714.3973
 30
0.0000
  0
SEQEND
  0
POLYLINE
  6
continous
  8
BYBLOCK
 70
0
 66
1
  0
VERTEX
  8
0
 10
986.0604
 20
719.8973
 30
0.0000
  0
VERTEX
  8
0
 10
985.4999
 20
719.4333
 30
0.0000
  0
VERTEX
  8
0
 10
985.0490
 20
718.9129
 30
0.0000
  0
VERTEX
  8
0
 10
984.7187
 20
718.3491
 30
0.0000
  0
VERTEX
  8
0
 10
984.5172
 20
717.7557
 30
0.0000
  0
VERTEX
  8
0
 10
984.4503
 20
717.2152
 30
0.0000
  0
VERTEX
  8
0
 10
984.4495
 20
717.1473
 30
0.0000
  0
SEQEND
  0
POLYLINE
  6
continous
  8
BYBLOCK
 70
0
 66
1
  0
VERTEX
  8
0
 10
995.4495
 20
717.1473
 30
0.0000
  0
VERTEX
  8
0
 10
995.3960
 20
717.6886
 30
0.0000
  0
VERTEX
  8
0
 10
995.2092
 20
718.2844
 30
0.0000
  0
VERTEX
  8
0
 10
994.8929
 20
718.8522
 30
0.0000
  0
VERTEX
  8
0
 10
994.4548
 20
719.3780
 30
0.0000
  0
VERTEX
  8
0
 10
993.9059
 20
719.8489
 30
0.0000
  0
VERTEX
  8
0
 10
993.2595
 20
720.2533
 30
0.0000
  0
VERTEX
  8
0
 10
992.5316
 20
720.5812
 30
0.0000
  0
VERTEX
  8
0
 10
991.7401
 20
720.8245
 30
0.0000
  0
VERTEX
  8
0
 10
990.8099
 20
720.9885
 30
0.0000
  0
VERTEX
  8
0
 10
989.8535
 20
721.0358
 30
0.0000
  0
VERTEX
  8
0
 10
988.9000
 20
720.9650
 30
0.0000
  0
VERTEX
  8
0
 10
987.9785
 20
720.7781
 30
0.0000
  0
VERTEX
  8
0
 10
987.1995
 20
720.5154
 30
0.0000
  0
VERTEX
  8
0
 10
986.4882
 20
720.1697
 30
0.0000
  0
VERTEX
  8
0
 10
986.0604
 20
719.8973
 30
0.0000
  0
SEQEND
  0
POLYLINE
  6
continous
  8
BYBLOCK
 70
0
 66
1
  0
VERTEX
  8
0
 10
993.8386
 20
714.3973
 30
0.0000
  0
VERTEX
  8
0
 10
994.3991
 20
714.8614
 30
0.0000
  0
VERTEX
  8
0
 10
994.8500
 20
715.3817
 30
0.0000
  0
VERTEX
  8
0
 10
995.1803
 20
715.9455
 30
0.0000
  0
VERTEX
  8
0
 10
995.3818
 20
716.5390
 30
0.0000
  0
VERTEX
  8
0
 10
995.4487
 20
717.0795
 30
0.0000
  0
VERTEX
  8
0
 10
995.4495
 20
717.1473
 30
0.0000
  0
SEQEND
  0
POLYLINE
  6
continous
  8
BYBLOCK
 70
0
 66
1
  0
VERTEX
  8
0
 10
942.0231
 20
687.1473
 30
0.0000
  0
VERTEX
  8
0
 10
942.0766
 20
686.6061
 30
0.0000
  0
VERTEX
  8
0
 10
942.2634
 20
686.0103
 30
0.0000
  0
VERTEX
  8
0
 10
942.5797
 20
685.4425
 30
0.0000
  0
VERTEX
  8
0
 10
943.0178
 20
684.9167
 30
0.0000
  0
VERTEX
  8
0
 10
943.5667
 20
684.4458
 30
0.0000
  0
VERTEX
  8
0
 10
944.2131
 20
684.0414
 30
0.0000
  0
VERTEX
  8
0
 10
944.9410
 20
683.7135
 30
0.0000
  0
VERTEX
  8
0
 10
945.7325
 20
683.4701
 30
0.0000
  0
VERTEX
  8
0
 10
946.6627
 20
683.3061
 30
0.0000
  0
VERTEX
  8
0
 10
947.6191
 20
683.2588
 30
0.0000
  0
VERTEX
  8
0
 10
948.5725
 20
683.3297
 30
0.0000
  0
VERTEX
  8
0
 10
949.4941
 20
683.5166
 30
0.0000
  0
VERTEX
  8
0
 10
950.2731
 20
683.7793
 30
0.0000
  0
VERTEX
  8
0
 10
950.9843
 20
684.1250
 30
0.0000
  0
VERTEX
  8
0
 10
951.4122
 20
684.3973
 30
0.0000
  0
SEQEND
  0
POLYLINE
  6
continous
  8
BYBLOCK
 70
0
 66
1
  0
VERTEX
  8
0
 10
943.6340
 20
689.8973
 30
0.0000
  0
VERTEX
  8
0
 10
943.0735
 20
689.4333
 30
0.0000
  0
VERTEX
  8
0
 10
942.6226
 20
688.9129
 30
0.0000
  0
VERTEX
  8
0
 10
942.2923
 20
688.3491
 30
0.0000
  0
VERTEX
  8
0
 10
942.0908
 20
687.7557
 30
0.0000
  0
VERTEX
  8
0
 10
942.0239
 20
687.2152
 30
0.0000
  0
VERTEX
  8
0
 10
942.0231
 20
687.1473
 30
0.0000
  0
SEQEND
  0
POLYLINE
  6
continous
  8
BYBLOCK
 70
0
 66
1
  0
VERTEX
  8
0
 10
953.0231
 20
687.1473
 30
0.0000
  0
VERTEX
  8
0
 10
952.9696
 20
687.6886
 30
0.0000
  0
VERTEX
  8
0
 10
952.7828
 20
688.2844
 30
0.0000
  0
VERTEX
  8
0
 10
952.4665
 20
688.8522
 30
0.0000
  0
VERTEX
  8
0
 10
952.0284
 20
689.3780
 30
0.0000
  0
VERTEX
  8
0
 10
951.4795
 20
689.8489
 30
0.0000
  0
VERTEX
  8
0
 10
950.8331
 20
690.2533
 30
0.0000
  0
VERTEX
  8
0
 10
950.1052
 20
690.5812
 30
0.0000
  0
VERTEX
  8
0
 10
949.3137
 20
690.8245
 30
0.0000
  0
VERTEX
  8
0
 10
948.3835
 20
690.9885
 30
0.0000
  0
VERTEX
  8
0
 10
947.4271
 20
691.0358
 30
0.0000
  0
VERTEX
  8
0
 10
946.4736
 20
690.9650
 30
0.0000
  0
VERTEX
  8
0
 10
945.5521
 20
690.7781
 30
0.0000
  0
VERTEX
  8
0
 10
944.7731
 20
690.5154
 30
0.0000
  0
VERTEX
  8
0
 10
944.0618
 20
690.1697
 30
0.0000
  0
VERTEX
  8
0
 10
943.6340
 20
689.8973
 30
0.0000
  0
SEQEND
  0
POLYLINE
  6
continous
  8
BYBLOCK
 70
0
 66
1
  0
VERTEX
  8
0
 10
951.4122
 20
684.3973
 30
0.0000
  0
VERTEX
  8
0
 10
951.9727
 20
684.8614
 30
0.0000
  0
VERTEX
  8
0
 10
952.4236
 20
685.3817
 30
0.0000
  0
VERTEX
  8
0
 10
952.7539
 20
685.9455
 30
0.0000
  0
VERTEX
  8
0
 10
952.9554
 20
686.5390
 30
0.0000
  0
VERTEX
  8
0
 10
953.0222
 20
687.0795
 30
0.0000
  0
VERTEX
  8
0
 10
953.0231
 20
687.1473
 30
0.0000
  0
SEQEND
  0
POLYLINE
  6
continous
  8
BYBLOCK
 70
0
 66
1
  0
VERTEX
  8
0
 10
899.5967
 20
657.1473
 30
0.0000
  0
VERTEX
  8
0
 10
899.6502
 20
656.6061
 30
0.0000
  0
VERTEX
  8
0
 10
899.8370
 20
656.0103
 30
0.0000
  0
VERTEX
  8
0
 10
900.1533
 20
655.4425
 30
0.0000
  0
VERTEX
  8
0
 10
900.5913
 20
654.9167
 30
0.0000
  0
VERTEX
  8
0
 10
901.1403
 20
654.4458
 30
0.0000
  0
VERTEX
  8
0
 10
901.7867
 20
654.0414
 30
0.0000
  0
VERTEX
  8
0
 10
902.5146
 20
653.7135
 30
0.0000
  0
VERTEX
  8
0
 10
903.3061
 20
653.4701
 30
0.0000
  0
VERTEX
  8
0
 10
904.2363
 20
653.3061
 30
0.0000
  0
VERTEX
  8
0
 10
905.1927
 20
653.2588
 30
0.0000
  0
VERTEX
  8
0
 10
906.1461
 20
653.3297
 30
0.0000
  0
VERTEX
  8
0
 10
907.0677
 20
653.5166
 30
0.0000
  0
VERTEX
  8
0
 10
907.8467
 20
653.7793
 30
0.0000
  0
VERTEX
  8
0
 10
908.5579
 20
654.1250
 30
0.0000
  0
VERTEX
  8
0
 10
908.9858
 20
654.3973
 30
0.0000
  0
SEQEND
  0
POLYLINE
  6
continous
  8
BYBLOCK
 70
0
 66
1
  0
VERTEX
  8
0
 10
901.2076
 20
659.8973
 30
0.0000
  0
VERTEX
  8
0
 10
900.6471
 20
659.4333
 30
0.0000
  0
VERTEX
  8
0
 10
900.1961
 20
658.9129
 30
0.0000
  0
VERTEX
  8
0
 10
899.8659
 20
658.3491
 30
0.0000
  0
VERTEX
  8
0
 10
899.6644
 20
657.7557
 30
0.0000
  0
VERTEX
  8
0
 10
899.5975
 20
657.2152
 30
0.0000
  0
VERTEX
  8
0
 10
899.5967
 20
657.1473
 30
0.0000
  0
SEQEND
  0
POLYLINE
  6
continous
  8
BYBLOCK
 70
0
 66
1
  0
VERTEX
  8
0
 10
910.5967
 20
657.1473
 30
0.0000
  0
VERTEX
  8
0
 10
910.5432
 20
657.6886
 30
0.0000
  0
VERTEX
  8
0
 10
910.3564
 20
658.2844
 30
0.0000
  0
VERTEX
  8
0
 10
910.0400
 20
658.8522
 30
0.0000
  0
VERTEX
  8
0
 10
909.6020
 20
659.3780
 30
0.0000
  0
VERTEX
  8
0
 10
909.0530
 20
659.8489
 30
0.0000
  0
VERTEX
  8
0
 10
908.4067
 20
660.2533
 30
0.0000
  0
VERTEX
  8
0
 10
907.6788
 20
660.5812
 30
0.0000
  0
VERTEX
  8
0
 10
906.8873
 20
660.8245
 30
0.0000
  0
VERTEX
  8
0
 10
905.9571
 20
660.9885
 30
0.0000
  0
VERTEX
  8
0
 10
905.0007
 20
661.0358
 30
0.0000
  0
VERTEX
  8
0
 10
904.0472
 20
660.9650
 30
0.0000
  0
VERTEX
  8
0
 10
903.1257
 20
660.7781
 30
0.0000
  0
VERTEX
  8
0
 10
902.3467
 20
660.5154
 30
0.0000
  0
VERTEX
  8
0
 10
901.6354
 20
660.1697
 30
0.0000
  0
VERTEX
  8
0
 10
901.2076
 20
659.8973
 30
0.0000
  0
SEQEND
  0
POLYLINE
  6
continous
  8
BYBLOCK
 70
0
 66
1
  0
VERTEX
  8
0
 10
908.9858
 20
654.3973
 30
0.0000
  0
VERTEX
  8
0
 10
909.5463
 20
654.8614
 30
0.0000
  0
VERTEX
  8
0
 10
909.9972
 20
655.3817
 30
0.0000
  0
VERTEX
  8
0
 10
910.3275
 20
655.9455
 30
0.0000
  0
VERTEX
  8
0
 10
910.5290
 20
656.5390
 30
0.0000
  0
VERTEX
  8
0
 10
910.5958
 20
657.0795
 30
0.0000
  0
VERTEX
  8
0
 10
910.5967
 20
657.1473
 30
0.0000
  0
SEQEND
  0
POLYLINE
  6
continous
  8
BYBLOCK
 70
0
 66
1
  0
VERTEX
  8
0
 10
857.1703
 20
627.1473
 30
0.0000
  0
VERTEX
  8
0
 10
857.2238
 20
626.6061
 30
0.0000
  0
VERTEX
  8
0
 10
857.4106
 20
626.0103
 30
0.0000
  0
VERTEX
  8
0
 10
857.7269
 20
625.4425
 30
0.0000
  0
VERTEX
  8
0
 10
858.1649
 20
624.9167
 30
0.0000
  0
VERTEX
  8
0
 10
858.7139
 20
624.4458
 30
0.0000
  0
VERTEX
  8
0
 10
859.3603
 20
624.0414
 30
0.0000
  0
VERTEX
  8
0
 10
860.0882
 20
623.7135
 30
0.0000
  0
VERTEX
  8
0
 10
860.8796
 20
623.4701
 30
0.0000
  0
VERTEX
  8
0
 10
861.8099
 20
623.3061
 30
0.0000
  0
VERTEX
  8
0
 10
862.7663
 20
623.2588
 30
0.0000
  0
VERTEX
  8
0
 10
863.7197
 20
623.3297
 30
0.0000
  0
VERTEX
  8
0
 10
864.6413
 20
623.5166
 30
0.0000
  0
VERTEX
  8
0
 10
865.4203
 20
623.7793
 30
0.0000
  0
VERTEX
  8
0
 10
866.1315
 20
624.1250
 30
0.0000
  0
VERTEX
  8
0
 10
866.5594
 20
624.3973
 30
0.0000
  0
SEQEND
  0
POLYLINE
  6
continous
  8
BYBLOCK
 70
0
 66
1
  0
VERTEX
  8
0
 10
858.7812
 20
629.8973
 30
0.0000
  0
VERTEX
  8
0
 10
858.2207
 20
629.4333
 30
0.0000
  0
VERTEX
  8
0
 10
857.7697
 20
628.9129
 30
0.0000
  0
VERTEX
  8
0
 10
857.4395
 20
628.3491
 30
0.0000
  0
VERTEX
  8
0
 10
857.2380
 20
627.7557
 30
0.0000
  0
VERTEX
  8
0
 10
857.1711
 20
627.2152
 30
0.0000
  0
VERTEX
  8
0
 10
857.1703
 20
627.1473
 30
0.0000
  0
SEQEND
  0
POLYLINE
  6
continous
  8
BYBLOCK
 70
0
 66
1
  0
VERTEX
  8
0
 10
868.1703
 20
627.1473
 30
0.0000
  0
VERTEX
  8
0
 10
868.1167
 20
627.6886
 30
0.0000
  0
VERTEX
  8
0
 10
867.9299
 20
628.2844
 30
0.0000
  0
VERTEX
  8
0
 10
867.6136
 20
628.8522
 30
0.0000
  0
VERTEX
  8
0
 10
867.1756
 20
629.3780
 30
0.0000
  0
VERTEX
  8
0
 10
866.6266
 20
629.8489
 30
0.0000
  0
VERTEX
  8
0
 10
865.9803
 20
630.2533
 30
0.0000
  0
VERTEX
  8
0
 10
865.2524
 20
630.5812
 30
0.0000
  0
VERTEX
  8
0
 10
864.4609
 20
630.8245
 30
0.0000
  0
VERTEX
  8
0
 10
863.5307
 20
630.9885
 30
0.0000
  0
VERTEX
  8
0
 10
862.5743
 20
631.0358
 30
0.0000
  0
VERTEX
  8
0
 10
861.6208
 20
630.9650
 30
0.0000
  0
VERTEX
  8
0
 10
860.6992
 20
630.7781
 30
0.0000
  0
VERTEX
  8
0
 10
859.9203
 20
630.5154
 30
0.0000
  0
VERTEX
  8
0
 10
859.2090
 20
630.1697
 30
0.0000
  0
VERTEX
  8
0
 10
858.7812
 20
629.8973
 30
0.0000
  0
SEQEND
  0
POLYLINE
  6
continous
  8
BYBLOCK
 70
0
 66
1
  0
VERTEX
  8
0
 10
866.5594
 20
624.3973
 30
0.0000
  0
VERTEX
  8
0
 10
867.1199
 20
624.8614
 30
0.0000
  0
VERTEX
  8
0
 10
867.5708
 20
625.3817
 30
0.0000
  0
VERTEX
  8
0
 10
867.9011
 20
625.9455
 30
0.0000
  0
VERTEX
  8
0
 10
868.1026
 20
626.5390
 30
0.0000
  0
VERTEX
  8
0
 10
868.1694
 20
627.0795
 30
0.0000
  0
VERTEX
  8
0
 10
868.1703
 20
627.1473
 30
0.0000
  0
SEQEND
  0
POLYLINE
  6
continous
  8
BYBLOCK
 70
0
 66
1
  0
VERTEX
  8
0
 10
814.7439
 20
597.1473
 30
0.0000
  0
VERTEX
  8
0
 10
814.7974
 20
596.6061
 30
0.0000
  0
VERTEX
  8
0
 10
814.9842
 20
596.0103
 30
0.0000
  0
VERTEX
  8
0
 10
815.3005
 20
595.4425
 30
0.0000
  0
VERTEX
  8
0
 10
815.7385
 20
594.9167
 30
0.0000
  0
VERTEX
  8
0
 10
816.2875
 20
594.4458
 30
0.0000
  0
VERTEX
  8
0
 10
816.9339
 20
594.0414
 30
0.0000
  0
VERTEX
  8
0
 10
817.6618
 20
593.7135
 30
0.0000
  0
VERTEX
  8
0
 10
818.4532
 20
593.4701
 30
0.0000
  0
VERTEX
  8
0
 10
819.3835
 20
593.3061
 30
0.0000
  0
VERTEX
  8
0
 10
820.3399
 20
593.2588
 30
0.0000
  0
VERTEX
  8
0
 10
821.2933
 20
593.3297
 30
0.0000
  0
VERTEX
  8
0
 10
822.2149
 20
593.5166
 30
0.0000
  0
VERTEX
  8
0
 10
822.9939
 20
593.7793
 30
0.0000
  0
VERTEX
  8
0
 10
823.7051
 20
594.1250
 30
0.0000
  0
VERTEX
  8
0
 10
824.1330
 20
594.3973
 30
0.0000
  0
SEQEND
  0
POLYLINE
  6
continous
  8
BYBLOCK
 70
0
 66
1
  0
VERTEX
  8
0
 10
816.3548
 20
599.8973
 30
0.0000
  0
VERTEX
  8
0
 10
815.7943
 20
599.4333
 30
0.0000
  0
VERTEX
  8
0
 10
815.3433
 20
598.9129
 30
0.0000
  0
VERTEX
  8
0
 10
815.0131
 20
598.3491
 30
0.0000
  0
VERTEX
  8
0
 10
814.8116
 20
597.7557
 30
0.0000
  0
VERTEX
  8
0
 10
814.7447
 20
597.2152
 30
0.0000
  0
VERTEX
  8
0
 10
814.7439
 20
597.1473
 30
0.0000
  0
SEQEND
  0
POLYLINE
  6
continous
  8
BYBLOCK
 70
0
 66
1
  0
VERTEX
  8
0
 10
825.7439
 20
597.1473
 30
0.0000
  0
VERTEX
  8
0
 10
825.6903
 20
597.6886
 30
0.0000
  0
VERTEX
  8
0
 10
825.5035
 20
598.2844
 30
0.0000
  0
VERTEX
  8
0
 10
825.1872
 20
598.8522
 30
0.0000
  0
VERTEX
  8
0
 10
824.7492
 20
599.3780
 30
0.0000
  0
VERTEX
  8
0
 10
824.2002
 20
599.8489
 30
0.0000
  0
VERTEX
  8
0
 10
823.5538
 20
600.2533
 30
0.0000
  0
VERTEX
  8
0
 10
822.8260
 20
600.5812
 30
0.0000
  0
VERTEX
  8
0
 10
822.0345
 20
600.8245
 30
0.0000
  0
VERTEX
  8
0
 10
821.1043
 20
600.9885
 30
0.0000
  0
VERTEX
  8
0
 10
820.1479
 20
601.0358
 30
0.0000
  0
VERTEX
  8
0
 10
819.1944
 20
600.9650
 30
0.0000
  0
VERTEX
  8
0
 10
818.2728
 20
600.7781
 30
0.0000
  0
VERTEX
  8
0
 10
817.4939
 20
600.5154
 30
0.0000
  0
VERTEX
  8
0
 10
816.7826
 20
600.1697
 30
0.0000
  0
VERTEX
  8
0
 10
816.3548
 20
599.8973
 30
0.0000
  0
SEQEND
  0
POLYLINE
  6
continous
  8
BYBLOCK
 70
0
 66
1
  0
VERTEX
  8
0
 10
824.1330
 20
594.3973
 30
0.0000
  0
VERTEX
  8
0
 10
824.6935
 20
594.8614
 30
0.0000
  0
VERTEX
  8
0
 10
825.1444
 20
595.3817
 30
0.0000
  0
VERTEX
  8
0
 10
825.4747
 20
595.9455
 30
0.0000
  0
VERTEX
  8
0
 10
825.6762
 20
596.5390
 30
0.0000
  0
VERTEX
  8
0
 10
825.7430
 20
597.0795
 30
0.0000
  0
VERTEX
  8
0
 10
825.7439
 20
597.1473
 30
0.0000
  0
SEQEND
  0
POLYLINE
  6
continous
  8
BYBLOCK
 70
0
 66
1
  0
VERTEX
  8
0
 10
772.3175
 20
567.1473
 30
0.0000
  0
VERTEX
  8
0
 10
772.3710
 20
566.6061
 30
0.0000
  0
VERTEX
  8
0
 10
772.5578
 20
566.0103
 30
0.0000
  0
VERTEX
  8
0
 10
772.8741
 20
565.4425
 30
0.0000
  0
VERTEX
  8
0
 10
773.3121
 20
564.9167
 30
0.0000
  0
VERTEX
  8
0
 10
773.8611
 20
564.4458
 30
0.0000
  0
VERTEX
  8
0
 10
774.5075
 20
564.0414
 30
0.0000
  0
VERTEX
  8
0
 10
775.2354
 20
563.7135
 30
0.0000
  0
VERTEX
  8
0
 10
776.0268
 20
563.4701
 30
0.0000
  0
VERTEX
  8
0
 10
776.9571
 20
563.3061
 30
0.0000
  0
VERTEX
  8
0
 10
777.9134
 20
563.2588
 30
0.0000
  0
VERTEX
  8
0
 10
778.8669
 20
563.3297
 30
0.0000
  0
VERTEX
  8
0
 10
779.7885
 20
563.5166
 30
0.0000
  0
VERTEX
  8
0
 10
780.5675
 20
563.7793
 30
0.0000
  0
VERTEX
  8
0
 10
781.2787
 20
564.1250
 30
0.0000
  0
VERTEX
  8
0
 10
781.7065
 20
564.3973
 30
0.0000
  0
SEQEND
  0
POLYLINE
  6
continous
  8
BYBLOCK
 70
0
 66
1
  0
VERTEX
  8
0
 10
773.9284
 20
569.8973
 30
0.0000
  0
VERTEX
  8
0
 10
773.3679
 20
569.4333
 30
0.0000
  0
VERTEX
  8
0
 10
772.9169
 20
568.9129
 30
0.0000
  0
VERTEX
  8
0
 10
772.5866
 20
568.3491
 30
0.0000
  0
VERTEX
  8
0
 10
772.3852
 20
567.7557
 30
0.0000
  0
VERTEX
  8
0
 10
772.3183
 20
567.2152
 30
0.0000
  0
VERTEX
  8
0
 10
772.3175
 20
567.1473
 30
0.0000
  0
SEQEND
  0
POLYLINE
  6
continous
  8
BYBLOCK
 70
0
 66
1
  0
VERTEX
  8
0
 10
783.3175
 20
567.1473
 30
0.0000
  0
VERTEX
  8
0
 10
783.2639
 20
567.6886
 30
0.0000
  0
VERTEX
  8
0
 10
783.0771
 20
568.2844
 30
0.0000
  0
VERTEX
  8
0
 10
782.7608
 20
568.8522
 30
0.0000
  0
VERTEX
  8
0
 10
782.3228
 20
569.3780
 30
0.0000
  0
VERTEX
  8
0
 10
781.7738
 20
569.8489
 30
0.0000
  0
VERTEX
  8
0
 10
781.1274
 20
570.2533
 30
0.0000
  0
VERTEX
  8
0
 10
780.3996
 20
570.5812
 30
0.0000
  0
VERTEX
  8
0
 10
779.6081
 20
570.8245
 30
0.0000
  0
VERTEX
  8
0
 10
778.6778
 20
570.9885
 30
0.0000
  0
VERTEX
  8
0
 10
777.7215
 20
571.0358
 30
0.0000
  0
VERTEX
  8
0
 10
776.7680
 20
570.9650
 30
0.0000
  0
VERTEX
  8
0
 10
775.8464
 20
570.7781
 30
0.0000
  0
VERTEX
  8
0
 10
775.0675
 20
570.5154
 30
0.0000
  0
VERTEX
  8
0
 10
774.3562
 20
570.1697
 30
0.0000
  0
VERTEX
  8
0
 10
773.9284
 20
569.8973
 30
0.0000
  0
SEQEND
  0
POLYLINE
  6
continous
  8
BYBLOCK
 70
0
 66
1
  0
VERTEX
  8
0
 10
781.7065
 20
564.3973
 30
0.0000
  0
VERTEX
  8
0
 10
782.2671
 20
564.8614
 30
0.0000
  0
VERTEX
  8
0
 10
782.7180
 20
565.3817
 30
0.0000
  0
VERTEX
  8
0
 10
783.0483
 20
565.9455
 30
0.0000
  0
VERTEX
  8
0
 10
783.2497
 20
566.5390
 30
0.0000
  0
VERTEX
  8
0
 10
783.3166
 20
567.0795
 30
0.0000
  0
VERTEX
  8
0
 10
783.3175
 20
567.1473
 30
0.0000
  0
SEQEND
  0
POLYLINE
  6
continous
  8
BYBLOCK
 70
0
 66
1
  0
VERTEX
  8
0
 10
729.8911
 20
537.1473
 30
0.0000
  0
VERTEX
  8
0
 10
729.9446
 20
536.6061
 30
0.0000
  0
VERTEX
  8
0
 10
730.1314
 20
536.0103
 30
0.0000
  0
VERTEX
  8
0
 10
730.4477
 20
535.4425
 30
0.0000
  0
VERTEX
  8
0
 10
730.8857
 20
534.9167
 30
0.0000
  0
VERTEX
  8
0
 10
731.4347
 20
534.4458
 30
0.0000
  0
VERTEX
  8
0
 10
732.0811
 20
534.0414
 30
0.0000
  0
VERTEX
  8
0
 10
732.8090
 20
533.7135
 30
0.0000
  0
VERTEX
  8
0
 10
733.6004
 20
533.4701
 30
0.0000
  0
VERTEX
  8
0
 10
734.5307
 20
533.3061
 30
0.0000
  0
VERTEX
  8
0
 10
735.4870
 20
533.2588
 30
0.0000
  0
VERTEX
  8
0
 10
736.4405
 20
533.3297
 30
0.0000
  0
VERTEX
  8
0
 10
737.3621
 20
533.5166
 30
0.0000
  0
VERTEX
  8
0
 10
738.1411
 20
533.7793
 30
0.0000
  0
VERTEX
  8
0
 10
738.8523
 20
534.1250
 30
0.0000
  0
VERTEX
  8
0
 10
739.2801
 20
534.3973
 30
0.0000
  0
SEQEND
  0
POLYLINE
  6
continous
  8
BYBLOCK
 70
0
 66
1
  0
VERTEX
  8
0
 10
731.5020
 20
539.8973
 30
0.0000
  0
VERTEX
  8
0
 10
730.9415
 20
539.4333
 30
0.0000
  0
VERTEX
  8
0
 10
730.4905
 20
538.9129
 30
0.0000
  0
VERTEX
  8
0
 10
730.1602
 20
538.3491
 30
0.0000
  0
VERTEX
  8
0
 10
729.9588
 20
537.7557
 30
0.0000
  0
VERTEX
  8
0
 10
729.8919
 20
537.2152
 30
0.0000
  0
VERTEX
  8
0
 10
729.8911
 20
537.1473
 30
0.0000
  0
SEQEND
  0
POLYLINE
  6
continous
  8
BYBLOCK
 70
0
 66
1
  0
VERTEX
  8
0
 10
740.8911
 20
537.1473
 30
0.0000
  0
VERTEX
  8
0
 10
740.8375
 20
537.6886
 30
0.0000
  0
VERTEX
  8
0
 10
740.6507
 20
538.2844
 30
0.0000
  0
VERTEX
  8
0
 10
740.3344
 20
538.8522
 30
0.0000
  0
VERTEX
  8
0
 10
739.8964
 20
539.3780
 30
0.0000
  0
VERTEX
  8
0
 10
739.3474
 20
539.8489
 30
0.0000
  0
VERTEX
  8
0
 10
738.7010
 20
540.2533
 30
0.0000
  0
VERTEX
  8
0
 10
737.9731
 20
540.5812
 30
0.0000
  0
VERTEX
  8
0
 10
737.1817
 20
540.8245
 30
0.0000
  0
VERTEX
  8
0
 10
736.2514
 20
540.9885
 30
0.0000
  0
VERTEX
  8
0
 10
735.2951
 20
541.0358
 30
0.0000
  0
VERTEX
  8
0
 10
734.3416
 20
540.9650
 30
0.0000
  0
VERTEX
  8
0
 10
733.4200
 20
540.7781
 30
0.0000
  0
VERTEX
  8
0
 10
732.6411
 20
540.5154
 30
0.0000
  0
VERTEX
  8
0
 10
731.9298
 20
540.1697
 30
0.0000
  0
VERTEX
  8
0
 10
731.5020
 20
539.8973
 30
0.0000
  0
SEQEND
  0
POLYLINE
  6
continous
  8
BYBLOCK
 70
0
 66
1
  0
VERTEX
  8
0
 10
739.2801
 20
534.3973
 30
0.0000
  0
VERTEX
  8
0
 10
739.8406
 20
534.8614
 30
0.0000
  0
VERTEX
  8
0
 10
740.2916
 20
535.3817
 30
0.0000
  0
VERTEX
  8
0
 10
740.6219
 20
535.9455
 30
0.0000
  0
VERTEX
  8
0
 10
740.8233
 20
536.5390
 30
0.0000
  0
VERTEX
  8
0
 10
740.8902
 20
537.0795
 30
0.0000
  0
VERTEX
  8
0
 10
740.8911
 20
537.1473
 30
0.0000
  0
SEQEND
  0
POLYLINE
  6
continous
  8
BYBLOCK
 70
0
 66
1
  0
VERTEX
  8
0
 10
687.4646
 20
507.1473
 30
0.0000
  0
VERTEX
  8
0
 10
687.5182
 20
506.6061
 30
0.0000
  0
VERTEX
  8
0
 10
687.7050
 20
506.0103
 30
0.0000
  0
VERTEX
  8
0
 10
688.0213
 20
505.4425
 30
0.0000
  0
VERTEX
  8
0
 10
688.4593
 20
504.9167
 30
0.0000
  0
VERTEX
  8
0
 10
689.0083
 20
504.4458
 30
0.0000
  0
VERTEX
  8
0
 10
689.6547
 20
504.0414
 30
0.0000
  0
VERTEX
  8
0
 10
690.3826
 20
503.7135
 30
0.0000
  0
VERTEX
  8
0
 10
691.1740
 20
503.4701
 30
0.0000
  0
VERTEX
  8
0
 10
692.1043
 20
503.3061
 30
0.0000
  0
VERTEX
  8
0
 10
693.0606
 20
503.2588
 30
0.0000
  0
VERTEX
  8
0
 10
694.0141
 20
503.3297
 30
0.0000
  0
VERTEX
  8
0
 10
694.9357
 20
503.5166
 30
0.0000
  0
VERTEX
  8
0
 10
695.7146
 20
503.7793
 30
0.0000
  0
VERTEX
  8
0
 10
696.4259
 20
504.1250
 30
0.0000
  0
VERTEX
  8
0
 10
696.8537
 20
504.3973
 30
0.0000
  0
SEQEND
  0
POLYLINE
  6
continous
  8
BYBLOCK
 70
0
 66
1
  0
VERTEX
  8
0
 10
689.0756
 20
509.8973
 30
0.0000
  0
VERTEX
  8
0
 10
688.5151
 20
509.4333
 30
0.0000
  0
VERTEX
  8
0
 10
688.0641
 20
508.9129
 30
0.0000
  0
VERTEX
  8
0
 10
687.7338
 20
508.3491
 30
0.0000
  0
VERTEX
  8
0
 10
687.5324
 20
507.7557
 30
0.0000
  0
VERTEX
  8
0
 10
687.4655
 20
507.2152
 30
0.0000
  0
VERTEX
  8
0
 10
687.4646
 20
507.1473
 30
0.0000
  0
SEQEND
  0
POLYLINE
  6
continous
  8
BYBLOCK
 70
0
 66
1
  0
VERTEX
  8
0
 10
698.4646
 20
507.1473
 30
0.0000
  0
VERTEX
  8
0
 10
698.4111
 20
507.6886
 30
0.0000
  0
VERTEX
  8
0
 10
698.2243
 20
508.2844
 30
0.0000
  0
VERTEX
  8
0
 10
697.9080
 20
508.8522
 30
0.0000
  0
VERTEX
  8
0
 10
697.4700
 20
509.3780
 30
0.0000
  0
VERTEX
  8
0
 10
696.9210
 20
509.8489
 30
0.0000
  0
VERTEX
  8
0
 10
696.2746
 20
510.2533
 30
0.0000
  0
VERTEX
  8
0
 10
695.5467
 20
510.5812
 30
0.0000
  0
VERTEX
  8
0
 10
694.7553
 20
510.8245
 30
0.0000
  0
VERTEX
  8
0
 10
693.8250
 20
510.9885
 30
0.0000
  0
VERTEX
  8
0
 10
692.8687
 20
511.0358
 30
0.0000
  0
VERTEX
  8
0
 10
691.9152
 20
510.9650
 30
0.0000
  0
VERTEX
  8
0
 10
690.9936
 20
510.7781
 30
0.0000
  0
VERTEX
  8
0
 10
690.2146
 20
510.5154
 30
0.0000
  0
VERTEX
  8
0
 10
689.5034
 20
510.1697
 30
0.0000
  0
VERTEX
  8
0
 10
689.0756
 20
509.8973
 30
0.0000
  0
SEQEND
  0
POLYLINE
  6
continous
  8
BYBLOCK
 70
0
 66
1
  0
VERTEX
  8
0
 10
696.8537
 20
504.3973
 30
0.0000
  0
VERTEX
  8
0
 10
697.4142
 20
504.8614
 30
0.0000
  0
VERTEX
  8
0
 10
697.8652
 20
505.3817
 30
0.0000
  0
VERTEX
  8
0
 10
698.1955
 20
505.9455
 30
0.0000
  0
VERTEX
  8
0
 10
698.3969
 20
506.5390
 30
0.0000
  0
VERTEX
  8
0
 10
698.4638
 20
507.0795
 30
0.0000
  0
VERTEX
  8
0
 10
698.4646
 20
507.1473
 30
0.0000
  0
SEQEND
  0
POLYLINE
  6
continous
  8
BYBLOCK
 70
0
 66
1
  0
VERTEX
  8
0
 10
645.0382
 20
477.1473
 30
0.0000
  0
VERTEX
  8
0
 10
645.0918
 20
476.6061
 30
0.0000
  0
VERTEX
  8
0
 10
645.2786
 20
476.0103
 30
0.0000
  0
VERTEX
  8
0
 10
645.5949
 20
475.4425
 30
0.0000
  0
VERTEX
  8
0
 10
646.0329
 20
474.9167
 30
0.0000
  0
VERTEX
  8
0
 10
646.5819
 20
474.4458
 30
0.0000
  0
VERTEX
  8
0
 10
647.2283
 20
474.0414
 30
0.0000
  0
VERTEX
  8
0
 10
647.9561
 20
473.7135
 30
0.0000
  0
VERTEX
  8
0
 10
648.7476
 20
473.4701
 30
0.0000
  0
VERTEX
  8
0
 10
649.6778
 20
473.3061
 30
0.0000
  0
VERTEX
  8
0
 10
650.6342
 20
473.2588
 30
0.0000
  0
VERTEX
  8
0
 10
651.5877
 20
473.3297
 30
0.0000
  0
VERTEX
  8
0
 10
652.5093
 20
473.5166
 30
0.0000
  0
VERTEX
  8
0
 10
653.2882
 20
473.7793
 30
0.0000
  0
VERTEX
  8
0
 10
653.9995
 20
474.1250
 30
0.0000
  0
VERTEX
  8
0
 10
654.4273
 20
474.3973
 30
0.0000
  0
SEQEND
  0
POLYLINE
  6
continous
  8
BYBLOCK
 70
0
 66
1
  0
VERTEX
  8
0
 10
646.6492
 20
479.8973
 30
0.0000
  0
VERTEX
  8
0
 10
646.0886
 20
479.4333
 30
0.0000
  0
VERTEX
  8
0
 10
645.6377
 20
478.9129
 30
0.0000
  0
VERTEX
  8
0
 10
645.3074
 20
478.3491
 30
0.0000
  0
VERTEX
  8
0
 10
645.1060
 20
477.7557
 30
0.0000
  0
VERTEX
  8
0
 10
645.0391
 20
477.2152
 30
0.0000
  0
VERTEX
  8
0
 10
645.0382
 20
477.1473
 30
0.0000
  0
SEQEND
  0
POLYLINE
  6
continous
  8
BYBLOCK
 70
0
 66
1
  0
VERTEX
  8
0
 10
656.0382
 20
477.1473
 30
0.0000
  0
VERTEX
  8
0
 10
655.9847
 20
477.6886
 30
0.0000
  0
VERTEX
  8
0
 10
655.7979
 20
478.2844
 30
0.0000
  0
VERTEX
  8
0
 10
655.4816
 20
478.8522
 30
0.0000
  0
VERTEX
  8
0
 10
655.0436
 20
479.3780
 30
0.0000
  0
VERTEX
  8
0
 10
654.4946
 20
479.8489
 30
0.0000
  0
VERTEX
  8
0
 10
653.8482
 20
480.2533
 30
0.0000
  0
VERTEX
  8
0
 10
653.1203
 20
480.5812
 30
0.0000
  0
VERTEX
  8
0
 10
652.3289
 20
480.8245
 30
0.0000
  0
VERTEX
  8
0
 10
651.3986
 20
480.9885
 30
0.0000
  0
VERTEX
  8
0
 10
650.4423
 20
481.0358
 30
0.0000
  0
VERTEX
  8
0
 10
649.4888
 20
480.9650
 30
0.0000
  0
VERTEX
  8
0
 10
648.5672
 20
480.7781
 30
0.0000
  0
VERTEX
  8
0
 10
647.7882
 20
480.5154
 30
0.0000
  0
VERTEX
  8
0
 10
647.0770
 20
480.1697
 30
0.0000
  0
VERTEX
  8
0
 10
646.6492
 20
479.8973
 30
0.0000
  0
SEQEND
  0
POLYLINE
  6
continous
  8
BYBLOCK
 70
0
 66
1
  0
VERTEX
  8
0
 10
654.4273
 20
474.3973
 30
0.0000
  0
VERTEX
  8
0
 10
654.9878
 20
474.8614
 30
0.0000
  0
VERTEX
  8
0
 10
655.4388
 20
475.3817
 30
0.0000
  0
VERTEX
  8
0
 10
655.7690
 20
475.9455
 30
0.0000
  0
VERTEX
  8
0
 10
655.9705
 20
476.5390
 30
0.0000
  0
VERTEX
  8
0
 10
656.0374
 20
477.0795
 30
0.0000
  0
VERTEX
  8
0
 10
656.0382
 20
477.1473
 30
0.0000
  0
SEQEND
  0
POLYLINE
  6
continous
  8
BYBLOCK
 70
0
 66
1
  0
VERTEX
  8
0
 10
602.6118
 20
447.1473
 30
0.0000
  0
VERTEX
  8
0
 10
602.6654
 20
446.6061
 30
0.0000
  0
VERTEX
  8
0
 10
602.8522
 20
446.0103
 30
0.0000
  0
VERTEX
  8
0
 10
603.1685
 20
445.4425
 30
0.0000
  0
VERTEX
  8
0
 10
603.6065
 20
444.9167
 30
0.0000
  0
VERTEX
  8
0
 10
604.1555
 20
444.4458
 30
0.0000
  0
VERTEX
  8
0
 10
604.8018
 20
444.0414
 30
0.0000
  0
VERTEX
  8
0
 10
605.5297
 20
443.7135
 30
0.0000
  0
VERTEX
  8
0
 10
606.3212
 20
443.4701
 30
0.0000
  0
VERTEX
  8
0
 10
607.2514
 20
443.3061
 30
0.0000
  0
VERTEX
  8
0
 10
608.2078
 20
443.2588
 30
0.0000
  0
VERTEX
  8
0
 10
609.1613
 20
443.3297
 30
0.0000
  0
VERTEX
  8
0
 10
610.0829
 20
443.5166
 30
0.0000
  0
VERTEX
  8
0
 10
610.8618
 20
443.7793
 30
0.0000
  0
VERTEX
  8
0
 10
611.5731
 20
444.1250
 30
0.0000
  0
VERTEX
  8
0
 10
612.0009
 20
444.3973
 30
0.0000
  0
SEQEND
  0
POLYLINE
  6
continous
  8
BYBLOCK
 70
0
 66
1
  0
VERTEX
  8
0
 10
604.2227
 20
449.8973
 30
0.0000
  0
VERTEX
  8
0
 10
603.6622
 20
449.4333
 30
0.0000
  0
VERTEX
  8
0
 10
603.2113
 20
448.9129
 30
0.0000
  0
VERTEX
  8
0
 10
602.8810
 20
448.3491
 30
0.0000
  0
VERTEX
  8
0
 10
602.6795
 20
447.7557
 30
0.0000
  0
VERTEX
  8
0
 10
602.6127
 20
447.2152
 30
0.0000
  0
VERTEX
  8
0
 10
602.6118
 20
447.1473
 30
0.0000
  0
SEQEND
  0
POLYLINE
  6
continous
  8
BYBLOCK
 70
0
 66
1
  0
VERTEX
  8
0
 10
613.6118
 20
447.1473
 30
0.0000
  0
VERTEX
  8
0
 10
613.5583
 20
447.6886
 30
0.0000
  0
VERTEX
  8
0
 10
613.3715
 20
448.2844
 30
0.0000
  0
VERTEX
  8
0
 10
613.0552
 20
448.8522
 30
0.0000
  0
VERTEX
  8
0
 10
612.6172
 20
449.3780
 30
0.0000
  0
VERTEX
  8
0
 10
612.0682
 20
449.8489
 30
0.0000
  0
VERTEX
  8
0
 10
611.4218
 20
450.2533
 30
0.0000
  0
VERTEX
  8
0
 10
610.6939
 20
450.5812
 30
0.0000
  0
VERTEX
  8
0
 10
609.9025
 20
450.8245
 30
0.0000
  0
VERTEX
  8
0
 10
608.9722
 20
450.9885
 30
0.0000
  0
VERTEX
  8
0
 10
608.0158
 20
451.0358
 30
0.0000
  0
VERTEX
  8
0
 10
607.0624
 20
450.9650
 30
0.0000
  0
VERTEX
  8
0
 10
606.1408
 20
450.7781
 30
0.0000
  0
VERTEX
  8
0
 10
605.3618
 20
450.5154
 30
0.0000
  0
VERTEX
  8
0
 10
604.6506
 20
450.1697
 30
0.0000
  0
VERTEX
  8
0
 10
604.2227
 20
449.8973
 30
0.0000
  0
SEQEND
  0
POLYLINE
  6
continous
  8
BYBLOCK
 70
0
 66
1
  0
VERTEX
  8
0
 10
612.0009
 20
444.3973
 30
0.0000
  0
VERTEX
  8
0
 10
612.5614
 20
444.8614
 30
0.0000
  0
VERTEX
  8
0
 10
613.0124
 20
445.3817
 30
0.0000
  0
VERTEX
  8
0
 10
613.3426
 20
445.9455
 30
0.0000
  0
VERTEX
  8
0
 10
613.5441
 20
446.5390
 30
0.0000
  0
VERTEX
  8
0
 10
613.6110
 20
447.0795
 30
0.0000
  0
VERTEX
  8
0
 10
613.6118
 20
447.1473
 30
0.0000
  0
SEQEND
  0
POLYLINE
  6
continous
  8
BYBLOCK
 70
0
 66
1
  0
VERTEX
  8
0
 10
560.1854
 20
417.1473
 30
0.0000
  0
VERTEX
  8
0
 10
560.2390
 20
416.6061
 30
0.0000
  0
VERTEX
  8
0
 10
560.4257
 20
416.0103
 30
0.0000
  0
VERTEX
  8
0
 10
560.7421
 20
415.4425
 30
0.0000
  0
VERTEX
  8
0
 10
561.1801
 20
414.9167
 30
0.0000
  0
VERTEX
  8
0
 10
561.7291
 20
414.4458
 30
0.0000
  0
VERTEX
  8
0
 10
562.3754
 20
414.0414
 30
0.0000
  0
VERTEX
  8
0
 10
563.1033
 20
413.7135
 30
0.0000
  0
VERTEX
  8
0
 10
563.8948
 20
413.4701
 30
0.0000
  0
VERTEX
  8
0
 10
564.8250
 20
413.3061
 30
0.0000
  0
VERTEX
  8
0
 10
565.7814
 20
413.2588
 30
0.0000
  0
VERTEX
  8
0
 10
566.7349
 20
413.3297
 30
0.0000
  0
VERTEX
  8
0
 10
567.6564
 20
413.5166
 30
0.0000
  0
VERTEX
  8
0
 10
568.4354
 20
413.7793
 30
0.0000
  0
VERTEX
  8
0
 10
569.1467
 20
414.1250
 30
0.0000
  0
VERTEX
  8
0
 10
569.5745
 20
414.3973
 30
0.0000
  0
SEQEND
  0
POLYLINE
  6
continous
  8
BYBLOCK
 70
0
 66
1
  0
VERTEX
  8
0
 10
561.7963
 20
419.8973
 30
0.0000
  0
VERTEX
  8
0
 10
561.2358
 20
419.4333
 30
0.0000
  0
VERTEX
  8
0
 10
560.7849
 20
418.9129
 30
0.0000
  0
VERTEX
  8
0
 10
560.4546
 20
418.3491
 30
0.0000
  0
VERTEX
  8
0
 10
560.2531
 20
417.7557
 30
0.0000
  0
VERTEX
  8
0
 10
560.1863
 20
417.2152
 30
0.0000
  0
VERTEX
  8
0
 10
560.1854
 20
417.1473
 30
0.0000
  0
SEQEND
  0
POLYLINE
  6
continous
  8
BYBLOCK
 70
0
 66
1
  0
VERTEX
  8
0
 10
571.1854
 20
417.1473
 30
0.0000
  0
VERTEX
  8
0
 10
571.1319
 20
417.6886
 30
0.0000
  0
VERTEX
  8
0
 10
570.9451
 20
418.2844
 30
0.0000
  0
VERTEX
  8
0
 10
570.6288
 20
418.8522
 30
0.0000
  0
VERTEX
  8
0
 10
570.1908
 20
419.3780
 30
0.0000
  0
VERTEX
  8
0
 10
569.6418
 20
419.8489
 30
0.0000
  0
VERTEX
  8
0
 10
568.9954
 20
420.2533
 30
0.0000
  0
VERTEX
  8
0
 10
568.2675
 20
420.5812
 30
0.0000
  0
VERTEX
  8
0
 10
567.4760
 20
420.8245
 30
0.0000
  0
VERTEX
  8
0
 10
566.5458
 20
420.9885
 30
0.0000
  0
VERTEX
  8
0
 10
565.5894
 20
421.0358
 30
0.0000
  0
VERTEX
  8
0
 10
564.6360
 20
420.9650
 30
0.0000
  0
VERTEX
  8
0
 10
563.7144
 20
420.7781
 30
0.0000
  0
VERTEX
  8
0
 10
562.9354
 20
420.5154
 30
0.0000
  0
VERTEX
  8
0
 10
562.2242
 20
420.1697
 30
0.0000
  0
VERTEX
  8
0
 10
561.7963
 20
419.8973
 30
0.0000
  0
SEQEND
  0
POLYLINE
  6
continous
  8
BYBLOCK
 70
0
 66
1
  0
VERTEX
  8
0
 10
569.5745
 20
414.3973
 30
0.0000
  0
VERTEX
  8
0
 10
570.1350
 20
414.8614
 30
0.0000
  0
VERTEX
  8
0
 10
570.5860
 20
415.3817
 30
0.0000
  0
VERTEX
  8
0
 10
570.9162
 20
415.9455
 30
0.0000
  0
VERTEX
  8
0
 10
571.1177
 20
416.5390
 30
0.0000
  0
VERTEX
  8
0
 10
571.1846
 20
417.0795
 30
0.0000
  0
VERTEX
  8
0
 10
571.1854
 20
417.1473
 30
0.0000
  0
SEQEND
  0
POLYLINE
  6
continous
  8
BYBLOCK
 70
0
 66
1
  0
VERTEX
  8
0
 10
517.7590
 20
387.1473
 30
0.0000
  0
VERTEX
  8
0
 10
517.8125
 20
386.6061
 30
0.0000
  0
VERTEX
  8
0
 10
517.9993
 20
386.0103
 30
0.0000
  0
VERTEX
  8
0
 10
518.3157
 20
385.4425
 30
0.0000
  0
VERTEX
  8
0
 10
518.7537
 20
384.9167
 30
0.0000
  0
VERTEX
  8
0
 10
519.3026
 20
384.4458
 30
0.0000
  0
VERTEX
  8
0
 10
519.9490
 20
384.0414
 30
0.0000
  0
VERTEX
  8
0
 10
520.6769
 20
383.7135
 30
0.0000
  0
VERTEX
  8
0
 10
521.4684
 20
383.4701
 30
0.0000
  0
VERTEX
  8
0
 10
522.3986
 20
383.3061
 30
0.0000
  0
VERTEX
  8
0
 10
523.3550
 20
383.2588
 30
0.0000
  0
VERTEX
  8
0
 10
524.3085
 20
383.3297
 30
0.0000
  0
VERTEX
  8
0
 10
525.2300
 20
383.5166
 30
0.0000
  0
VERTEX
  8
0
 10
526.0090
 20
383.7793
 30
0.0000
  0
VERTEX
  8
0
 10
526.7203
 20
384.1250
 30
0.0000
  0
VERTEX
  8
0
 10
527.1481
 20
384.3973
 30
0.0000
  0
SEQEND
  0
POLYLINE
  6
continous
  8
BYBLOCK
 70
0
 66
1
  0
VERTEX
  8
0
 10
519.3699
 20
389.8973
 30
0.0000
  0
VERTEX
  8
0
 10
518.8094
 20
389.4333
 30
0.0000
  0
VERTEX
  8
0
 10
518.3585
 20
388.9129
 30
0.0000
  0
VERTEX
  8
0
 10
518.0282
 20
388.3491
 30
0.0000
  0
VERTEX
  8
0
 10
517.8267
 20
387.7557
 30
0.0000
  0
VERTEX
  8
0
 10
517.7599
 20
387.2152
 30
0.0000
  0
VERTEX
  8
0
 10
517.7590
 20
387.1473
 30
0.0000
  0
SEQEND
  0
POLYLINE
  6
continous
  8
BYBLOCK
 70
0
 66
1
  0
VERTEX
  8
0
 10
528.7590
 20
387.1473
 30
0.0000
  0
VERTEX
  8
0
 10
528.7055
 20
387.6886
 30
0.0000
  0
VERTEX
  8
0
 10
528.5187
 20
388.2844
 30
0.0000
  0
VERTEX
  8
0
 10
528.2024
 20
388.8522
 30
0.0000
  0
VERTEX
  8
0
 10
527.7644
 20
389.3780
 30
0.0000
  0
VERTEX
  8
0
 10
527.2154
 20
389.8489
 30
0.0000
  0
VERTEX
  8
0
 10
526.5690
 20
390.2533
 30
0.0000
  0
VERTEX
  8
0
 10
525.8411
 20
390.5812
 30
0.0000
  0
VERTEX
  8
0
 10
525.0496
 20
390.8245
 30
0.0000
  0
VERTEX
  8
0
 10
524.1194
 20
390.9885
 30
0.0000
  0
VERTEX
  8
0
 10
523.1630
 20
391.0358
 30
0.0000
  0
VERTEX
  8
0
 10
522.2096
 20
390.9650
 30
0.0000
  0
VERTEX
  8
0
 10
521.2880
 20
390.7781
 30
0.0000
  0
VERTEX
  8
0
 10
520.5090
 20
390.5154
 30
0.0000
  0
VERTEX
  8
0
 10
519.7978
 20
390.1697
 30
0.0000
  0
VERTEX
  8
0
 10
519.3699
 20
389.8973
 30
0.0000
  0
SEQEND
  0
POLYLINE
  6
continous
  8
BYBLOCK
 70
0
 66
1
  0
VERTEX
  8
0
 10
527.1481
 20
384.3973
 30
0.0000
  0
VERTEX
  8
0
 10
527.7086
 20
384.8614
 30
0.0000
  0
VERTEX
  8
0
 10
528.1596
 20
385.3817
 30
0.0000
  0
VERTEX
  8
0
 10
528.4898
 20
385.9455
 30
0.0000
  0
VERTEX
  8
0
 10
528.6913
 20
386.5390
 30
0.0000
  0
VERTEX
  8
0
 10
528.7582
 20
387.0795
 30
0.0000
  0
VERTEX
  8
0
 10
528.7590
 20
387.1473
 30
0.0000
  0
SEQEND
  0
POLYLINE
  6
continous
  8
BYBLOCK
 70
0
 66
1
  0
VERTEX
  8
0
 10
475.3326
 20
357.1473
 30
0.0000
  0
VERTEX
  8
0
 10
475.3861
 20
356.6061
 30
0.0000
  0
VERTEX
  8
0
 10
475.5729
 20
356.0103
 30
0.0000
  0
VERTEX
  8
0
 10
475.8892
 20
355.4425
 30
0.0000
  0
VERTEX
  8
0
 10
476.3273
 20
354.9167
 30
0.0000
  0
VERTEX
  8
0
 10
476.8762
 20
354.4458
 30
0.0000
  0
VERTEX
  8
0
 10
477.5226
 20
354.0414
 30
0.0000
  0
VERTEX
  8
0
 10
478.2505
 20
353.7135
 30
0.0000
  0
VERTEX
  8
0
 10
479.0420
 20
353.4701
 30
0.0000
  0
VERTEX
  8
0
 10
479.9722
 20
353.3061
 30
0.0000
  0
VERTEX
  8
0
 10
480.9286
 20
353.2588
 30
0.0000
  0
VERTEX
  8
0
 10
481.8821
 20
353.3297
 30
0.0000
  0
VERTEX
  8
0
 10
482.8036
 20
353.5166
 30
0.0000
  0
VERTEX
  8
0
 10
483.5826
 20
353.7793
 30
0.0000
  0
VERTEX
  8
0
 10
484.2939
 20
354.1250
 30
0.0000
  0
VERTEX
  8
0
 10
484.7217
 20
354.3973
 30
0.0000
  0
SEQEND
  0
POLYLINE
  6
continous
  8
BYBLOCK
 70
0
 66
1
  0
VERTEX
  8
0
 10
476.9435
 20
359.8973
 30
0.0000
  0
VERTEX
  8
0
 10
476.3830
 20
359.4333
 30
0.0000
  0
VERTEX
  8
0
 10
475.9321
 20
358.9129
 30
0.0000
  0
VERTEX
  8
0
 10
475.6018
 20
358.3491
 30
0.0000
  0
VERTEX
  8
0
 10
475.4003
 20
357.7557
 30
0.0000
  0
VERTEX
  8
0
 10
475.3334
 20
357.2152
 30
0.0000
  0
VERTEX
  8
0
 10
475.3326
 20
357.1473
 30
0.0000
  0
SEQEND
  0
POLYLINE
  6
continous
  8
BYBLOCK
 70
0
 66
1
  0
VERTEX
  8
0
 10
486.3326
 20
357.1473
 30
0.0000
  0
VERTEX
  8
0
 10
486.2791
 20
357.6886
 30
0.0000
  0
VERTEX
  8
0
 10
486.0923
 20
358.2844
 30
0.0000
  0
VERTEX
  8
0
 10
485.7760
 20
358.8522
 30
0.0000
  0
VERTEX
  8
0
 10
485.3379
 20
359.3780
 30
0.0000
  0
VERTEX
  8
0
 10
484.7890
 20
359.8489
 30
0.0000
  0
VERTEX
  8
0
 10
484.1426
 20
360.2533
 30
0.0000
  0
VERTEX
  8
0
 10
483.4147
 20
360.5812
 30
0.0000
  0
VERTEX
  8
0
 10
482.6232
 20
360.8245
 30
0.0000
  0
VERTEX
  8
0
 10
481.6930
 20
360.9885
 30
0.0000
  0
VERTEX
  8
0
 10
480.7366
 20
361.0358
 30
0.0000
  0
VERTEX
  8
0
 10
479.7832
 20
360.9650
 30
0.0000
  0
VERTEX
  8
0
 10
478.8616
 20
360.7781
 30
0.0000
  0
VERTEX
  8
0
 10
478.0826
 20
360.5154
 30
0.0000
  0
VERTEX
  8
0
 10
477.3713
 20
360.1697
 30
0.0000
  0
VERTEX
  8
0
 10
476.9435
 20
359.8973
 30
0.0000
  0
SEQEND
  0
POLYLINE
  6
continous
  8
BYBLOCK
 70
0
 66
1
  0
VERTEX
  8
0
 10
484.7217
 20
354.3973
 30
0.0000
  0
VERTEX
  8
0
 10
485.2822
 20
354.8614
 30
0.0000
  0
VERTEX
  8
0
 10
485.7331
 20
355.3817
 30
0.0000
  0
VERTEX
  8
0
 10
486.0634
 20
355.9455
 30
0.0000
  0
VERTEX
  8
0
 10
486.2649
 20
356.5390
 30
0.0000
  0
VERTEX
  8
0
 10
486.3318
 20
357.0795
 30
0.0000
  0
VERTEX
  8
0
 10
486.3326
 20
357.1473
 30
0.0000
  0
SEQEND
  0
POLYLINE
  6
continous
  8
BYBLOCK
 70
0
 66
1
  0
VERTEX
  8
0
 10
432.9062
 20
327.1473
 30
0.0000
  0
VERTEX
  8
0
 10
432.9597
 20
326.6061
 30
0.0000
  0
VERTEX
  8
0
 10
433.1465
 20
326.0103
 30
0.0000
  0
VERTEX
  8
0
 10
433.4628
 20
325.4425
 30
0.0000
  0
VERTEX
  8
0
 10
433.9009
 20
324.9167
 30
0.0000
  0
VERTEX
  8
0
 10
434.4498
 20
324.4458
 30
0.0000
  0
VERTEX
  8
0
 10
435.0962
 20
324.0414
 30
0.0000
  0
VERTEX
  8
0
 10
435.8241
 20
323.7135
 30
0.0000
  0
VERTEX
  8
0
 10
436.6156
 20
323.4701
 30
0.0000
  0
VERTEX
  8
0
 10
437.5458
 20
323.3061
 30
0.0000
  0
VERTEX
  8
0
 10
438.5022
 20
323.2588
 30
0.0000
  0
VERTEX
  8
0
 10
439.4557
 20
323.3297
 30
0.0000
  0
VERTEX
  8
0
 10
440.3772
 20
323.5166
 30
0.0000
  0
VERTEX
  8
0
 10
441.1562
 20
323.7793
 30
0.0000
  0
VERTEX
  8
0
 10
441.8675
 20
324.1250
 30
0.0000
  0
VERTEX
  8
0
 10
442.2953
 20
324.3973
 30
0.0000
  0
SEQEND
  0
POLYLINE
  6
continous
  8
BYBLOCK
 70
0
 66
1
  0
VERTEX
  8
0
 10
434.5171
 20
329.8973
 30
0.0000
  0
VERTEX
  8
0
 10
433.9566
 20
329.4333
 30
0.0000
  0
VERTEX
  8
0
 10
433.5057
 20
328.9129
 30
0.0000
  0
VERTEX
  8
0
 10
433.1754
 20
328.3491
 30
0.0000
  0
VERTEX
  8
0
 10
432.9739
 20
327.7557
 30
0.0000
  0
VERTEX
  8
0
 10
432.9070
 20
327.2152
 30
0.0000
  0
VERTEX
  8
0
 10
432.9062
 20
327.1473
 30
0.0000
  0
SEQEND
  0
POLYLINE
  6
continous
  8
BYBLOCK
 70
0
 66
1
  0
VERTEX
  8
0
 10
443.9062
 20
327.1473
 30
0.0000
  0
VERTEX
  8
0
 10
443.8527
 20
327.6886
 30
0.0000
  0
VERTEX
  8
0
 10
443.6659
 20
328.2844
 30
0.0000
  0
VERTEX
  8
0
 10
443.3496
 20
328.8522
 30
0.0000
  0
VERTEX
  8
0
 10
442.9115
 20
329.3780
 30
0.0000
  0
VERTEX
  8
0
 10
442.3626
 20
329.8489
 30
0.0000
  0
VERTEX
  8
0
 10
441.7162
 20
330.2533
 30
0.0000
  0
VERTEX
  8
0
 10
440.9883
 20
330.5812
 30
0.0000
  0
VERTEX
  8
0
 10
440.1968
 20
330.8245
 30
0.0000
  0
VERTEX
  8
0
 10
439.2666
 20
330.9885
 30
0.0000
  0
VERTEX
  8
0
 10
438.3102
 20
331.0358
 30
0.0000
  0
VERTEX
  8
0
 10
437.3568
 20
330.9650
 30
0.0000
  0
VERTEX
  8
0
 10
436.4352
 20
330.7781
 30
0.0000
  0
VERTEX
  8
0
 10
435.6562
 20
330.5154
 30
0.0000
  0
VERTEX
  8
0
 10
434.9449
 20
330.1697
 30
0.0000
  0
VERTEX
  8
0
 10
434.5171
 20
329.8973
 30
0.0000
  0
SEQEND
  0
POLYLINE
  6
continous
  8
BYBLOCK
 70
0
 66
1
  0
VERTEX
  8
0
 10
442.2953
 20
324.3973
 30
0.0000
  0
VERTEX
  8
0
 10
442.8558
 20
324.8614
 30
0.0000
  0
VERTEX
  8
0
 10
443.3067
 20
325.3817
 30
0.0000
  0
VERTEX
  8
0
 10
443.6370
 20
325.9455
 30
0.0000
  0
VERTEX
  8
0
 10
443.8385
 20
326.5390
 30
0.0000
  0
VERTEX
  8
0
 10
443.9054
 20
327.0795
 30
0.0000
  0
VERTEX
  8
0
 10
443.9062
 20
327.1473
 30
0.0000
  0
SEQEND
  0
POLYLINE
  6
continous
  8
BYBLOCK
 70
0
 66
1
  0
VERTEX
  8
0
 10
390.4798
 20
297.1473
 30
0.0000
  0
VERTEX
  8
0
 10
390.5333
 20
296.6061
 30
0.0000
  0
VERTEX
  8
0
 10
390.7201
 20
296.0103
 30
0.0000
  0
VERTEX
  8
0
 10
391.0364
 20
295.4425
 30
0.0000
  0
VERTEX
  8
0
 10
391.4745
 20
294.9167
 30
0.0000
  0
VERTEX
  8
0
 10
392.0234
 20
294.4458
 30
0.0000
  0
VERTEX
  8
0
 10
392.6698
 20
294.0414
 30
0.0000
  0
VERTEX
  8
0
 10
393.3977
 20
293.7135
 30
0.0000
  0
VERTEX
  8
0
 10
394.1892
 20
293.4701
 30
0.0000
  0
VERTEX
  8
0
 10
395.1194
 20
293.3061
 30
0.0000
  0
VERTEX
  8
0
 10
396.0758
 20
293.2588
 30
0.0000
  0
VERTEX
  8
0
 10
397.0292
 20
293.3297
 30
0.0000
  0
VERTEX
  8
0
 10
397.9508
 20
293.5166
 30
0.0000
  0
VERTEX
  8
0
 10
398.7298
 20
293.7793
 30
0.0000
  0
VERTEX
  8
0
 10
399.4411
 20
294.1250
 30
0.0000
  0
VERTEX
  8
0
 10
399.8689
 20
294.3973
 30
0.0000
  0
SEQEND
  0
POLYLINE
  6
continous
  8
BYBLOCK
 70
0
 66
1
  0
VERTEX
  8
0
 10
392.0907
 20
299.8973
 30
0.0000
  0
VERTEX
  8
0
 10
391.5302
 20
299.4333
 30
0.0000
  0
VERTEX
  8
0
 10
391.0793
 20
298.9129
 30
0.0000
  0
VERTEX
  8
0
 10
390.7490
 20
298.3491
 30
0.0000
  0
VERTEX
  8
0
 10
390.5475
 20
297.7557
 30
0.0000
  0
VERTEX
  8
0
 10
390.4806
 20
297.2152
 30
0.0000
  0
VERTEX
  8
0
 10
390.4798
 20
297.1473
 30
0.0000
  0
SEQEND
  0
POLYLINE
  6
continous
  8
BYBLOCK
 70
0
 66
1
  0
VERTEX
  8
0
 10
401.4798
 20
297.1473
 30
0.0000
  0
VERTEX
  8
0
 10
401.4263
 20
297.6886
 30
0.0000
  0
VERTEX
  8
0
 10
401.2395
 20
298.2844
 30
0.0000
  0
VERTEX
  8
0
 10
400.9232
 20
298.8522
 30
0.0000
  0
VERTEX
  8
0
 10
400.4851
 20
299.3780
 30
0.0000
  0
VERTEX
  8
0
 10
399.9362
 20
299.8489
 30
0.0000
  0
VERTEX
  8
0
 10
399.2898
 20
300.2533
 30
0.0000
  0
VERTEX
  8
0
 10
398.5619
 20
300.5812
 30
0.0000
  0
VERTEX
  8
0
 10
397.7704
 20
300.8245
 30
0.0000
  0
VERTEX
  8
0
 10
396.8402
 20
300.9885
 30
0.0000
  0
VERTEX
  8
0
 10
395.8838
 20
301.0358
 30
0.0000
  0
VERTEX
  8
0
 10
394.9303
 20
300.9650
 30
0.0000
  0
VERTEX
  8
0
 10
394.0088
 20
300.7781
 30
0.0000
  0
VERTEX
  8
0
 10
393.2298
 20
300.5154
 30
0.0000
  0
VERTEX
  8
0
 10
392.5185
 20
300.1697
 30
0.0000
  0
VERTEX
  8
0
 10
392.0907
 20
299.8973
 30
0.0000
  0
SEQEND
  0
POLYLINE
  6
continous
  8
BYBLOCK
 70
0
 66
1
  0
VERTEX
  8
0
 10
399.8689
 20
294.3973
 30
0.0000
  0
VERTEX
  8
0
 10
400.4294
 20
294.8614
 30
0.0000
  0
VERTEX
  8
0
 10
400.8803
 20
295.3817
 30
0.0000
  0
VERTEX
  8
0
 10
401.2106
 20
295.9455
 30
0.0000
  0
VERTEX
  8
0
 10
401.4121
 20
296.5390
 30
0.0000
  0
VERTEX
  8
0
 10
401.4790
 20
297.0795
 30
0.0000
  0
VERTEX
  8
0
 10
401.4798
 20
297.1473
 30
0.0000
  0
SEQEND
  0
POLYLINE
  6
continous
  8
BYBLOCK
 70
0
 66
1
  0
VERTEX
  8
0
 10
348.0534
 20
267.1473
 30
0.0000
  0
VERTEX
  8
0
 10
348.1069
 20
266.6061
 30
0.0000
  0
VERTEX
  8
0
 10
348.2937
 20
266.0103
 30
0.0000
  0
VERTEX
  8
0
 10
348.6100
 20
265.4425
 30
0.0000
  0
VERTEX
  8
0
 10
349.0481
 20
264.9167
 30
0.0000
  0
VERTEX
  8
0
 10
349.5970
 20
264.4458
 30
0.0000
  0
VERTEX
  8
0
 10
350.2434
 20
264.0414
 30
0.0000
  0
VERTEX
  8
0
 10
350.9713
 20
263.7135
 30
0.0000
  0
VERTEX
  8
0
 10
351.7628
 20
263.4701
 30
0.0000
  0
VERTEX
  8
0
 10
352.6930
 20
263.3061
 30
0.0000
  0
VERTEX
  8
0
 10
353.6494
 20
263.2588
 30
0.0000
  0
VERTEX
  8
0
 10
354.6028
 20
263.3297
 30
0.0000
  0
VERTEX
  8
0
 10
355.5244
 20
263.5166
 30
0.0000
  0
VERTEX
  8
0
 10
356.3034
 20
263.7793
 30
0.0000
  0
VERTEX
  8
0
 10
357.0147
 20
264.1250
 30
0.0000
  0
VERTEX
  8
0
 10
357.4425
 20
264.3973
 30
0.0000
  0
SEQEND
  0
POLYLINE
  6
continous
  8
BYBLOCK
 70
0
 66
1
  0
VERTEX
  8
0
 10
349.6643
 20
269.8973
 30
0.0000
  0
VERTEX
  8
0
 10
349.1038
 20
269.4333
 30
0.0000
  0
VERTEX
  8
0
 10
348.6529
 20
268.9129
 30
0.0000
  0
VERTEX
  8
0
 10
348.3226
 20
268.3491
 30
0.0000
  0
VERTEX
  8
0
 10
348.1211
 20
267.7557
 30
0.0000
  0
VERTEX
  8
0
 10
348.0542
 20
267.2152
 30
0.0000
  0
VERTEX
  8
0
 10
348.0534
 20
267.1473
 30
0.0000
  0
SEQEND
  0
POLYLINE
  6
continous
  8
BYBLOCK
 70
0
 66
1
  0
VERTEX
  8
0
 10
359.0534
 20
267.1473
 30
0.0000
  0
VERTEX
  8
0
 10
358.9999
 20
267.6886
 30
0.0000
  0
VERTEX
  8
0
 10
358.8131
 20
268.2844
 30
0.0000
  0
VERTEX
  8
0
 10
358.4968
 20
268.8522
 30
0.0000
  0
VERTEX
  8
0
 10
358.0587
 20
269.3780
 30
0.0000
  0
VERTEX
  8
0
 10
357.5098
 20
269.8489
 30
0.0000
  0
VERTEX
  8
0
 10
356.8634
 20
270.2533
 30
0.0000
  0
VERTEX
  8
0
 10
356.1355
 20
270.5812
 30
0.0000
  0
VERTEX
  8
0
 10
355.3440
 20
270.8245
 30
0.0000
  0
VERTEX
  8
0
 10
354.4138
 20
270.9885
 30
0.0000
  0
VERTEX
  8
0
 10
353.4574
 20
271.0358
 30
0.0000
  0
VERTEX
  8
0
 10
352.5039
 20
270.9650
 30
0.0000
  0
VERTEX
  8
0
 10
351.5824
 20
270.7781
 30
0.0000
  0
VERTEX
  8
0
 10
350.8034
 20
270.5154
 30
0.0000
  0
VERTEX
  8
0
 10
350.0921
 20
270.1697
 30
0.0000
  0
VERTEX
  8
0
 10
349.6643
 20
269.8973
 30
0.0000
  0
SEQEND
  0
POLYLINE
  6
continous
  8
BYBLOCK
 70
0
 66
1
  0
VERTEX
  8
0
 10
357.4425
 20
264.3973
 30
0.0000
  0
VERTEX
  8
0
 10
358.0030
 20
264.8614
 30
0.0000
  0
VERTEX
  8
0
 10
358.4539
 20
265.3817
 30
0.0000
  0
VERTEX
  8
0
 10
358.7842
 20
265.9455
 30
0.0000
  0
VERTEX
  8
0
 10
358.9857
 20
266.5390
 30
0.0000
  0
VERTEX
  8
0
 10
359.0526
 20
267.0795
 30
0.0000
  0
VERTEX
  8
0
 10
359.0534
 20
267.1473
 30
0.0000
  0
SEQEND
  0
POLYLINE
  6
continous
  8
BYBLOCK
 70
0
 66
1
  0
VERTEX
  8
0
 10
305.6270
 20
237.1473
 30
0.0000
  0
VERTEX
  8
0
 10
305.6805
 20
236.6061
 30
0.0000
  0
VERTEX
  8
0
 10
305.8673
 20
236.0103
 30
0.0000
  0
VERTEX
  8
0
 10
306.1836
 20
235.4425
 30
0.0000
  0
VERTEX
  8
0
 10
306.6216
 20
234.9167
 30
0.0000
  0
VERTEX
  8
0
 10
307.1706
 20
234.4458
 30
0.0000
  0
VERTEX
  8
0
 10
307.8170
 20
234.0414
 30
0.0000
  0
VERTEX
  8
0
 10
308.5449
 20
233.7135
 30
0.0000
  0
VERTEX
  8
0
 10
309.3364
 20
233.4701
 30
0.0000
  0
VERTEX
  8
0
 10
310.2666
 20
233.3061
 30
0.0000
  0
VERTEX
  8
0
 10
311.2230
 20
233.2588
 30
0.0000
  0
VERTEX
  8
0
 10
312.1764
 20
233.3297
 30
0.0000
  0
VERTEX
  8
0
 10
313.0980
 20
233.5166
 30
0.0000
  0
VERTEX
  8
0
 10
313.8770
 20
233.7793
 30
0.0000
  0
VERTEX
  8
0
 10
314.5882
 20
234.1250
 30
0.0000
  0
VERTEX
  8
0
 10
315.0161
 20
234.3973
 30
0.0000
  0
SEQEND
  0
POLYLINE
  6
continous
  8
BYBLOCK
 70
0
 66
1
  0
VERTEX
  8
0
 10
307.2379
 20
239.8973
 30
0.0000
  0
VERTEX
  8
0
 10
306.6774
 20
239.4333
 30
0.0000
  0
VERTEX
  8
0
 10
306.2264
 20
238.9129
 30
0.0000
  0
VERTEX
  8
0
 10
305.8962
 20
238.3491
 30
0.0000
  0
VERTEX
  8
0
 10
305.6947
 20
237.7557
 30
0.0000
  0
VERTEX
  8
0
 10
305.6278
 20
237.2152
 30
0.0000
  0
VERTEX
  8
0
 10
305.6270
 20
237.1473
 30
0.0000
  0
SEQEND
  0
POLYLINE
  6
continous
  8
BYBLOCK
 70
0
 66
1
  0
VERTEX
  8
0
 10
316.6270
 20
237.1473
 30
0.0000
  0
VERTEX
  8
0
 10
316.5735
 20
237.6886
 30
0.0000
  0
VERTEX
  8
0
 10
316.3867
 20
238.2844
 30
0.0000
  0
VERTEX
  8
0
 10
316.0704
 20
238.8522
 30
0.0000
  0
VERTEX
  8
0
 10
315.6323
 20
239.3780
 30
0.0000
  0
VERTEX
  8
0
 10
315.0834
 20
239.8489
 30
0.0000
  0
VERTEX
  8
0
 10
314.4370
 20
240.2533
 30
0.0000
  0
VERTEX
  8
0
 10
313.7091
 20
240.5812
 30
0.0000
  0
VERTEX
  8
0
 10
312.9176
 20
240.8245
 30
0.0000
  0
VERTEX
  8
0
 10
311.9874
 20
240.9885
 30
0.0000
  0
VERTEX
  8
0
 10
311.0310
 20
241.0358
 30
0.0000
  0
VERTEX
  8
0
 10
310.0775
 20
240.9650
 30
0.0000
  0
VERTEX
  8
0
 10
309.1560
 20
240.7781
 30
0.0000
  0
VERTEX
  8
0
 10
308.3770
 20
240.5154
 30
0.0000
  0
VERTEX
  8
0
 10
307.6657
 20
240.1697
 30
0.0000
  0
VERTEX
  8
0
 10
307.2379
 20
239.8973
 30
0.0000
  0
SEQEND
  0
POLYLINE
  6
continous
  8
BYBLOCK
 70
0
 66
1
  0
VERTEX
  8
0
 10
315.0161
 20
234.3973
 30
0.0000
  0
VERTEX
  8
0
 10
315.5766
 20
234.8614
 30
0.0000
  0
VERTEX
  8
0
 10
316.0275
 20
235.3817
 30
0.0000
  0
VERTEX
  8
0
 10
316.3578
 20
235.9455
 30
0.0000
  0
VERTEX
  8
0
 10
316.5593
 20
236.5390
 30
0.0000
  0
VERTEX
  8
0
 10
316.6261
 20
237.0795
 30
0.0000
  0
VERTEX
  8
0
 10
316.6270
 20
237.1473
 30
0.0000
  0
SEQEND
  0
POLYLINE
  6
continous
  8
BYBLOCK
 70
0
 66
1
  0
VERTEX
  8
0
 10
263.2006
 20
207.1473
 30
0.0000
  0
VERTEX
  8
0
 10
263.2541
 20
206.6061
 30
0.0000
  0
VERTEX
  8
0
 10
263.4409
 20
206.0103
 30
0.0000
  0
VERTEX
  8
0
 10
263.7572
 20
205.4425
 30
0.0000
  0
VERTEX
  8
0
 10
264.1952
 20
204.9167
 30
0.0000
  0
VERTEX
  8
0
 10
264.7442
 20
204.4458
 30
0.0000
  0
VERTEX
  8
0
 10
265.3906
 20
204.0414
 30
0.0000
  0
VERTEX
  8
0
 10
266.1185
 20
203.7135
 30
0.0000
  0
VERTEX
  8
0
 10
266.9100
 20
203.4701
 30
0.0000
  0
VERTEX
  8
0
 10
267.8402
 20
203.3061
 30
0.0000
  0
VERTEX
  8
0
 10
268.7966
 20
203.2588
 30
0.0000
  0
VERTEX
  8
0
 10
269.7500
 20
203.3297
 30
0.0000
  0
VERTEX
  8
0
 10
270.6716
 20
203.5166
 30
0.0000
  0
VERTEX
  8
0
 10
271.4506
 20
203.7793
 30
0.0000
  0
VERTEX
  8
0
 10
272.1618
 20
204.1250
 30
0.0000
  0
VERTEX
  8
0
 10
272.5897
 20
204.3973
 30
0.0000
  0
SEQEND
  0
POLYLINE
  6
continous
  8
BYBLOCK
 70
0
 66
1
  0
VERTEX
  8
0
 10
264.8115
 20
209.8973
 30
0.0000
  0
VERTEX
  8
0
 10
264.2510
 20
209.4333
 30
0.0000
  0
VERTEX
  8
0
 10
263.8000
 20
208.9129
 30
0.0000
  0
VERTEX
  8
0
 10
263.4698
 20
208.3491
 30
0.0000
  0
VERTEX
  8
0
 10
263.2683
 20
207.7557
 30
0.0000
  0
VERTEX
  8
0
 10
263.2014
 20
207.2152
 30
0.0000
  0
VERTEX
  8
0
 10
263.2006
 20
207.1473
 30
0.0000
  0
SEQEND
  0
POLYLINE
  6
continous
  8
BYBLOCK
 70
0
 66
1
  0
VERTEX
  8
0
 10
274.2006
 20
207.1473
 30
0.0000
  0
VERTEX
  8
0
 10
274.1471
 20
207.6886
 30
0.0000
  0
VERTEX
  8
0
 10
273.9603
 20
208.2844
 30
0.0000
  0
VERTEX
  8
0
 10
273.6439
 20
208.8522
 30
0.0000
  0
VERTEX
  8
0
 10
273.2059
 20
209.3780
 30
0.0000
  0
VERTEX
  8
0
 10
272.6569
 20
209.8489
 30
0.0000
  0
VERTEX
  8
0
 10
272.0106
 20
210.2533
 30
0.0000
  0
VERTEX
  8
0
 10
271.2827
 20
210.5812
 30
0.0000
  0
VERTEX
  8
0
 10
270.4912
 20
210.8245
 30
0.0000
  0
VERTEX
  8
0
 10
269.5610
 20
210.9885
 30
0.0000
  0
VERTEX
  8
0
 10
268.6046
 20
211.0358
 30
0.0000
  0
VERTEX
  8
0
 10
267.6511
 20
210.9650
 30
0.0000
  0
VERTEX
  8
0
 10
266.7296
 20
210.7781
 30
0.0000
  0
VERTEX
  8
0
 10
265.9506
 20
210.5154
 30
0.0000
  0
VERTEX
  8
0
 10
265.2393
 20
210.1697
 30
0.0000
  0
VERTEX
  8
0
 10
264.8115
 20
209.8973
 30
0.0000
  0
SEQEND
  0
POLYLINE
  6
continous
  8
BYBLOCK
 70
0
 66
1
  0
VERTEX
  8
0
 10
272.5897
 20
204.3973
 30
0.0000
  0
VERTEX
  8
0
 10
273.1502
 20
204.8614
 30
0.0000
  0
VERTEX
  8
0
 10
273.6011
 20
205.3817
 30
0.0000
  0
VERTEX
  8
0
 10
273.9314
 20
205.9455
 30
0.0000
  0
VERTEX
  8
0
 10
274.1329
 20
206.5390
 30
0.0000
  0
VERTEX
  8
0
 10
274.1997
 20
207.0795
 30
0.0000
  0
VERTEX
  8
0
 10
274.2006
 20
207.1473
 30
0.0000
  0
SEQEND
  0
POLYLINE
  6
continous
  8
BYBLOCK
 70
0
 66
1
  0
VERTEX
  8
0
 10
220.7742
 20
177.1473
 30
0.0000
  0
VERTEX
  8
0
 10
220.8277
 20
176.6061
 30
0.0000
  0
VERTEX
  8
0
 10
221.0145
 20
176.0103
 30
0.0000
  0
VERTEX
  8
0
 10
221.3308
 20
175.4425
 30
0.0000
  0
VERTEX
  8
0
 10
221.7688
 20
174.9167
 30
0.0000
  0
VERTEX
  8
0
 10
222.3178
 20
174.4458
 30
0.0000
  0
VERTEX
  8
0
 10
222.9642
 20
174.0414
 30
0.0000
  0
VERTEX
  8
0
 10
223.6921
 20
173.7135
 30
0.0000
  0
VERTEX
  8
0
 10
224.4835
 20
173.4701
 30
0.0000
  0
VERTEX
  8
0
 10
225.4138
 20
173.3061
 30
0.0000
  0
VERTEX
  8
0
 10
226.3702
 20
173.2588
 30
0.0000
  0
VERTEX
  8
0
 10
227.3236
 20
173.3297
 30
0.0000
  0
VERTEX
  8
0
 10
228.2452
 20
173.5166
 30
0.0000
  0
VERTEX
  8
0
 10
229.0242
 20
173.7793
 30
0.0000
  0
VERTEX
  8
0
 10
229.7354
 20
174.1250
 30
0.0000
  0
VERTEX
  8
0
 10
230.1633
 20
174.3973
 30
0.0000
  0
SEQEND
  0
POLYLINE
  6
continous
  8
BYBLOCK
 70
0
 66
1
  0
VERTEX
  8
0
 10
222.3851
 20
179.8973
 30
0.0000
  0
VERTEX
  8
0
 10
221.8246
 20
179.4333
 30
0.0000
  0
VERTEX
  8
0
 10
221.3736
 20
178.9129
 30
0.0000
  0
VERTEX
  8
0
 10
221.0434
 20
178.3491
 30
0.0000
  0
VERTEX
  8
0
 10
220.8419
 20
177.7557
 30
0.0000
  0
VERTEX
  8
0
 10
220.7750
 20
177.2152
 30
0.0000
  0
VERTEX
  8
0
 10
220.7742
 20
177.1473
 30
0.0000
  0
SEQEND
  0
POLYLINE
  6
continous
  8
BYBLOCK
 70
0
 66
1
  0
VERTEX
  8
0
 10
231.7742
 20
177.1473
 30
0.0000
  0
VERTEX
  8
0
 10
231.7206
 20
177.6886
 30
0.0000
  0
VERTEX
  8
0
 10
231.5338
 20
178.2844
 30
0.0000
  0
VERTEX
  8
0
 10
231.2175
 20
178.8522
 30
0.0000
  0
VERTEX
  8
0
 10
230.7795
 20
179.3780
 30
0.0000
  0
VERTEX
  8
0
 10
230.2305
 20
179.8489
 30
0.0000
  0
VERTEX
  8
0
 10
229.5842
 20
180.2533
 30
0.0000
  0
VERTEX
  8
0
 10
228.8563
 20
180.5812
 30
0.0000
  0
VERTEX
  8
0
 10
228.0648
 20
180.8245
 30
0.0000
  0
VERTEX
  8
0
 10
227.1346
 20
180.9885
 30
0.0000
  0
VERTEX
  8
0
 10
226.1782
 20
181.0358
 30
0.0000
  0
VERTEX
  8
0
 10
225.2247
 20
180.9650
 30
0.0000
  0
VERTEX
  8
0
 10
224.3031
 20
180.7781
 30
0.0000
  0
VERTEX
  8
0
 10
223.5242
 20
180.5154
 30
0.0000
  0
VERTEX
  8
0
 10
222.8129
 20
180.1697
 30
0.0000
  0
VERTEX
  8
0
 10
222.3851
 20
179.8973
 30
0.0000
  0
SEQEND
  0
POLYLINE
  6
continous
  8
BYBLOCK
 70
0
 66
1
  0
VERTEX
  8
0
 10
230.1633
 20
174.3973
 30
0.0000
  0
VERTEX
  8
0
 10
230.7238
 20
174.8614
 30
0.0000
  0
VERTEX
  8
0
 10
231.1747
 20
175.3817
 30
0.0000
  0
VERTEX
  8
0
 10
231.5050
 20
175.9455
 30
0.0000
  0
VERTEX
  8
0
 10
231.7065
 20
176.5390
 30
0.0000
  0
VERTEX
  8
0
 10
231.7733
 20
177.0795
 30
0.0000
  0
VERTEX
  8
0
 10
231.7742
 20
177.1473
 30
0.0000
  0
SEQEND
  0
POLYLINE
  6
continous
  8
BYBLOCK
 70
0
 66
1
  0
VERTEX
  8
0
 10
178.3478
 20
147.1473
 30
0.0000
  0
VERTEX
  8
0
 10
178.4013
 20
146.6061
 30
0.0000
  0
VERTEX
  8
0
 10
178.5881
 20
146.0103
 30
0.0000
  0
VERTEX
  8
0
 10
178.9044
 20
145.4425
 30
0.0000
  0
VERTEX
  8
0
 10
179.3424
 20
144.9167
 30
0.0000
  0
VERTEX
  8
0
 10
179.8914
 20
144.4458
 30
0.0000
  0
VERTEX
  8
0
 10
180.5378
 20
144.0414
 30
0.0000
  0
VERTEX
  8
0
 10
181.2657
 20
143.7135
 30
0.0000
  0
VERTEX
  8
0
 10
182.0571
 20
143.4701
 30
0.0000
  0
VERTEX
  8
0
 10
182.9874
 20
143.3061
 30
0.0000
  0
VERTEX
  8
0
 10
183.9438
 20
143.2588
 30
0.0000
  0
VERTEX
  8
0
 10
184.8972
 20
143.3297
 30
0.0000
  0
VERTEX
  8
0
 10
185.8188
 20
143.5166
 30
0.0000
  0
VERTEX
  8
0
 10
186.5978
 20
143.7793
 30
0.0000
  0
VERTEX
  8
0
 10
187.3090
 20
144.1250
 30
0.0000
  0
VERTEX
  8
0
 10
187.7369
 20
144.3973
 30
0.0000
  0
SEQEND
  0
POLYLINE
  6
continous
  8
BYBLOCK
 70
0
 66
1
  0
VERTEX
  8
0
 10
179.9587
 20
149.8973
 30
0.0000
  0
VERTEX
  8
0
 10
179.3982
 20
149.4333
 30
0.0000
  0
VERTEX
  8
0
 10
178.9472
 20
148.9129
 30
0.0000
  0
VERTEX
  8
0
 10
178.6170
 20
148.3491
 30
0.0000
  0
VERTEX
  8
0
 10
178.4155
 20
147.7557
 30
0.0000
  0
VERTEX
  8
0
 10
178.3486
 20
147.2152
 30
0.0000
  0
VERTEX
  8
0
 10
178.3478
 20
147.1473
 30
0.0000
  0
SEQEND
  0
POLYLINE
  6
continous
  8
BYBLOCK
 70
0
 66
1
  0
VERTEX
  8
0
 10
189.3478
 20
147.1473
 30
0.0000
  0
VERTEX
  8
0
 10
189.2942
 20
147.6886
 30
0.0000
  0
VERTEX
  8
0
 10
189.1074
 20
148.2844
 30
0.0000
  0
VERTEX
  8
0
 10
188.7911
 20
148.8522
 30
0.0000
  0
VERTEX
  8
0
 10
188.3531
 20
149.3780
 30
0.0000
  0
VERTEX
  8
0
 10
187.8041
 20
149.8489
 30
0.0000
  0
VERTEX
  8
0
 10
187.1577
 20
150.2533
 30
0.0000
  0
VERTEX
  8
0
 10
186.4299
 20
150.5812
 30
0.0000
  0
VERTEX
  8
0
 10
185.6384
 20
150.8245
 30
0.0000
  0
VERTEX
  8
0
 10
184.7082
 20
150.9885
 30
0.0000
  0
VERTEX
  8
0
 10
183.7518
 20
151.0358
 30
0.0000
  0
VERTEX
  8
0
 10
182.7983
 20
150.9650
 30
0.0000
  0
VERTEX
  8
0
 10
181.8767
 20
150.7781
 30
0.0000
  0
VERTEX
  8
0
 10
181.0978
 20
150.5154
 30
0.0000
  0
VERTEX
  8
0
 10
180.3865
 20
150.1697
 30
0.0000
  0
VERTEX
  8
0
 10
179.9587
 20
149.8973
 30
0.0000
  0
SEQEND
  0
POLYLINE
  6
continous
  8
BYBLOCK
 70
0
 66
1
  0
VERTEX
  8
0
 10
187.7369
 20
144.3973
 30
0.0000
  0
VERTEX
  8
0
 10
188.2974
 20
144.8614
 30
0.0000
  0
VERTEX
  8
0
 10
188.7483
 20
145.3817
 30
0.0000
  0
VERTEX
  8
0
 10
189.0786
 20
145.9455
 30
0.0000
  0
VERTEX
  8
0
 10
189.2800
 20
146.5390
 30
0.0000
  0
VERTEX
  8
0
 10
189.3469
 20
147.0795
 30
0.0000
  0
VERTEX
  8
0
 10
189.3478
 20
147.1473
 30
0.0000
  0
SEQEND
  0
POLYLINE
  6
continous
  8
BYBLOCK
 70
0
 66
1
  0
VERTEX
  8
0
 10
135.9214
 20
117.1473
 30
0.0000
  0
VERTEX
  8
0
 10
135.9749
 20
116.6061
 30
0.0000
  0
VERTEX
  8
0
 10
136.1617
 20
116.0103
 30
0.0000
  0
VERTEX
  8
0
 10
136.4780
 20
115.4425
 30
0.0000
  0
VERTEX
  8
0
 10
136.9160
 20
114.9167
 30
0.0000
  0
VERTEX
  8
0
 10
137.4650
 20
114.4458
 30
0.0000
  0
VERTEX
  8
0
 10
138.1114
 20
114.0414
 30
0.0000
  0
VERTEX
  8
0
 10
138.8393
 20
113.7135
 30
0.0000
  0
VERTEX
  8
0
 10
139.6307
 20
113.4701
 30
0.0000
  0
VERTEX
  8
0
 10
140.5610
 20
113.3061
 30
0.0000
  0
VERTEX
  8
0
 10
141.5173
 20
113.2588
 30
0.0000
  0
VERTEX
  8
0
 10
142.4708
 20
113.3297
 30
0.0000
  0
VERTEX
  8
0
 10
143.3924
 20
113.5166
 30
0.0000
  0
VERTEX
  8
0
 10
144.1714
 20
113.7793
 30
0.0000
  0
VERTEX
  8
0
 10
144.8826
 20
114.1250
 30
0.0000
  0
VERTEX
  8
0
 10
145.3104
 20
114.3973
 30
0.0000
  0
SEQEND
  0
POLYLINE
  6
continous
  8
BYBLOCK
 70
0
 66
1
  0
VERTEX
  8
0
 10
137.5323
 20
119.8973
 30
0.0000
  0
VERTEX
  8
0
 10
136.9718
 20
119.4333
 30
0.0000
  0
VERTEX
  8
0
 10
136.5208
 20
118.9129
 30
0.0000
  0
VERTEX
  8
0
 10
136.1905
 20
118.3491
 30
0.0000
  0
VERTEX
  8
0
 10
135.9891
 20
117.7557
 30
0.0000
  0
VERTEX
  8
0
 10
135.9222
 20
117.2152
 30
0.0000
  0
VERTEX
  8
0
 10
135.9214
 20
117.1473
 30
0.0000
  0
SEQEND
  0
POLYLINE
  6
continous
  8
BYBLOCK
 70
0
 66
1
  0
VERTEX
  8
0
 10
146.9214
 20
117.1473
 30
0.0000
  0
VERTEX
  8
0
 10
146.8678
 20
117.6886
 30
0.0000
  0
VERTEX
  8
0
 10
146.6810
 20
118.2844
 30
0.0000
  0
VERTEX
  8
0
 10
146.3647
 20
118.8522
 30
0.0000
  0
VERTEX
  8
0
 10
145.9267
 20
119.3780
 30
0.0000
  0
VERTEX
  8
0
 10
145.3777
 20
119.8489
 30
0.0000
  0
VERTEX
  8
0
 10
144.7313
 20
120.2533
 30
0.0000
  0
VERTEX
  8
0
 10
144.0034
 20
120.5812
 30
0.0000
  0
VERTEX
  8
0
 10
143.2120
 20
120.8245
 30
0.0000
  0
VERTEX
  8
0
 10
142.2817
 20
120.9885
 30
0.0000
  0
VERTEX
  8
0
 10
141.3254
 20
121.0358
 30
0.0000
  0
VERTEX
  8
0
 10
140.3719
 20
120.9650
 30
0.0000
  0
VERTEX
  8
0
 10
139.4503
 20
120.7781
 30
0.0000
  0
VERTEX
  8
0
 10
138.6714
 20
120.5154
 30
0.0000
  0
VERTEX
  8
0
 10
137.9601
 20
120.1697
 30
0.0000
  0
VERTEX
  8
0
 10
137.5323
 20
119.8973
 30
0.0000
  0
SEQEND
  0
POLYLINE
  6
continous
  8
BYBLOCK
 70
0
 66
1
  0
VERTEX
  8
0
 10
145.3104
 20
114.3973
 30
0.0000
  0
VERTEX
  8
0
 10
145.8709
 20
114.8614
 30
0.0000
  0
VERTEX
  8
0
 10
146.3219
 20
115.3817
 30
0.0000
  0
VERTEX
  8
0
 10
146.6522
 20
115.9455
 30
0.0000
  0
VERTEX
  8
0
 10
146.8536
 20
116.5390
 30
0.0000
  0
VERTEX
  8
0
 10
146.9205
 20
117.0795
 30
0.0000
  0
VERTEX
  8
0
 10
146.9214
 20
117.1473
 30
0.0000
  0
SEQEND
  0
POLYLINE
  6
continous
  8
BYBLOCK
 70
0
 66
1
  0
VERTEX
  8
0
 10
93.4949
 20
87.1473
 30
0.0000
  0
VERTEX
  8
0
 10
93.5485
 20
86.6061
 30
0.0000
  0
VERTEX
  8
0
 10
93.7353
 20
86.0103
 30
0.0000
  0
VERTEX
  8
0
 10
94.0516
 20
85.4425
 30
0.0000
  0
VERTEX
  8
0
 10
94.4896
 20
84.9167
 30
0.0000
  0
VERTEX
  8
0
 10
95.0386
 20
84.4458
 30
0.0000
  0
VERTEX
  8
0
 10
95.6850
 20
84.0414
 30
0.0000
  0
VERTEX
  8
0
 10
96.4129
 20
83.7135
 30
0.0000
  0
VERTEX
  8
0
 10
97.2043
 20
83.4701
 30
0.0000
  0
VERTEX
  8
0
 10
98.1346
 20
83.3061
 30
0.0000
  0
VERTEX
  8
0
 10
99.0909
 20
83.2588
 30
0.0000
  0
VERTEX
  8
0
 10
100.0444
 20
83.3297
 30
0.0000
  0
VERTEX
  8
0
 10
100.9660
 20
83.5166
 30
0.0000
  0
VERTEX
  8
0
 10
101.7449
 20
83.7793
 30
0.0000
  0
VERTEX
  8
0
 10
102.4562
 20
84.1250
 30
0.0000
  0
VERTEX
  8
0
 10
102.8840
 20
84.3973
 30
0.0000
  0
SEQEND
  0
POLYLINE
  6
continous
  8
BYBLOCK
 70
0
 66
1
  0
VERTEX
  8
0
 10
95.1059
 20
89.8973
 30
0.0000
  0
VERTEX
  8
0
 10
94.5454
 20
89.4333
 30
0.0000
  0
VERTEX
  8
0
 10
94.0944
 20
88.9129
 30
0.0000
  0
VERTEX
  8
0
 10
93.7641
 20
88.3491
 30
0.0000
  0
VERTEX
  8
0
 10
93.5627
 20
87.7557
 30
0.0000
  0
VERTEX
  8
0
 10
93.4958
 20
87.2152
 30
0.0000
  0
VERTEX
  8
0
 10
93.4949
 20
87.1473
 30
0.0000
  0
SEQEND
  0
POLYLINE
  6
continous
  8
BYBLOCK
 70
0
 66
1
  0
VERTEX
  8
0
 10
104.4949
 20
87.1473
 30
0.0000
  0
VERTEX
  8
0
 10
104.4414
 20
87.6886
 30
0.0000
  0
VERTEX
  8
0
 10
104.2546
 20
88.2844
 30
0.0000
  0
VERTEX
  8
0
 10
103.9383
 20
88.8522
 30
0.0000
  0
VERTEX
  8
0
 10
103.5003
 20
89.3780
 30
0.0000
  0
VERTEX
  8
0
 10
102.9513
 20
89.8489
 30
0.0000
  0
VERTEX
  8
0
 10
102.3049
 20
90.2533
 30
0.0000
  0
VERTEX
  8
0
 10
101.5770
 20
90.5812
 30
0.0000
  0
VERTEX
  8
0
 10
100.7856
 20
90.8245
 30
0.0000
  0
VERTEX
  8
0
 10
99.8553
 20
90.9885
 30
0.0000
  0
VERTEX
  8
0
 10
98.8990
 20
91.0358
 30
0.0000
  0
VERTEX
  8
0
 10
97.9455
 20
90.9650
 30
0.0000
  0
VERTEX
  8
0
 10
97.0239
 20
90.7781
 30
0.0000
  0
VERTEX
  8
0
 10
96.2449
 20
90.5154
 30
0.0000
  0
VERTEX
  8
0
 10
95.5337
 20
90.1697
 30
0.0000
  0
VERTEX
  8
0
 10
95.1059
 20
89.8973
 30
0.0000
  0
SEQEND
  0
POLYLINE
  6
continous
  8
BYBLOCK
 70
0
 66
1
  0
VERTEX
  8
0
 10
102.8840
 20
84.3973
 30
0.0000
  0
VERTEX
  8
0
 10
103.4445
 20
84.8614
 30
0.0000
  0
VERTEX
  8
0
 10
103.8955
 20
85.3817
 30
0.0000
  0
VERTEX
  8
0
 10
104.2258
 20
85.9455
 30
0.0000
  0
VERTEX
  8
0
 10
104.4272
 20
86.5390
 30
0.0000
  0
VERTEX
  8
0
 10
104.4941
 20
87.0795
 30
0.0000
  0
VERTEX
  8
0
 10
104.4949
 20
87.1473
 30
0.0000
  0
SEQEND
  0
POLYLINE
  6
continous
  8
BYBLOCK
 70
0
 66
1
  0
VERTEX
  8
0
 10
51.0685
 20
57.1473
 30
0.0000
  0
VERTEX
  8
0
 10
51.1221
 20
56.6061
 30
0.0000
  0
VERTEX
  8
0
 10
51.3089
 20
56.0103
 30
0.0000
  0
VERTEX
  8
0
 10
51.6252
 20
55.4425
 30
0.0000
  0
VERTEX
  8
0
 10
52.0632
 20
54.9167
 30
0.0000
  0
VERTEX
  8
0
 10
52.6122
 20
54.4458
 30
0.0000
  0
VERTEX
  8
0
 10
53.2586
 20
54.0414
 30
0.0000
  0
VERTEX
  8
0
 10
53.9864
 20
53.7135
 30
0.0000
  0
VERTEX
  8
0
 10
54.7779
 20
53.4701
 30
0.0000
  0
VERTEX
  8
0
 10
55.7082
 20
53.3061
 30
0.0000
  0
VERTEX
  8
0
 10
56.6645
 20
53.2588
 30
0.0000
  0
VERTEX
  8
0
 10
57.6180
 20
53.3297
 30
0.0000
  0
VERTEX
  8
0
 10
58.5396
 20
53.5166
 30
0.0000
  0
VERTEX
  8
0
 10
59.3185
 20
53.7793
 30
0.0000
  0
VERTEX
  8
0
 10
60.0298
 20
54.1250
 30
0.0000
  0
VERTEX
  8
0
 10
60.4576
 20
54.3973
 30
0.0000
  0
SEQEND
  0
POLYLINE
  6
continous
  8
BYBLOCK
 70
0
 66
1
  0
VERTEX
  8
0
 10
52.6795
 20
59.8973
 30
0.0000
  0
VERTEX
  8
0
 10
52.1189
 20
59.4333
 30
0.0000
  0
VERTEX
  8
0
 10
51.6680
 20
58.9129
 30
0.0000
  0
VERTEX
  8
0
 10
51.3377
 20
58.3491
 30
0.0000
  0
VERTEX
  8
0
 10
51.1363
 20
57.7557
 30
0.0000
  0
VERTEX
  8
0
 10
51.0694
 20
57.2152
 30
0.0000
  0
VERTEX
  8
0
 10
51.0685
 20
57.1473
 30
0.0000
  0
SEQEND
  0
POLYLINE
  6
continous
  8
BYBLOCK
 70
0
 66
1
  0
VERTEX
  8
0
 10
62.0685
 20
57.1473
 30
0.0000
  0
VERTEX
  8
0
 10
62.0150
 20
57.6886
 30
0.0000
  0
VERTEX
  8
0
 10
61.8282
 20
58.2844
 30
0.0000
  0
VERTEX
  8
0
 10
61.5119
 20
58.8522
 30
0.0000
  0
VERTEX
  8
0
 10
61.0739
 20
59.3780
 30
0.0000
  0
VERTEX
  8
0
 10
60.5249
 20
59.8489
 30
0.0000
  0
VERTEX
  8
0
 10
59.8785
 20
60.2533
 30
0.0000
  0
VERTEX
  8
0
 10
59.1506
 20
60.5812
 30
0.0000
  0
VERTEX
  8
0
 10
58.3592
 20
60.8245
 30
0.0000
  0
VERTEX
  8
0
 10
57.4289
 20
60.9885
 30
0.0000
  0
VERTEX
  8
0
 10
56.4726
 20
61.0358
 30
0.0000
  0
VERTEX
  8
0
 10
55.5191
 20
60.9650
 30
0.0000
  0
VERTEX
  8
0
 10
54.5975
 20
60.7781
 30
0.0000
  0
VERTEX
  8
0
 10
53.8185
 20
60.5154
 30
0.0000
  0
VERTEX
  8
0
 10
53.1073
 20
60.1697
 30
0.0000
  0
VERTEX
  8
0
 10
52.6795
 20
59.8973
 30
0.0000
  0
SEQEND
  0
POLYLINE
  6
continous
  8
BYBLOCK
 70
0
 66
1
  0
VERTEX
  8
0
 10
60.4576
 20
54.3973
 30
0.0000
  0
VERTEX
  8
0
 10
61.0181
 20
54.8614
 30
0.0000
  0
VERTEX
  8
0
 10
61.4691
 20
55.3817
 30
0.0000
  0
VERTEX
  8
0
 10
61.7994
 20
55.9455
 30
0.0000
  0
VERTEX
  8
0
 10
62.0008
 20
56.5390
 30
0.0000
  0
VERTEX
  8
0
 10
62.0677
 20
57.0795
 30
0.0000
  0
VERTEX
  8
0
 10
62.0685
 20
57.1473
 30
0.0000
  0
SEQEND
  0
LINE
  6
continous
  8
BYBLOCK
 10
9.0899
 20
14.2198
 30
0.0000
 11
-4.1401
 21
23.5749
 31
0.0000
  0
LINE
  6
continous
  8
BYBLOCK
 10
9.0899
 20
14.2198
 30
0.0000
 11
2832.5673
 21
2010.7198
 31
0.0000
  0
LINE
  6
continous
  8
BYBLOCK
 10
-4.1401
 20
23.5749
 30
0.0000
 11
-4.4901
 21
23.4723
 31
0.0000
  0
LINE
  6
continous
  8
BYBLOCK
 10
-4.4901
 20
23.4723
 30
0.0000
 11
2818.9872
 21
2019.9723
 31
0.0000
  0
LINE
  6
continous
  8
BYBLOCK
 10
-4.1401
 20
23.5749
 30
0.0000
 11
2819.3372
 21
2020.0749
 31
0.0000
  0
LINE
  6
continous
  8
BYBLOCK
 10
2819.3372
 20
2020.0749
 30
0.0000
 11
2818.9872
 21
2019.9723
 31
0.0000
  0
LINE
  6
continous
  8
BYBLOCK
 10
2821.8985
 20
2021.2330
 30
0.0000
 11
2818.9872
 21
2019.9723
 31
0.0000
  0
LINE
  6
continous
  8
BYBLOCK
 10
2834.0840
 20
1993.3485
 30
0.0000
 11
2834.0840
 21
1995.9983
 31
0.0000
  0
LINE
  6
continous
  8
BYBLOCK
 10
2836.1225
 20
1995.5879
 30
0.0000
 11
2834.0840
 21
1993.3485
 31
0.0000
  0
LINE
  6
continous
  8
BYBLOCK
 10
2834.0840
 20
1995.9983
 30
0.0000
 11
2832.9173
 21
1997.4969
 31
0.0000
  0
LINE
  6
continous
  8
BYBLOCK
 10
2836.1225
 20
1997.8049
 30
0.0000
 11
2834.0840
 21
1995.9983
 31
0.0000
  0
LINE
  6
continous
  8
BYBLOCK
 10
2832.9173
 20
1997.4969
 30
0.0000
 11
2832.9173
 21
1999.1527
 31
0.0000
  0
LINE
  6
continous
  8
BYBLOCK
 10
2834.9557
 20
1999.3036
 30
0.0000
 11
2832.9173
 21
1997.4969
 31
0.0000
  0
POLYLINE
  6
continous
  8
BYBLOCK
 70
0
 66
1
  0
VERTEX
  8
0
 10
2831.5360
 20
2001.4963
 30
0.0000
  0
VERTEX
  8
0
 10
2831.6658
 20
2001.0076
 30
0.0000
  0
VERTEX
  8
0
 10
2831.8867
 20
2000.4971
 30
0.0000
  0
VERTEX
  8
0
 10
2832.1861
 20
1999.9943
 30
0.0000
  0
VERTEX
  8
0
 10
2832.5464
 20
1999.5285
 30
0.0000
  0
VERTEX
  8
0
 10
2832.9173
 20
1999.1527
 30
0.0000
  0
SEQEND
  0
POLYLINE
  6
continous
  8
BYBLOCK
 70
0
 66
1
  0
VERTEX
  8
0
 10
2834.9557
 20
2000.8810
 30
0.0000
  0
VERTEX
  8
0
 10
2832.9173
 20
1999.1527
 30
0.0000
  0
SEQEND
  0
LINE
  6
continous
  8
BYBLOCK
 10
2831.5360
 20
2001.4963
 30
0.0000
 11
2830.8313
 21
2002.4014
 31
0.0000
  0
POLYLINE
  6
continous
  8
BYBLOCK
 70
0
 66
1
  0
VERTEX
  8
0
 10
2833.6325
 20
2003.2283
 30
0.0000
  0
VERTEX
  8
0
 10
2831.5360
 20
2001.4963
 30
0.0000
  0
SEQEND
  0
LINE
  6
continous
  8
BYBLOCK
 10
2830.8313
 20
2002.4014
 30
0.0000
 11
2830.8313
 21
2006.6698
 31
0.0000
  0
LINE
  6
continous
  8
BYBLOCK
 10
2832.8698
 20
2004.2080
 30
0.0000
 11
2830.8313
 21
2002.4014
 31
0.0000
  0
LINE
  6
continous
  8
BYBLOCK
 10
2832.9173
 20
2008.1448
 30
0.0000
 11
2832.9173
 21
2010.1223
 31
0.0000
  0
POLYLINE
  6
continous
  8
BYBLOCK
 70
0
 66
1
  0
VERTEX
  8
0
 10
2834.9557
 20
2010.5337
 30
0.0000
  0
VERTEX
  8
0
 10
2832.9173
 20
2008.1448
 30
0.0000
  0
SEQEND
  0
LINE
  6
continous
  8
BYBLOCK
 10
2834.9557
 20
2012.0002
 30
0.0000
 11
2832.9173
 21
2010.1223
 31
0.0000
  0
LINE
  6
continous
  8
BYBLOCK
 10
2832.9173
 20
2010.1223
 30
0.0000
 11
2832.5673
 21
2010.7198
 31
0.0000
  0
LINE
  6
continous
  8
BYBLOCK
 10
2832.5673
 20
2010.7198
 30
0.0000
 11
2819.3372
 21
2020.0749
 31
0.0000
  0
LINE
  6
continous
  8
BYBLOCK
 10
2821.9929
 20
2021.2607
 30
0.0000
 11
2819.3372
 21
2020.0749
 31
0.0000
  0
LINE
  6
continous
  8
BYBLOCK
 10
2834.8614
 20
2012.1613
 30
0.0000
 11
2832.5673
 21
2010.7198
 31
0.0000
  0
LINE
  6
continous
  8
BYBLOCK
 10
2821.9929
 20
2021.2607
 30
0.0000
 11
2821.8985
 21
2021.2330
 31
0.0000
  0
LINE
  6
continous
  8
BYBLOCK
 10
2836.1225
 20
1995.5879
 30
0.0000
 11
2836.1225
 21
1997.8049
 31
0.0000
  0
LINE
  6
continous
  8
BYBLOCK
 10
2836.1225
 20
1997.8049
 30
0.0000
 11
2834.9557
 21
1999.3036
 31
0.0000
  0
LINE
  6
continous
  8
BYBLOCK
 10
2834.9557
 20
1999.3036
 30
0.0000
 11
2834.9557
 21
2000.8810
 31
0.0000
  0
POLYLINE
  6
continous
  8
BYBLOCK
 70
0
 66
1
  0
VERTEX
  8
0
 10
2834.9557
 20
2000.8810
 30
0.0000
  0
VERTEX
  8
0
 10
2834.5178
 20
2001.4124
 30
0.0000
  0
VERTEX
  8
0
 10
2834.1410
 20
2001.9934
 30
0.0000
  0
VERTEX
  8
0
 10
2833.8445
 20
2002.5943
 30
0.0000
  0
VERTEX
  8
0
 10
2833.6437
 20
2003.1843
 30
0.0000
  0
VERTEX
  8
0
 10
2833.6325
 20
2003.2283
 30
0.0000
  0
SEQEND
  0
LINE
  6
continous
  8
BYBLOCK
 10
2833.6325
 20
2003.2283
 30
0.0000
 11
2832.8698
 21
2004.2080
 31
0.0000
  0
LINE
  6
continous
  8
BYBLOCK
 10
2832.8698
 20
2004.2080
 30
0.0000
 11
2832.8698
 21
2008.1112
 31
0.0000
  0
LINE
  6
continous
  8
BYBLOCK
 10
2834.9557
 20
2010.5337
 30
0.0000
 11
2834.9557
 21
2012.0002
 31
0.0000
  0
LINE
  6
continous
  8
BYBLOCK
 10
2834.9557
 20
2012.0002
 30
0.0000
 11
2834.8614
 21
2012.1613
 31
0.0000
  0
LINE
  6
continous
  8
BYBLOCK
 10
2834.8614
 20
2012.1613
 30
0.0000
 11
2821.9929
 21
2021.2607
 31
0.0000
  0
POLYLINE
  6
continous
  8
BYBLOCK
 70
0
 66
1
  0
VERTEX
  8
0
 10
10.2530
 20
29.8266
 30
0.0000
  0
VERTEX
  8
0
 10
9.6986
 20
29.3685
 30
0.0000
  0
VERTEX
  8
0
 10
9.2510
 20
28.8552
 30
0.0000
  0
VERTEX
  8
0
 10
8.9209
 20
28.2991
 30
0.0000
  0
VERTEX
  8
0
 10
8.7164
 20
27.7137
 30
0.0000
  0
VERTEX
  8
0
 10
8.6424
 20
27.1130
 30
0.0000
  0
SEQEND
  0
POLYLINE
  6
continous
  8
BYBLOCK
 70
0
 66
1
  0
VERTEX
  8
0
 10
19.6419
 20
27.1107
 30
0.0000
  0
VERTEX
  8
0
 10
19.5672
 20
27.7164
 30
0.0000
  0
VERTEX
  8
0
 10
19.3599
 20
28.3065
 30
0.0000
  0
VERTEX
  8
0
 10
19.0250
 20
28.8665
 30
0.0000
  0
VERTEX
  8
0
 10
18.5709
 20
29.3828
 30
0.0000
  0
VERTEX
  8
0
 10
18.0084
 20
29.8427
 30
0.0000
  0
VERTEX
  8
0
 10
17.3515
 20
30.2349
 30
0.0000
  0
VERTEX
  8
0
 10
16.6161
 20
30.5500
 30
0.0000
  0
VERTEX
  8
0
 10
15.8203
 20
30.7803
 30
0.0000
  0
VERTEX
  8
0
 10
14.8888
 20
30.9297
 30
0.0000
  0
VERTEX
  8
0
 10
13.9348
 20
30.9630
 30
0.0000
  0
VERTEX
  8
0
 10
12.9871
 20
30.8790
 30
0.0000
  0
VERTEX
  8
0
 10
12.0742
 20
30.6803
 30
0.0000
  0
VERTEX
  8
0
 10
11.3051
 20
30.4084
 30
0.0000
  0
VERTEX
  8
0
 10
10.6054
 20
30.0550
 30
0.0000
  0
VERTEX
  8
0
 10
10.2530
 20
29.8266
 30
0.0000
  0
SEQEND
  0
ENDBLK
  8
0
  0
ENDSEC
  0
SECTION
  2
ENTITIES
  0
INSERT
  8
REX_6
  2
_VIEW_CUT_Jan_16_22-23-04
 10
0.0000
 20
0.0000
 30
0.0000
  0
ENDSEC
  0
EOF
