  0
SECTION
  2
HEADER
  9
$ACADVER
  1
AC1009
  9
$INSBASE
 10
0.0
 20
0.0
 30
0.0
  9
$EXTMIN
 10
-294.198442
 20
-208.957857
 30
1.000000E+020
  9
$EXTMAX
 10
3122.625567
 20
2228.506847
 30
-1.000000E+020
  9
$LIMMIN
 10
0.0
 20
0.0
  9
$LIMMAX
 10
420.0
 20
297.0
  9
$ORTHOMODE
 70
     0
  9
$REGENMODE
 70
     1
  9
$FILLMODE
 70
     1
  9
$QTEXTMODE
 70
     0
  9
$MIRRTEXT
 70
     1
  9
$DRAGMODE
 70
     2
  9
$LTSCALE
 40
1.000000
  9
$OSMODE
 70
   103
  9
$ATTMODE
 70
     1
  9
$TEXTSIZE
 40
2.5
  9
$TRACEWID
 40
1.0
  9
$TEXTSTYLE
  7
STANDARD
  9
$CLAYER
  8
RAHM4
  9
$CELTYPE
  6
BYLAYER
  9
$CECOLOR
 62
   256
  9
$DIMSCALE
 40
1.0
  9
$DIMASZ
 40
2.5
  9
$DIMEXO
 40
0.625
  9
$DIMDLI
 40
3.75
  9
$DIMRND
 40
0.0
  9
$DIMDLE
 40
0.0
  9
$DIMEXE
 40
1.25
  9
$DIMTP
 40
0.0
  9
$DIMTM
 40
0.0
  9
$DIMTXT
 40
2.5
  9
$DIMCEN
 40
2.5
  9
$DIMTSZ
 40
0.0
  9
$DIMTOL
 70
     0
  9
$DIMLIM
 70
     0
  9
$DIMTIH
 70
     0
  9
$DIMTOH
 70
     0
  9
$DIMSE1
 70
     0
  9
$DIMSE2
 70
     0
  9
$DIMTAD
 70
     1
  9
$DIMZIN
 70
     8
  9
$DIMBLK
  1

  9
$DIMASO
 70
     1
  9
$DIMSHO
 70
     1
  9
$DIMPOST
  1

  9
$DIMAPOST
  1

  9
$DIMALT
 70
     0
  9
$DIMALTD
 70
     3
  9
$DIMALTF
 40
0.03937
  9
$DIMLFAC
 40
1.0
  9
$DIMTOFL
 70
     1
  9
$DIMTVP
 40
0.0
  9
$DIMTIX
 70
     0
  9
$DIMSOXD
 70
     0
  9
$DIMSAH
 70
     0
  9
$DIMBLK1
  1

  9
$DIMBLK2
  1

  9
$DIMSTYLE
  2
ISO-25
  9
$DIMCLRD
 70
     0
  9
$DIMCLRE
 70
     0
  9
$DIMCLRT
 70
     0
  9
$DIMTFAC
 40
1.0
  9
$DIMGAP
 40
0.625
  9
$LUNITS
 70
     2
  9
$LUPREC
 70
     4
  9
$SKETCHINC
 40
1.0
  9
$FILLETRAD
 40
10.0
  9
$AUNITS
 70
     0
  9
$AUPREC
 70
     0
  9
$MENU
  1
.
  9
$ELEVATION
 40
0.0
  9
$PELEVATION
 40
0.0
  9
$THICKNESS
 40
0.0
  9
$LIMCHECK
 70
     0
  9
$BLIPMODE
 70
     0
  9
$CHAMFERA
 40
10.0
  9
$CHAMFERB
 40
10.0
  9
$SKPOLY
 70
     0
  9
$TDCREATE
 40
2452830.438142
  9
$TDUPDATE
 40
2453952.51541
  9
$TDINDWG
 40
0.030794
  9
$TDUSRTIMER
 40
0.030789
  9
$USRTIMER
 70
     1
  9
$ANGBASE
 50
0.0
  9
$ANGDIR
 70
     0
  9
$PDMODE
 70
     0
  9
$PDSIZE
 40
0.0
  9
$PLINEWID
 40
0.0
  9
$COORDS
 70
     1
  9
$SPLFRAME
 70
     0
  9
$SPLINETYPE
 70
     6
  9
$SPLINESEGS
 70
     8
  9
$ATTDIA
 70
     0
  9
$ATTREQ
 70
     1
  9
$SURFTAB1
 70
     6
  9
$SURFTAB2
 70
     6
  9
$SURFTYPE
 70
     6
  9
$SURFU
 70
     6
  9
$SURFV
 70
     6
  9
$UCSNAME
  2

  9
$UCSORG
 10
0.0
 20
0.0
 30
0.0
  9
$UCSXDIR
 10
1.0
 20
0.0
 30
0.0
  9
$UCSYDIR
 10
0.0
 20
1.0
 30
0.0
  9
$PUCSNAME
  2

  9
$PUCSORG
 10
0.0
 20
0.0
 30
0.0
  9
$PUCSXDIR
 10
1.0
 20
0.0
 30
0.0
  9
$PUCSYDIR
 10
0.0
 20
1.0
 30
0.0
  9
$USERI1
 70
     0
  9
$USERI2
 70
     0
  9
$USERI3
 70
     0
  9
$USERI4
 70
     0
  9
$USERI5
 70
     0
  9
$USERR1
 40
0.0
  9
$USERR2
 40
0.0
  9
$USERR3
 40
0.0
  9
$USERR4
 40
0.0
  9
$USERR5
 40
0.0
  9
$WORLDVIEW
 70
     1
  9
$SHADEDGE
 70
     3
  9
$SHADEDIF
 70
    70
  9
$TILEMODE
 70
     1
  9
$MAXACTVP
 70
    64
  9
$PLIMCHECK
 70
     0
  9
$PEXTMIN
 10
1.000000E+020
 20
1.000000E+020
 30
1.000000E+020
  9
$PEXTMAX
 10
-1.000000E+020
 20
-1.000000E+020
 30
-1.000000E+020
  9
$PLIMMIN
 10
0.0
 20
0.0
  9
$PLIMMAX
 10
420.0
 20
297.0
  9
$UNITMODE
 70
     0
  9
$VISRETAIN
 70
     1
  9
$PLINEGEN
 70
     0
  9
$PSLTSCALE
 70
     1
  0
ENDSEC
  0
SECTION
  2
TABLES
  0
TABLE
  2
VPORT
 70
     2
  0
VPORT
  2
*ACTIVE
 70
     0
 10
0.0
 20
0.0
 11
1.0
 21
1.0
 12
424.672198
 22
148.5
 13
0.0
 23
0.0
 14
10.0
 24
10.0
 15
10.0
 25
10.0
 16
0.0
 26
0.0
 36
1.0
 17
0.0
 27
0.0
 37
0.0
 40
297.194831
 41
2.858921
 42
50.0
 43
0.0
 44
0.0
 50
0.0
 51
0.0
 71
     0
 72
   100
 73
     1
 74
     3
 75
     0
 76
     0
 77
     0
 78
     0
  0
ENDTAB
  0
TABLE
  2
LTYPE
 70
     5
  0
LTYPE
  2
CONTINUOUS
  70
0
  3
Solid line
 72
65
 73
0
 40
0.0
  0
LTYPE
  2
ACAD_ISO10W100
  70
0
  3
ISO Strichpunktlinie __ . __ . __ . __ . __ . _
 72
65
 73
4
 40
18.0
 49
12.0
 49
-3.0
 49
0.0
 49
-3.0
  0
LTYPE
  2
ACAD_ISO02W100
  70
0
  3
ISO Strichlinie __ __ __ __ __ __ __ __ __ __ _
 72
65
 73
2
 40
15.0
 49
12.0
 49
-3.0
  0
LTYPE
  2
STRICHLINIE
  70
0
  3
Strichlinie __ __ __ __ __ __ __ __ __ __ __ __
 72
65
 73
2
 40
0.75
 49
0.5
 49
-0.25
  0
LTYPE
  2
STRICHPUNKT
  70
0
  3
Strichpunkt __ . __ . __ . __ . __ . __ . __ . 
 72
65
 73
4
 40
1.0
 49
0.5
 49
-0.25
 49
0.0
 49
-0.25
  0
ENDTAB
  0
TABLE
  2
LAYER
 70
    14
  0
LAYER
  2
0
 70
0
 62
7
  6
CONTINUOUS
  0
LAYER
  2
REX_1
 70
0
 62
7
  6
CONTINUOUS
  0
LAYER
  2
REX_7
 70
0
 62
5
  6
STRICHPUNKT
  0
LAYER
  2
SILHOUETTE
 70
0
 62
7
  6
CONTINUOUS
  0
LAYER
  2
REX_8
 70
0
 62
1
  6
CONTINUOUS
  0
LAYER
  2
REX_3
 70
0
 62
6
  6
STRICHLINIE
  0
LAYER
  2
REX_4
 70
0
 62
5
  6
CONTINUOUS
  0
LAYER
  2
REX_5
 70
0
 62
3
  6
CONTINUOUS
  0
LAYER
  2
REX_6
 70
0
 62
40
  6
CONTINUOUS
  0
LAYER
  2
RAHM2
 70
0
 62
7
  6
CONTINUOUS
  0
LAYER
  2
RAHM3
 70
0
 62
7
  6
CONTINUOUS
  0
LAYER
  2
RAHM4
 70
0
 62
7
  6
CONTINUOUS
  0
LAYER
  2
RAHM5
 70
0
 62
7
  6
CONTINUOUS
  0
LAYER
  2
RAHMEN
 70
0
 62
7
  6
CONTINUOUS
  0
ENDTAB
  0
TABLE
  2
STYLE
 70
     3
  0
STYLE
  2
STANDARD
 70
     0
 40
0.0
 41
1.0
 50
0.0
 71
     0
 42
2.5
  3
isocp.shx
  4

  0
STYLE
  2
LOGO
 70
     0
 40
0.0
 41
1.0
 50
0.0
 71
     0
 42
0.2
  3
isocp.shx
  4

  0
STYLE
  2

 70
     1
 40
0.0
 41
1.0
 50
0.0
 71
     0
 42
2.5
  3
ltypeshp.shx
  4

  0
ENDTAB
  0
TABLE
  2
VIEW
 70
     0
  0
ENDTAB
  0
TABLE
  2
UCS
 70
     0
  0
ENDTAB
  0
TABLE
  2
APPID
 70
2
  0
APPID
  2
ACAD
 70
     0
  0
APPID
  2
DCO15
 70
     0
  0
ENDTAB
  0
TABLE
  2
DIMSTYLE
 70
     1
  0
DIMSTYLE
  2
ISO-25
 70
     0
  3

  4

  5

  6

  7

 40
1.0
 41
2.5
 42
0.625
 43
3.75
 44
1.25
 45
0.0
 46
0.0
 47
0.0
 48
0.0
140
2.5
141
2.5
142
0.0
143
0.03937
144
1.0
145
0.0
146
1.0
147
0.625
 71
     0
 72
     0
 73
     0
 74
     0
 75
     0
 76
     0
 77
     1
 78
     8
170
     0
171
     3
172
     1
173
     0
174
     0
175
     0
176
     0
177
     0
178
     0
  0
ENDTAB
  0
ENDSEC
  0
SECTION
  2
BLOCKS
  0
BLOCK
  8
REX_7
  2
8REX_MID_Jan_16_22-29-02
 70
0
 10
0.0000
 20
0.0000
 30
0.0000
  3
8REX_MID_Jan_16_22-29-02
  0
ENDBLK
  8
0
  0
BLOCK
  8
REX_1
  2
_VIEW_CUT_Jan_16_22-29-02
 70
0
 10
0.0000
 20
0.0000
 30
0.0000
  3
_VIEW_CUT_Jan_16_22-29-02
  0
INSERT
  8
REX_6
  2
8REX_MID_Jan_16_22-29-02
 10
0.0000
 20
0.0000
 30
0.0000
  0
POLYLINE
  6
continous
  8
BYBLOCK
 70
0
 66
1
  0
VERTEX
  8
0
 10
-5.9276
 20
13.3251
 30
0.0000
  0
VERTEX
  8
0
 10
-6.5072
 20
12.6767
 30
0.0000
  0
SEQEND
  0
POLYLINE
  6
continous
  8
BYBLOCK
 70
0
 66
1
  0
VERTEX
  8
0
 10
-6.2225
 20
14.2431
 30
0.0000
  0
VERTEX
  8
0
 10
-8.2610
 20
11.8309
 30
0.0000
  0
SEQEND
  0
LINE
  6
continous
  8
BYBLOCK
 10
-8.2610
 20
11.7042
 30
0.0000
 11
-9.4631
 21
10.3417
 31
0.0000
  0
LINE
  6
continous
  8
BYBLOCK
 10
12.3744
 20
-4.4015
 30
0.0000
 11
2835.8517
 21
1992.0985
 31
0.0000
  0
LINE
  6
continous
  8
BYBLOCK
 10
12.3744
 20
-1.3478
 30
0.0000
 11
2835.8517
 21
1995.1522
 31
0.0000
  0
LINE
  6
continous
  8
BYBLOCK
 10
11.1723
 20
0.1962
 30
0.0000
 11
2834.6497
 21
1996.6962
 31
0.0000
  0
LINE
  6
continous
  8
BYBLOCK
 10
11.1723
 20
1.9431
 30
0.0000
 11
2834.6497
 21
1998.4431
 31
0.0000
  0
LINE
  6
continous
  8
BYBLOCK
 10
9.4031
 20
5.1872
 30
0.0000
 11
2832.8805
 21
2001.6872
 31
0.0000
  0
LINE
  6
continous
  8
BYBLOCK
 10
8.8388
 20
5.9121
 30
0.0000
 11
2832.3162
 21
2002.4121
 31
0.0000
  0
LINE
  6
continous
  8
BYBLOCK
 10
11.1723
 20
12.5914
 30
0.0000
 11
2834.6497
 21
2009.0914
 31
0.0000
  0
LINE
  6
continous
  8
BYBLOCK
 10
11.1723
 20
15.2965
 30
0.0000
 11
2834.6497
 21
2011.7965
 31
0.0000
  0
LINE
  6
continous
  8
BYBLOCK
 10
-5.8725
 20
27.6990
 30
0.0000
 11
-8.1667
 21
25.3848
 31
0.0000
  0
LINE
  6
continous
  8
BYBLOCK
 10
10.8223
 20
15.8940
 30
0.0000
 11
8.1667
 21
13.8354
 31
0.0000
  0
LINE
  6
continous
  8
BYBLOCK
 10
11.1723
 20
15.2965
 30
0.0000
 11
10.8223
 21
15.8940
 31
0.0000
  0
LINE
  6
continous
  8
BYBLOCK
 10
11.1723
 20
15.2965
 30
0.0000
 11
8.2610
 21
13.6743
 31
0.0000
  0
LINE
  6
continous
  8
BYBLOCK
 10
11.1723
 20
12.5914
 30
0.0000
 11
11.1723
 21
15.2965
 31
0.0000
  0
POLYLINE
  6
continous
  8
BYBLOCK
 70
0
 66
1
  0
VERTEX
  8
0
 10
11.1723
 20
12.5914
 30
0.0000
  0
VERTEX
  8
0
 10
8.2610
 20
11.5036
 30
0.0000
  0
SEQEND
  0
POLYLINE
  6
continous
  8
BYBLOCK
 70
0
 66
1
  0
VERTEX
  8
0
 10
9.4058
 20
11.9383
 30
0.0000
  0
VERTEX
  8
0
 10
9.4031
 20
11.8492
 30
0.0000
  0
SEQEND
  0
POLYLINE
  6
continous
  8
BYBLOCK
 70
0
 66
1
  0
VERTEX
  8
0
 10
9.4031
 20
11.8492
 30
0.0000
  0
VERTEX
  8
0
 10
6.5072
 20
10.6578
 30
0.0000
  0
SEQEND
  0
LINE
  6
continous
  8
BYBLOCK
 10
8.8388
 20
5.9121
 30
0.0000
 11
8.8388
 21
11.6182
 31
0.0000
  0
LINE
  6
continous
  8
BYBLOCK
 10
8.8388
 20
5.9121
 30
0.0000
 11
5.9276
 21
4.2187
 31
0.0000
  0
LINE
  6
continous
  8
BYBLOCK
 10
9.4031
 20
5.1872
 30
0.0000
 11
8.8388
 21
5.9121
 31
0.0000
  0
POLYLINE
  6
continous
  8
BYBLOCK
 70
0
 66
1
  0
VERTEX
  8
0
 10
9.4031
 20
5.1872
 30
0.0000
  0
VERTEX
  8
0
 10
6.5072
 20
3.4742
 30
0.0000
  0
SEQEND
  0
POLYLINE
  6
continous
  8
BYBLOCK
 70
0
 66
1
  0
VERTEX
  8
0
 10
9.4031
 20
5.1872
 30
0.0000
  0
VERTEX
  8
0
 10
9.4495
 20
4.7371
 30
0.0000
  0
VERTEX
  8
0
 10
9.5957
 20
4.2031
 30
0.0000
  0
VERTEX
  8
0
 10
9.8343
 20
3.6473
 30
0.0000
  0
VERTEX
  8
0
 10
10.1809
 20
3.0564
 30
0.0000
  0
VERTEX
  8
0
 10
10.6005
 20
2.5074
 30
0.0000
  0
VERTEX
  8
0
 10
11.0339
 20
2.0633
 30
0.0000
  0
VERTEX
  8
0
 10
11.1723
 20
1.9431
 30
0.0000
  0
SEQEND
  0
POLYLINE
  6
continous
  8
BYBLOCK
 70
0
 66
1
  0
VERTEX
  8
0
 10
11.1723
 20
1.9431
 30
0.0000
  0
VERTEX
  8
0
 10
8.2610
 20
0.1480
 30
0.0000
  0
SEQEND
  0
LINE
  6
continous
  8
BYBLOCK
 10
11.1723
 20
0.1962
 30
0.0000
 11
11.1723
 21
1.9431
 31
0.0000
  0
LINE
  6
continous
  8
BYBLOCK
 10
11.1723
 20
0.1962
 30
0.0000
 11
8.2610
 21
-1.4972
 31
0.0000
  0
LINE
  6
continous
  8
BYBLOCK
 10
12.3744
 20
-1.3478
 30
0.0000
 11
11.1723
 21
0.1962
 31
0.0000
  0
LINE
  6
continous
  8
BYBLOCK
 10
12.3744
 20
-1.3478
 30
0.0000
 11
9.4631
 21
-3.0412
 31
0.0000
  0
LINE
  6
continous
  8
BYBLOCK
 10
12.3744
 20
-4.4015
 30
0.0000
 11
12.3744
 21
-1.3478
 31
0.0000
  0
LINE
  6
continous
  8
BYBLOCK
 10
12.3744
 20
-4.4015
 30
0.0000
 11
9.4631
 21
-5.6621
 31
0.0000
  0
LINE
  6
continous
  8
BYBLOCK
 10
-9.4631
 20
7.7207
 30
0.0000
 11
-8.8702
 21
6.7086
 31
0.0000
  0
LINE
  6
continous
  8
BYBLOCK
 10
-9.4631
 20
10.3417
 30
0.0000
 11
-9.4631
 21
7.7207
 31
0.0000
  0
LINE
  6
continous
  8
BYBLOCK
 10
-8.2610
 20
10.1857
 30
0.0000
 11
-9.4631
 21
10.3417
 31
0.0000
  0
LINE
  6
continous
  8
BYBLOCK
 10
-8.2610
 20
11.8309
 30
0.0000
 11
-8.2610
 21
10.1857
 31
0.0000
  0
POLYLINE
  6
continous
  8
BYBLOCK
 70
0
 66
1
  0
VERTEX
  8
0
 10
-6.8089
 20
11.9564
 30
0.0000
  0
VERTEX
  8
0
 10
-7.0469
 20
11.7763
 30
0.0000
  0
VERTEX
  8
0
 10
-7.3410
 20
11.6817
 30
0.0000
  0
VERTEX
  8
0
 10
-7.7187
 20
11.6796
 30
0.0000
  0
VERTEX
  8
0
 10
-8.1404
 20
11.7842
 30
0.0000
  0
VERTEX
  8
0
 10
-8.2610
 20
11.8309
 30
0.0000
  0
SEQEND
  0
POLYLINE
  6
continous
  8
BYBLOCK
 70
0
 66
1
  0
VERTEX
  8
0
 10
-6.5072
 20
12.6767
 30
0.0000
  0
VERTEX
  8
0
 10
-6.5987
 20
12.2986
 30
0.0000
  0
VERTEX
  8
0
 10
-6.7697
 20
12.0010
 30
0.0000
  0
VERTEX
  8
0
 10
-6.8089
 20
11.9564
 30
0.0000
  0
SEQEND
  0
LINE
  6
continous
  8
BYBLOCK
 10
-5.9276
 20
12.6015
 30
0.0000
 11
-6.5072
 21
12.6767
 31
0.0000
  0
LINE
  6
continous
  8
BYBLOCK
 10
-5.9276
 20
19.1158
 30
0.0000
 11
-5.9276
 21
12.6015
 31
0.0000
  0
LINE
  6
continous
  8
BYBLOCK
 10
-6.5072
 20
19.8603
 30
0.0000
 11
-5.9276
 21
19.1158
 31
0.0000
  0
POLYLINE
  6
continous
  8
BYBLOCK
 70
0
 66
1
  0
VERTEX
  8
0
 10
-8.2610
 20
23.1865
 30
0.0000
  0
VERTEX
  8
0
 10
-7.7527
 20
22.6142
 30
0.0000
  0
VERTEX
  8
0
 10
-7.3046
 20
21.9766
 30
0.0000
  0
VERTEX
  8
0
 10
-6.9391
 20
21.3057
 30
0.0000
  0
VERTEX
  8
0
 10
-6.6911
 20
20.6860
 30
0.0000
  0
VERTEX
  8
0
 10
-6.5399
 20
20.0933
 30
0.0000
  0
VERTEX
  8
0
 10
-6.5072
 20
19.8603
 30
0.0000
  0
SEQEND
  0
LINE
  6
continous
  8
BYBLOCK
 10
-8.1667
 20
25.3848
 30
0.0000
 11
-8.2610
 21
25.3571
 31
0.0000
  0
LINE
  6
continous
  8
BYBLOCK
 10
8.1667
 20
13.8354
 30
0.0000
 11
-8.1667
 21
25.3848
 31
0.0000
  0
LINE
  6
continous
  8
BYBLOCK
 10
8.2610
 20
13.6743
 30
0.0000
 11
8.1667
 21
13.8354
 31
0.0000
  0
LINE
  6
continous
  8
BYBLOCK
 10
8.2610
 20
11.5036
 30
0.0000
 11
8.2610
 21
13.6743
 31
0.0000
  0
POLYLINE
  6
continous
  8
BYBLOCK
 70
0
 66
1
  0
VERTEX
  8
0
 10
7.0980
 20
11.5825
 30
0.0000
  0
VERTEX
  8
0
 10
7.4028
 20
11.6609
 30
0.0000
  0
VERTEX
  8
0
 10
7.7908
 20
11.6441
 30
0.0000
  0
VERTEX
  8
0
 10
8.2204
 20
11.5201
 30
0.0000
  0
VERTEX
  8
0
 10
8.2610
 20
11.5036
 30
0.0000
  0
SEQEND
  0
POLYLINE
  6
continous
  8
BYBLOCK
 70
0
 66
1
  0
VERTEX
  8
0
 10
6.5072
 20
10.6578
 30
0.0000
  0
VERTEX
  8
0
 10
6.6032
 20
11.0473
 30
0.0000
  0
VERTEX
  8
0
 10
6.7642
 20
11.3268
 30
0.0000
  0
VERTEX
  8
0
 10
6.9906
 20
11.5264
 30
0.0000
  0
VERTEX
  8
0
 10
7.0980
 20
11.5825
 30
0.0000
  0
SEQEND
  0
LINE
  6
continous
  8
BYBLOCK
 10
5.9276
 20
10.7330
 30
0.0000
 11
6.5072
 21
10.6578
 31
0.0000
  0
LINE
  6
continous
  8
BYBLOCK
 10
5.9276
 20
4.2187
 30
0.0000
 11
5.9276
 21
10.7330
 31
0.0000
  0
LINE
  6
continous
  8
BYBLOCK
 10
6.5072
 20
3.4742
 30
0.0000
 11
5.9276
 21
4.2187
 31
0.0000
  0
POLYLINE
  6
continous
  8
BYBLOCK
 70
0
 66
1
  0
VERTEX
  8
0
 10
8.2610
 20
0.1480
 30
0.0000
  0
VERTEX
  8
0
 10
7.7527
 20
0.7203
 30
0.0000
  0
VERTEX
  8
0
 10
7.3046
 20
1.3579
 30
0.0000
  0
VERTEX
  8
0
 10
6.9391
 20
2.0288
 30
0.0000
  0
VERTEX
  8
0
 10
6.6911
 20
2.6485
 30
0.0000
  0
VERTEX
  8
0
 10
6.5399
 20
3.2413
 30
0.0000
  0
VERTEX
  8
0
 10
6.5072
 20
3.4742
 30
0.0000
  0
SEQEND
  0
LINE
  6
continous
  8
BYBLOCK
 10
8.2610
 20
-1.4972
 30
0.0000
 11
8.2610
 21
0.1480
 31
0.0000
  0
LINE
  6
continous
  8
BYBLOCK
 10
9.4631
 20
-3.0412
 30
0.0000
 11
8.2610
 21
-1.4972
 31
0.0000
  0
LINE
  6
continous
  8
BYBLOCK
 10
9.4631
 20
-5.6621
 30
0.0000
 11
9.4631
 21
-3.0412
 31
0.0000
  0
LINE
  6
continous
  8
BYBLOCK
 10
8.8702
 20
-5.8358
 30
0.0000
 11
9.4631
 21
-5.6621
 31
0.0000
  0
LINE
  6
continous
  8
BYBLOCK
 10
-8.8702
 20
6.7086
 30
0.0000
 11
8.8702
 21
-5.8358
 31
0.0000
  0
LINE
  6
continous
  8
BYBLOCK
 10
-6.2225
 20
27.5965
 30
0.0000
 11
-8.2610
 21
25.3571
 31
0.0000
  0
LINE
  6
continous
  8
BYBLOCK
 10
-8.2610
 20
25.3571
 30
0.0000
 11
-8.2610
 21
23.1865
 31
0.0000
  0
POLYLINE
  6
continous
  8
BYBLOCK
 70
0
 66
1
  0
VERTEX
  8
0
 10
-6.2225
 20
14.2431
 30
0.0000
  0
VERTEX
  8
0
 10
-5.9275
 20
14.0943
 30
0.0000
  0
SEQEND
  0
POLYLINE
  6
continous
  8
BYBLOCK
 70
0
 66
1
  0
VERTEX
  8
0
 10
2794.8396
 20
2003.7258
 30
0.0000
  0
VERTEX
  8
0
 10
2794.1586
 20
2003.1726
 30
0.0000
  0
VERTEX
  8
0
 10
2793.5922
 20
2002.5583
 30
0.0000
  0
VERTEX
  8
0
 10
2793.1510
 20
2001.8946
 30
0.0000
  0
VERTEX
  8
0
 10
2792.8435
 20
2001.1942
 30
0.0000
  0
VERTEX
  8
0
 10
2792.6756
 20
2000.4705
 30
0.0000
  0
VERTEX
  8
0
 10
2792.6430
 20
2000.0125
 30
0.0000
  0
SEQEND
  0
LINE
  6
continous
  8
BYBLOCK
 10
2794.8396
 20
2003.7258
 30
0.0000
 11
2794.8396
 21
2003.7965
 31
0.0000
  0
POLYLINE
  6
continous
  8
BYBLOCK
 70
0
 66
1
  0
VERTEX
  8
0
 10
2807.6427
 20
2000.0095
 30
0.0000
  0
VERTEX
  8
0
 10
2807.5635
 20
2000.7452
 30
0.0000
  0
VERTEX
  8
0
 10
2807.3406
 20
2001.4661
 30
0.0000
  0
VERTEX
  8
0
 10
2806.9784
 20
2002.1581
 30
0.0000
  0
VERTEX
  8
0
 10
2806.4839
 20
2002.8079
 30
0.0000
  0
VERTEX
  8
0
 10
2805.8666
 20
2003.4028
 30
0.0000
  0
VERTEX
  8
0
 10
2805.1385
 20
2003.9314
 30
0.0000
  0
VERTEX
  8
0
 10
2804.3136
 20
2004.3834
 30
0.0000
  0
VERTEX
  8
0
 10
2803.4081
 20
2004.7501
 30
0.0000
  0
VERTEX
  8
0
 10
2802.3147
 20
2005.0518
 30
0.0000
  0
VERTEX
  8
0
 10
2801.1681
 20
2005.2293
 30
0.0000
  0
VERTEX
  8
0
 10
2799.9964
 20
2005.2781
 30
0.0000
  0
VERTEX
  8
0
 10
2798.8283
 20
2005.1970
 30
0.0000
  0
VERTEX
  8
0
 10
2797.6924
 20
2004.9880
 30
0.0000
  0
VERTEX
  8
0
 10
2796.7323
 20
2004.6990
 30
0.0000
  0
VERTEX
  8
0
 10
2795.8381
 20
2004.3185
 30
0.0000
  0
VERTEX
  8
0
 10
2795.0273
 20
2003.8540
 30
0.0000
  0
VERTEX
  8
0
 10
2794.8396
 20
2003.7258
 30
0.0000
  0
SEQEND
  0
POLYLINE
  6
continous
  8
BYBLOCK
 70
0
 66
1
  0
VERTEX
  8
0
 10
2738.2710
 20
1963.7258
 30
0.0000
  0
VERTEX
  8
0
 10
2737.5901
 20
1963.1726
 30
0.0000
  0
VERTEX
  8
0
 10
2737.0236
 20
1962.5583
 30
0.0000
  0
VERTEX
  8
0
 10
2736.5824
 20
1961.8946
 30
0.0000
  0
VERTEX
  8
0
 10
2736.2749
 20
1961.1942
 30
0.0000
  0
VERTEX
  8
0
 10
2736.1070
 20
1960.4705
 30
0.0000
  0
VERTEX
  8
0
 10
2736.0745
 20
1960.0125
 30
0.0000
  0
SEQEND
  0
LINE
  6
continous
  8
BYBLOCK
 10
2738.2710
 20
1963.7258
 30
0.0000
 11
2738.2710
 21
1963.7965
 31
0.0000
  0
POLYLINE
  6
continous
  8
BYBLOCK
 70
0
 66
1
  0
VERTEX
  8
0
 10
2751.0742
 20
1960.0095
 30
0.0000
  0
VERTEX
  8
0
 10
2750.9949
 20
1960.7452
 30
0.0000
  0
VERTEX
  8
0
 10
2750.7721
 20
1961.4661
 30
0.0000
  0
VERTEX
  8
0
 10
2750.4099
 20
1962.1581
 30
0.0000
  0
VERTEX
  8
0
 10
2749.9153
 20
1962.8079
 30
0.0000
  0
VERTEX
  8
0
 10
2749.2980
 20
1963.4028
 30
0.0000
  0
VERTEX
  8
0
 10
2748.5699
 20
1963.9314
 30
0.0000
  0
VERTEX
  8
0
 10
2747.7451
 20
1964.3834
 30
0.0000
  0
VERTEX
  8
0
 10
2746.8395
 20
1964.7501
 30
0.0000
  0
VERTEX
  8
0
 10
2745.7462
 20
1965.0518
 30
0.0000
  0
VERTEX
  8
0
 10
2744.5996
 20
1965.2293
 30
0.0000
  0
VERTEX
  8
0
 10
2743.4279
 20
1965.2781
 30
0.0000
  0
VERTEX
  8
0
 10
2742.2598
 20
1965.1970
 30
0.0000
  0
VERTEX
  8
0
 10
2741.1239
 20
1964.9880
 30
0.0000
  0
VERTEX
  8
0
 10
2740.1637
 20
1964.6990
 30
0.0000
  0
VERTEX
  8
0
 10
2739.2696
 20
1964.3185
 30
0.0000
  0
VERTEX
  8
0
 10
2738.4588
 20
1963.8540
 30
0.0000
  0
VERTEX
  8
0
 10
2738.2710
 20
1963.7258
 30
0.0000
  0
SEQEND
  0
POLYLINE
  6
continous
  8
BYBLOCK
 70
0
 66
1
  0
VERTEX
  8
0
 10
2681.7025
 20
1923.7258
 30
0.0000
  0
VERTEX
  8
0
 10
2681.0216
 20
1923.1726
 30
0.0000
  0
VERTEX
  8
0
 10
2680.4551
 20
1922.5583
 30
0.0000
  0
VERTEX
  8
0
 10
2680.0139
 20
1921.8946
 30
0.0000
  0
VERTEX
  8
0
 10
2679.7064
 20
1921.1942
 30
0.0000
  0
VERTEX
  8
0
 10
2679.5385
 20
1920.4705
 30
0.0000
  0
VERTEX
  8
0
 10
2679.5059
 20
1920.0125
 30
0.0000
  0
SEQEND
  0
LINE
  6
continous
  8
BYBLOCK
 10
2681.7025
 20
1923.7258
 30
0.0000
 11
2681.7025
 21
1923.7965
 31
0.0000
  0
POLYLINE
  6
continous
  8
BYBLOCK
 70
0
 66
1
  0
VERTEX
  8
0
 10
2694.5056
 20
1920.0095
 30
0.0000
  0
VERTEX
  8
0
 10
2694.4264
 20
1920.7452
 30
0.0000
  0
VERTEX
  8
0
 10
2694.2035
 20
1921.4661
 30
0.0000
  0
VERTEX
  8
0
 10
2693.8413
 20
1922.1581
 30
0.0000
  0
VERTEX
  8
0
 10
2693.3468
 20
1922.8079
 30
0.0000
  0
VERTEX
  8
0
 10
2692.7295
 20
1923.4028
 30
0.0000
  0
VERTEX
  8
0
 10
2692.0014
 20
1923.9314
 30
0.0000
  0
VERTEX
  8
0
 10
2691.1766
 20
1924.3834
 30
0.0000
  0
VERTEX
  8
0
 10
2690.2710
 20
1924.7501
 30
0.0000
  0
VERTEX
  8
0
 10
2689.1776
 20
1925.0518
 30
0.0000
  0
VERTEX
  8
0
 10
2688.0310
 20
1925.2293
 30
0.0000
  0
VERTEX
  8
0
 10
2686.8593
 20
1925.2781
 30
0.0000
  0
VERTEX
  8
0
 10
2685.6912
 20
1925.1970
 30
0.0000
  0
VERTEX
  8
0
 10
2684.5553
 20
1924.9880
 30
0.0000
  0
VERTEX
  8
0
 10
2683.5952
 20
1924.6990
 30
0.0000
  0
VERTEX
  8
0
 10
2682.7011
 20
1924.3185
 30
0.0000
  0
VERTEX
  8
0
 10
2681.8903
 20
1923.8540
 30
0.0000
  0
VERTEX
  8
0
 10
2681.7025
 20
1923.7258
 30
0.0000
  0
SEQEND
  0
POLYLINE
  6
continous
  8
BYBLOCK
 70
0
 66
1
  0
VERTEX
  8
0
 10
2625.1339
 20
1883.7258
 30
0.0000
  0
VERTEX
  8
0
 10
2624.4530
 20
1883.1726
 30
0.0000
  0
VERTEX
  8
0
 10
2623.8866
 20
1882.5583
 30
0.0000
  0
VERTEX
  8
0
 10
2623.4453
 20
1881.8946
 30
0.0000
  0
VERTEX
  8
0
 10
2623.1378
 20
1881.1942
 30
0.0000
  0
VERTEX
  8
0
 10
2622.9699
 20
1880.4705
 30
0.0000
  0
VERTEX
  8
0
 10
2622.9374
 20
1880.0125
 30
0.0000
  0
SEQEND
  0
LINE
  6
continous
  8
BYBLOCK
 10
2625.1339
 20
1883.7258
 30
0.0000
 11
2625.1339
 21
1883.7965
 31
0.0000
  0
POLYLINE
  6
continous
  8
BYBLOCK
 70
0
 66
1
  0
VERTEX
  8
0
 10
2637.9371
 20
1880.0095
 30
0.0000
  0
VERTEX
  8
0
 10
2637.8579
 20
1880.7452
 30
0.0000
  0
VERTEX
  8
0
 10
2637.6350
 20
1881.4661
 30
0.0000
  0
VERTEX
  8
0
 10
2637.2728
 20
1882.1581
 30
0.0000
  0
VERTEX
  8
0
 10
2636.7782
 20
1882.8079
 30
0.0000
  0
VERTEX
  8
0
 10
2636.1609
 20
1883.4028
 30
0.0000
  0
VERTEX
  8
0
 10
2635.4328
 20
1883.9314
 30
0.0000
  0
VERTEX
  8
0
 10
2634.6080
 20
1884.3834
 30
0.0000
  0
VERTEX
  8
0
 10
2633.7025
 20
1884.7501
 30
0.0000
  0
VERTEX
  8
0
 10
2632.6091
 20
1885.0518
 30
0.0000
  0
VERTEX
  8
0
 10
2631.4625
 20
1885.2293
 30
0.0000
  0
VERTEX
  8
0
 10
2630.2908
 20
1885.2781
 30
0.0000
  0
VERTEX
  8
0
 10
2629.1227
 20
1885.1970
 30
0.0000
  0
VERTEX
  8
0
 10
2627.9868
 20
1884.9880
 30
0.0000
  0
VERTEX
  8
0
 10
2627.0266
 20
1884.6990
 30
0.0000
  0
VERTEX
  8
0
 10
2626.1325
 20
1884.3185
 30
0.0000
  0
VERTEX
  8
0
 10
2625.3217
 20
1883.8540
 30
0.0000
  0
VERTEX
  8
0
 10
2625.1339
 20
1883.7258
 30
0.0000
  0
SEQEND
  0
POLYLINE
  6
continous
  8
BYBLOCK
 70
0
 66
1
  0
VERTEX
  8
0
 10
2568.5654
 20
1843.7258
 30
0.0000
  0
VERTEX
  8
0
 10
2567.8845
 20
1843.1726
 30
0.0000
  0
VERTEX
  8
0
 10
2567.3180
 20
1842.5583
 30
0.0000
  0
VERTEX
  8
0
 10
2566.8768
 20
1841.8946
 30
0.0000
  0
VERTEX
  8
0
 10
2566.5693
 20
1841.1942
 30
0.0000
  0
VERTEX
  8
0
 10
2566.4014
 20
1840.4705
 30
0.0000
  0
VERTEX
  8
0
 10
2566.3689
 20
1840.0125
 30
0.0000
  0
SEQEND
  0
LINE
  6
continous
  8
BYBLOCK
 10
2568.5654
 20
1843.7258
 30
0.0000
 11
2568.5654
 21
1843.7965
 31
0.0000
  0
POLYLINE
  6
continous
  8
BYBLOCK
 70
0
 66
1
  0
VERTEX
  8
0
 10
2581.3685
 20
1840.0095
 30
0.0000
  0
VERTEX
  8
0
 10
2581.2893
 20
1840.7452
 30
0.0000
  0
VERTEX
  8
0
 10
2581.0665
 20
1841.4661
 30
0.0000
  0
VERTEX
  8
0
 10
2580.7042
 20
1842.1581
 30
0.0000
  0
VERTEX
  8
0
 10
2580.2097
 20
1842.8079
 30
0.0000
  0
VERTEX
  8
0
 10
2579.5924
 20
1843.4028
 30
0.0000
  0
VERTEX
  8
0
 10
2578.8643
 20
1843.9314
 30
0.0000
  0
VERTEX
  8
0
 10
2578.0395
 20
1844.3834
 30
0.0000
  0
VERTEX
  8
0
 10
2577.1339
 20
1844.7501
 30
0.0000
  0
VERTEX
  8
0
 10
2576.0405
 20
1845.0518
 30
0.0000
  0
VERTEX
  8
0
 10
2574.8939
 20
1845.2293
 30
0.0000
  0
VERTEX
  8
0
 10
2573.7223
 20
1845.2781
 30
0.0000
  0
VERTEX
  8
0
 10
2572.5542
 20
1845.1970
 30
0.0000
  0
VERTEX
  8
0
 10
2571.4182
 20
1844.9880
 30
0.0000
  0
VERTEX
  8
0
 10
2570.4581
 20
1844.6990
 30
0.0000
  0
VERTEX
  8
0
 10
2569.5640
 20
1844.3185
 30
0.0000
  0
VERTEX
  8
0
 10
2568.7532
 20
1843.8540
 30
0.0000
  0
VERTEX
  8
0
 10
2568.5654
 20
1843.7258
 30
0.0000
  0
SEQEND
  0
POLYLINE
  6
continous
  8
BYBLOCK
 70
0
 66
1
  0
VERTEX
  8
0
 10
2511.9968
 20
1803.7258
 30
0.0000
  0
VERTEX
  8
0
 10
2511.3159
 20
1803.1726
 30
0.0000
  0
VERTEX
  8
0
 10
2510.7495
 20
1802.5583
 30
0.0000
  0
VERTEX
  8
0
 10
2510.3083
 20
1801.8946
 30
0.0000
  0
VERTEX
  8
0
 10
2510.0008
 20
1801.1942
 30
0.0000
  0
VERTEX
  8
0
 10
2509.8328
 20
1800.4705
 30
0.0000
  0
VERTEX
  8
0
 10
2509.8003
 20
1800.0125
 30
0.0000
  0
SEQEND
  0
LINE
  6
continous
  8
BYBLOCK
 10
2511.9968
 20
1803.7258
 30
0.0000
 11
2511.9968
 21
1803.7965
 31
0.0000
  0
POLYLINE
  6
continous
  8
BYBLOCK
 70
0
 66
1
  0
VERTEX
  8
0
 10
2524.8000
 20
1800.0095
 30
0.0000
  0
VERTEX
  8
0
 10
2524.7208
 20
1800.7452
 30
0.0000
  0
VERTEX
  8
0
 10
2524.4979
 20
1801.4661
 30
0.0000
  0
VERTEX
  8
0
 10
2524.1357
 20
1802.1581
 30
0.0000
  0
VERTEX
  8
0
 10
2523.6412
 20
1802.8079
 30
0.0000
  0
VERTEX
  8
0
 10
2523.0239
 20
1803.4028
 30
0.0000
  0
VERTEX
  8
0
 10
2522.2957
 20
1803.9314
 30
0.0000
  0
VERTEX
  8
0
 10
2521.4709
 20
1804.3834
 30
0.0000
  0
VERTEX
  8
0
 10
2520.5654
 20
1804.7501
 30
0.0000
  0
VERTEX
  8
0
 10
2519.4720
 20
1805.0518
 30
0.0000
  0
VERTEX
  8
0
 10
2518.3254
 20
1805.2293
 30
0.0000
  0
VERTEX
  8
0
 10
2517.1537
 20
1805.2781
 30
0.0000
  0
VERTEX
  8
0
 10
2515.9856
 20
1805.1970
 30
0.0000
  0
VERTEX
  8
0
 10
2514.8497
 20
1804.9880
 30
0.0000
  0
VERTEX
  8
0
 10
2513.8896
 20
1804.6990
 30
0.0000
  0
VERTEX
  8
0
 10
2512.9954
 20
1804.3185
 30
0.0000
  0
VERTEX
  8
0
 10
2512.1846
 20
1803.8540
 30
0.0000
  0
VERTEX
  8
0
 10
2511.9968
 20
1803.7258
 30
0.0000
  0
SEQEND
  0
POLYLINE
  6
continous
  8
BYBLOCK
 70
0
 66
1
  0
VERTEX
  8
0
 10
2455.4283
 20
1763.7258
 30
0.0000
  0
VERTEX
  8
0
 10
2454.7474
 20
1763.1726
 30
0.0000
  0
VERTEX
  8
0
 10
2454.1809
 20
1762.5583
 30
0.0000
  0
VERTEX
  8
0
 10
2453.7397
 20
1761.8946
 30
0.0000
  0
VERTEX
  8
0
 10
2453.4322
 20
1761.1942
 30
0.0000
  0
VERTEX
  8
0
 10
2453.2643
 20
1760.4705
 30
0.0000
  0
VERTEX
  8
0
 10
2453.2318
 20
1760.0125
 30
0.0000
  0
SEQEND
  0
LINE
  6
continous
  8
BYBLOCK
 10
2455.4283
 20
1763.7258
 30
0.0000
 11
2455.4283
 21
1763.7965
 31
0.0000
  0
POLYLINE
  6
continous
  8
BYBLOCK
 70
0
 66
1
  0
VERTEX
  8
0
 10
2468.2314
 20
1760.0095
 30
0.0000
  0
VERTEX
  8
0
 10
2468.1522
 20
1760.7452
 30
0.0000
  0
VERTEX
  8
0
 10
2467.9294
 20
1761.4661
 30
0.0000
  0
VERTEX
  8
0
 10
2467.5672
 20
1762.1581
 30
0.0000
  0
VERTEX
  8
0
 10
2467.0726
 20
1762.8079
 30
0.0000
  0
VERTEX
  8
0
 10
2466.4553
 20
1763.4028
 30
0.0000
  0
VERTEX
  8
0
 10
2465.7272
 20
1763.9314
 30
0.0000
  0
VERTEX
  8
0
 10
2464.9024
 20
1764.3834
 30
0.0000
  0
VERTEX
  8
0
 10
2463.9968
 20
1764.7501
 30
0.0000
  0
VERTEX
  8
0
 10
2462.9034
 20
1765.0518
 30
0.0000
  0
VERTEX
  8
0
 10
2461.7569
 20
1765.2293
 30
0.0000
  0
VERTEX
  8
0
 10
2460.5852
 20
1765.2781
 30
0.0000
  0
VERTEX
  8
0
 10
2459.4171
 20
1765.1970
 30
0.0000
  0
VERTEX
  8
0
 10
2458.2812
 20
1764.9880
 30
0.0000
  0
VERTEX
  8
0
 10
2457.3210
 20
1764.6990
 30
0.0000
  0
VERTEX
  8
0
 10
2456.4269
 20
1764.3185
 30
0.0000
  0
VERTEX
  8
0
 10
2455.6161
 20
1763.8540
 30
0.0000
  0
VERTEX
  8
0
 10
2455.4283
 20
1763.7258
 30
0.0000
  0
SEQEND
  0
POLYLINE
  6
continous
  8
BYBLOCK
 70
0
 66
1
  0
VERTEX
  8
0
 10
2398.8598
 20
1723.7258
 30
0.0000
  0
VERTEX
  8
0
 10
2398.1789
 20
1723.1726
 30
0.0000
  0
VERTEX
  8
0
 10
2397.6124
 20
1722.5583
 30
0.0000
  0
VERTEX
  8
0
 10
2397.1712
 20
1721.8946
 30
0.0000
  0
VERTEX
  8
0
 10
2396.8637
 20
1721.1942
 30
0.0000
  0
VERTEX
  8
0
 10
2396.6958
 20
1720.4705
 30
0.0000
  0
VERTEX
  8
0
 10
2396.6632
 20
1720.0125
 30
0.0000
  0
SEQEND
  0
LINE
  6
continous
  8
BYBLOCK
 10
2398.8598
 20
1723.7258
 30
0.0000
 11
2398.8598
 21
1723.7965
 31
0.0000
  0
POLYLINE
  6
continous
  8
BYBLOCK
 70
0
 66
1
  0
VERTEX
  8
0
 10
2411.6629
 20
1720.0095
 30
0.0000
  0
VERTEX
  8
0
 10
2411.5837
 20
1720.7452
 30
0.0000
  0
VERTEX
  8
0
 10
2411.3608
 20
1721.4661
 30
0.0000
  0
VERTEX
  8
0
 10
2410.9986
 20
1722.1581
 30
0.0000
  0
VERTEX
  8
0
 10
2410.5041
 20
1722.8079
 30
0.0000
  0
VERTEX
  8
0
 10
2409.8868
 20
1723.4028
 30
0.0000
  0
VERTEX
  8
0
 10
2409.1587
 20
1723.9314
 30
0.0000
  0
VERTEX
  8
0
 10
2408.3338
 20
1724.3834
 30
0.0000
  0
VERTEX
  8
0
 10
2407.4283
 20
1724.7501
 30
0.0000
  0
VERTEX
  8
0
 10
2406.3349
 20
1725.0518
 30
0.0000
  0
VERTEX
  8
0
 10
2405.1883
 20
1725.2293
 30
0.0000
  0
VERTEX
  8
0
 10
2404.0166
 20
1725.2781
 30
0.0000
  0
VERTEX
  8
0
 10
2402.8485
 20
1725.1970
 30
0.0000
  0
VERTEX
  8
0
 10
2401.7126
 20
1724.9880
 30
0.0000
  0
VERTEX
  8
0
 10
2400.7525
 20
1724.6990
 30
0.0000
  0
VERTEX
  8
0
 10
2399.8583
 20
1724.3185
 30
0.0000
  0
VERTEX
  8
0
 10
2399.0476
 20
1723.8540
 30
0.0000
  0
VERTEX
  8
0
 10
2398.8598
 20
1723.7258
 30
0.0000
  0
SEQEND
  0
POLYLINE
  6
continous
  8
BYBLOCK
 70
0
 66
1
  0
VERTEX
  8
0
 10
2342.2912
 20
1683.7258
 30
0.0000
  0
VERTEX
  8
0
 10
2341.6103
 20
1683.1726
 30
0.0000
  0
VERTEX
  8
0
 10
2341.0438
 20
1682.5583
 30
0.0000
  0
VERTEX
  8
0
 10
2340.6026
 20
1681.8946
 30
0.0000
  0
VERTEX
  8
0
 10
2340.2951
 20
1681.1942
 30
0.0000
  0
VERTEX
  8
0
 10
2340.1272
 20
1680.4705
 30
0.0000
  0
VERTEX
  8
0
 10
2340.0947
 20
1680.0125
 30
0.0000
  0
SEQEND
  0
LINE
  6
continous
  8
BYBLOCK
 10
2342.2912
 20
1683.7258
 30
0.0000
 11
2342.2912
 21
1683.7965
 31
0.0000
  0
POLYLINE
  6
continous
  8
BYBLOCK
 70
0
 66
1
  0
VERTEX
  8
0
 10
2355.0944
 20
1680.0095
 30
0.0000
  0
VERTEX
  8
0
 10
2355.0152
 20
1680.7452
 30
0.0000
  0
VERTEX
  8
0
 10
2354.7923
 20
1681.4661
 30
0.0000
  0
VERTEX
  8
0
 10
2354.4301
 20
1682.1581
 30
0.0000
  0
VERTEX
  8
0
 10
2353.9355
 20
1682.8079
 30
0.0000
  0
VERTEX
  8
0
 10
2353.3182
 20
1683.4028
 30
0.0000
  0
VERTEX
  8
0
 10
2352.5901
 20
1683.9314
 30
0.0000
  0
VERTEX
  8
0
 10
2351.7653
 20
1684.3834
 30
0.0000
  0
VERTEX
  8
0
 10
2350.8597
 20
1684.7501
 30
0.0000
  0
VERTEX
  8
0
 10
2349.7664
 20
1685.0518
 30
0.0000
  0
VERTEX
  8
0
 10
2348.6198
 20
1685.2293
 30
0.0000
  0
VERTEX
  8
0
 10
2347.4481
 20
1685.2781
 30
0.0000
  0
VERTEX
  8
0
 10
2346.2800
 20
1685.1970
 30
0.0000
  0
VERTEX
  8
0
 10
2345.1441
 20
1684.9880
 30
0.0000
  0
VERTEX
  8
0
 10
2344.1839
 20
1684.6990
 30
0.0000
  0
VERTEX
  8
0
 10
2343.2898
 20
1684.3185
 30
0.0000
  0
VERTEX
  8
0
 10
2342.4790
 20
1683.8540
 30
0.0000
  0
VERTEX
  8
0
 10
2342.2912
 20
1683.7258
 30
0.0000
  0
SEQEND
  0
POLYLINE
  6
continous
  8
BYBLOCK
 70
0
 66
1
  0
VERTEX
  8
0
 10
2285.7227
 20
1643.7258
 30
0.0000
  0
VERTEX
  8
0
 10
2285.0418
 20
1643.1726
 30
0.0000
  0
VERTEX
  8
0
 10
2284.4753
 20
1642.5583
 30
0.0000
  0
VERTEX
  8
0
 10
2284.0341
 20
1641.8946
 30
0.0000
  0
VERTEX
  8
0
 10
2283.7266
 20
1641.1942
 30
0.0000
  0
VERTEX
  8
0
 10
2283.5587
 20
1640.4705
 30
0.0000
  0
VERTEX
  8
0
 10
2283.5262
 20
1640.0125
 30
0.0000
  0
SEQEND
  0
LINE
  6
continous
  8
BYBLOCK
 10
2285.7227
 20
1643.7258
 30
0.0000
 11
2285.7227
 21
1643.7965
 31
0.0000
  0
POLYLINE
  6
continous
  8
BYBLOCK
 70
0
 66
1
  0
VERTEX
  8
0
 10
2298.5258
 20
1640.0095
 30
0.0000
  0
VERTEX
  8
0
 10
2298.4466
 20
1640.7452
 30
0.0000
  0
VERTEX
  8
0
 10
2298.2237
 20
1641.4661
 30
0.0000
  0
VERTEX
  8
0
 10
2297.8615
 20
1642.1581
 30
0.0000
  0
VERTEX
  8
0
 10
2297.3670
 20
1642.8079
 30
0.0000
  0
VERTEX
  8
0
 10
2296.7497
 20
1643.4028
 30
0.0000
  0
VERTEX
  8
0
 10
2296.0216
 20
1643.9314
 30
0.0000
  0
VERTEX
  8
0
 10
2295.1968
 20
1644.3834
 30
0.0000
  0
VERTEX
  8
0
 10
2294.2912
 20
1644.7501
 30
0.0000
  0
VERTEX
  8
0
 10
2293.1978
 20
1645.0518
 30
0.0000
  0
VERTEX
  8
0
 10
2292.0512
 20
1645.2293
 30
0.0000
  0
VERTEX
  8
0
 10
2290.8795
 20
1645.2781
 30
0.0000
  0
VERTEX
  8
0
 10
2289.7114
 20
1645.1970
 30
0.0000
  0
VERTEX
  8
0
 10
2288.5755
 20
1644.9880
 30
0.0000
  0
VERTEX
  8
0
 10
2287.6154
 20
1644.6990
 30
0.0000
  0
VERTEX
  8
0
 10
2286.7213
 20
1644.3185
 30
0.0000
  0
VERTEX
  8
0
 10
2285.9105
 20
1643.8540
 30
0.0000
  0
VERTEX
  8
0
 10
2285.7227
 20
1643.7258
 30
0.0000
  0
SEQEND
  0
POLYLINE
  6
continous
  8
BYBLOCK
 70
0
 66
1
  0
VERTEX
  8
0
 10
2229.1541
 20
1603.7258
 30
0.0000
  0
VERTEX
  8
0
 10
2228.4732
 20
1603.1726
 30
0.0000
  0
VERTEX
  8
0
 10
2227.9068
 20
1602.5583
 30
0.0000
  0
VERTEX
  8
0
 10
2227.4656
 20
1601.8946
 30
0.0000
  0
VERTEX
  8
0
 10
2227.1581
 20
1601.1942
 30
0.0000
  0
VERTEX
  8
0
 10
2226.9901
 20
1600.4705
 30
0.0000
  0
VERTEX
  8
0
 10
2226.9576
 20
1600.0125
 30
0.0000
  0
SEQEND
  0
LINE
  6
continous
  8
BYBLOCK
 10
2229.1541
 20
1603.7258
 30
0.0000
 11
2229.1541
 21
1603.7965
 31
0.0000
  0
POLYLINE
  6
continous
  8
BYBLOCK
 70
0
 66
1
  0
VERTEX
  8
0
 10
2241.9573
 20
1600.0095
 30
0.0000
  0
VERTEX
  8
0
 10
2241.8781
 20
1600.7452
 30
0.0000
  0
VERTEX
  8
0
 10
2241.6552
 20
1601.4661
 30
0.0000
  0
VERTEX
  8
0
 10
2241.2930
 20
1602.1581
 30
0.0000
  0
VERTEX
  8
0
 10
2240.7984
 20
1602.8079
 30
0.0000
  0
VERTEX
  8
0
 10
2240.1811
 20
1603.4028
 30
0.0000
  0
VERTEX
  8
0
 10
2239.4530
 20
1603.9314
 30
0.0000
  0
VERTEX
  8
0
 10
2238.6282
 20
1604.3834
 30
0.0000
  0
VERTEX
  8
0
 10
2237.7227
 20
1604.7501
 30
0.0000
  0
VERTEX
  8
0
 10
2236.6293
 20
1605.0518
 30
0.0000
  0
VERTEX
  8
0
 10
2235.4827
 20
1605.2293
 30
0.0000
  0
VERTEX
  8
0
 10
2234.3110
 20
1605.2781
 30
0.0000
  0
VERTEX
  8
0
 10
2233.1429
 20
1605.1970
 30
0.0000
  0
VERTEX
  8
0
 10
2232.0070
 20
1604.9880
 30
0.0000
  0
VERTEX
  8
0
 10
2231.0468
 20
1604.6990
 30
0.0000
  0
VERTEX
  8
0
 10
2230.1527
 20
1604.3185
 30
0.0000
  0
VERTEX
  8
0
 10
2229.3419
 20
1603.8540
 30
0.0000
  0
VERTEX
  8
0
 10
2229.1541
 20
1603.7258
 30
0.0000
  0
SEQEND
  0
POLYLINE
  6
continous
  8
BYBLOCK
 70
0
 66
1
  0
VERTEX
  8
0
 10
2172.5856
 20
1563.7258
 30
0.0000
  0
VERTEX
  8
0
 10
2171.9047
 20
1563.1726
 30
0.0000
  0
VERTEX
  8
0
 10
2171.3382
 20
1562.5583
 30
0.0000
  0
VERTEX
  8
0
 10
2170.8970
 20
1561.8946
 30
0.0000
  0
VERTEX
  8
0
 10
2170.5895
 20
1561.1942
 30
0.0000
  0
VERTEX
  8
0
 10
2170.4216
 20
1560.4705
 30
0.0000
  0
VERTEX
  8
0
 10
2170.3891
 20
1560.0125
 30
0.0000
  0
SEQEND
  0
LINE
  6
continous
  8
BYBLOCK
 10
2172.5856
 20
1563.7258
 30
0.0000
 11
2172.5856
 21
1563.7965
 31
0.0000
  0
POLYLINE
  6
continous
  8
BYBLOCK
 70
0
 66
1
  0
VERTEX
  8
0
 10
2185.3887
 20
1560.0095
 30
0.0000
  0
VERTEX
  8
0
 10
2185.3095
 20
1560.7452
 30
0.0000
  0
VERTEX
  8
0
 10
2185.0867
 20
1561.4661
 30
0.0000
  0
VERTEX
  8
0
 10
2184.7244
 20
1562.1581
 30
0.0000
  0
VERTEX
  8
0
 10
2184.2299
 20
1562.8079
 30
0.0000
  0
VERTEX
  8
0
 10
2183.6126
 20
1563.4028
 30
0.0000
  0
VERTEX
  8
0
 10
2182.8845
 20
1563.9314
 30
0.0000
  0
VERTEX
  8
0
 10
2182.0597
 20
1564.3834
 30
0.0000
  0
VERTEX
  8
0
 10
2181.1541
 20
1564.7501
 30
0.0000
  0
VERTEX
  8
0
 10
2180.0607
 20
1565.0518
 30
0.0000
  0
VERTEX
  8
0
 10
2178.9141
 20
1565.2293
 30
0.0000
  0
VERTEX
  8
0
 10
2177.7425
 20
1565.2781
 30
0.0000
  0
VERTEX
  8
0
 10
2176.5744
 20
1565.1970
 30
0.0000
  0
VERTEX
  8
0
 10
2175.4384
 20
1564.9880
 30
0.0000
  0
VERTEX
  8
0
 10
2174.4783
 20
1564.6990
 30
0.0000
  0
VERTEX
  8
0
 10
2173.5842
 20
1564.3185
 30
0.0000
  0
VERTEX
  8
0
 10
2172.7734
 20
1563.8540
 30
0.0000
  0
VERTEX
  8
0
 10
2172.5856
 20
1563.7258
 30
0.0000
  0
SEQEND
  0
POLYLINE
  6
continous
  8
BYBLOCK
 70
0
 66
1
  0
VERTEX
  8
0
 10
2116.0170
 20
1523.7258
 30
0.0000
  0
VERTEX
  8
0
 10
2115.3361
 20
1523.1726
 30
0.0000
  0
VERTEX
  8
0
 10
2114.7697
 20
1522.5583
 30
0.0000
  0
VERTEX
  8
0
 10
2114.3285
 20
1521.8946
 30
0.0000
  0
VERTEX
  8
0
 10
2114.0210
 20
1521.1942
 30
0.0000
  0
VERTEX
  8
0
 10
2113.8530
 20
1520.4705
 30
0.0000
  0
VERTEX
  8
0
 10
2113.8205
 20
1520.0125
 30
0.0000
  0
SEQEND
  0
LINE
  6
continous
  8
BYBLOCK
 10
2116.0170
 20
1523.7258
 30
0.0000
 11
2116.0170
 21
1523.7965
 31
0.0000
  0
POLYLINE
  6
continous
  8
BYBLOCK
 70
0
 66
1
  0
VERTEX
  8
0
 10
2128.8202
 20
1520.0095
 30
0.0000
  0
VERTEX
  8
0
 10
2128.7410
 20
1520.7452
 30
0.0000
  0
VERTEX
  8
0
 10
2128.5181
 20
1521.4661
 30
0.0000
  0
VERTEX
  8
0
 10
2128.1559
 20
1522.1581
 30
0.0000
  0
VERTEX
  8
0
 10
2127.6614
 20
1522.8079
 30
0.0000
  0
VERTEX
  8
0
 10
2127.0441
 20
1523.4028
 30
0.0000
  0
VERTEX
  8
0
 10
2126.3160
 20
1523.9314
 30
0.0000
  0
VERTEX
  8
0
 10
2125.4911
 20
1524.3834
 30
0.0000
  0
VERTEX
  8
0
 10
2124.5856
 20
1524.7501
 30
0.0000
  0
VERTEX
  8
0
 10
2123.4922
 20
1525.0518
 30
0.0000
  0
VERTEX
  8
0
 10
2122.3456
 20
1525.2293
 30
0.0000
  0
VERTEX
  8
0
 10
2121.1739
 20
1525.2781
 30
0.0000
  0
VERTEX
  8
0
 10
2120.0058
 20
1525.1970
 30
0.0000
  0
VERTEX
  8
0
 10
2118.8699
 20
1524.9880
 30
0.0000
  0
VERTEX
  8
0
 10
2117.9098
 20
1524.6990
 30
0.0000
  0
VERTEX
  8
0
 10
2117.0156
 20
1524.3185
 30
0.0000
  0
VERTEX
  8
0
 10
2116.2048
 20
1523.8540
 30
0.0000
  0
VERTEX
  8
0
 10
2116.0170
 20
1523.7258
 30
0.0000
  0
SEQEND
  0
POLYLINE
  6
continous
  8
BYBLOCK
 70
0
 66
1
  0
VERTEX
  8
0
 10
2059.4485
 20
1483.7258
 30
0.0000
  0
VERTEX
  8
0
 10
2058.7676
 20
1483.1726
 30
0.0000
  0
VERTEX
  8
0
 10
2058.2011
 20
1482.5583
 30
0.0000
  0
VERTEX
  8
0
 10
2057.7599
 20
1481.8946
 30
0.0000
  0
VERTEX
  8
0
 10
2057.4524
 20
1481.1942
 30
0.0000
  0
VERTEX
  8
0
 10
2057.2845
 20
1480.4705
 30
0.0000
  0
VERTEX
  8
0
 10
2057.2520
 20
1480.0125
 30
0.0000
  0
SEQEND
  0
LINE
  6
continous
  8
BYBLOCK
 10
2059.4485
 20
1483.7258
 30
0.0000
 11
2059.4485
 21
1483.7965
 31
0.0000
  0
POLYLINE
  6
continous
  8
BYBLOCK
 70
0
 66
1
  0
VERTEX
  8
0
 10
2072.2516
 20
1480.0095
 30
0.0000
  0
VERTEX
  8
0
 10
2072.1724
 20
1480.7452
 30
0.0000
  0
VERTEX
  8
0
 10
2071.9496
 20
1481.4661
 30
0.0000
  0
VERTEX
  8
0
 10
2071.5874
 20
1482.1581
 30
0.0000
  0
VERTEX
  8
0
 10
2071.0928
 20
1482.8079
 30
0.0000
  0
VERTEX
  8
0
 10
2070.4755
 20
1483.4028
 30
0.0000
  0
VERTEX
  8
0
 10
2069.7474
 20
1483.9314
 30
0.0000
  0
VERTEX
  8
0
 10
2068.9226
 20
1484.3834
 30
0.0000
  0
VERTEX
  8
0
 10
2068.0170
 20
1484.7501
 30
0.0000
  0
VERTEX
  8
0
 10
2066.9236
 20
1485.0518
 30
0.0000
  0
VERTEX
  8
0
 10
2065.7771
 20
1485.2293
 30
0.0000
  0
VERTEX
  8
0
 10
2064.6054
 20
1485.2781
 30
0.0000
  0
VERTEX
  8
0
 10
2063.4373
 20
1485.1970
 30
0.0000
  0
VERTEX
  8
0
 10
2062.3014
 20
1484.9880
 30
0.0000
  0
VERTEX
  8
0
 10
2061.3412
 20
1484.6990
 30
0.0000
  0
VERTEX
  8
0
 10
2060.4471
 20
1484.3185
 30
0.0000
  0
VERTEX
  8
0
 10
2059.6363
 20
1483.8540
 30
0.0000
  0
VERTEX
  8
0
 10
2059.4485
 20
1483.7258
 30
0.0000
  0
SEQEND
  0
POLYLINE
  6
continous
  8
BYBLOCK
 70
0
 66
1
  0
VERTEX
  8
0
 10
2002.8800
 20
1443.7258
 30
0.0000
  0
VERTEX
  8
0
 10
2002.1991
 20
1443.1726
 30
0.0000
  0
VERTEX
  8
0
 10
2001.6326
 20
1442.5583
 30
0.0000
  0
VERTEX
  8
0
 10
2001.1914
 20
1441.8946
 30
0.0000
  0
VERTEX
  8
0
 10
2000.8839
 20
1441.1942
 30
0.0000
  0
VERTEX
  8
0
 10
2000.7160
 20
1440.4705
 30
0.0000
  0
VERTEX
  8
0
 10
2000.6834
 20
1440.0125
 30
0.0000
  0
SEQEND
  0
LINE
  6
continous
  8
BYBLOCK
 10
2002.8800
 20
1443.7258
 30
0.0000
 11
2002.8800
 21
1443.7965
 31
0.0000
  0
POLYLINE
  6
continous
  8
BYBLOCK
 70
0
 66
1
  0
VERTEX
  8
0
 10
2015.6831
 20
1440.0095
 30
0.0000
  0
VERTEX
  8
0
 10
2015.6039
 20
1440.7452
 30
0.0000
  0
VERTEX
  8
0
 10
2015.3810
 20
1441.4661
 30
0.0000
  0
VERTEX
  8
0
 10
2015.0188
 20
1442.1581
 30
0.0000
  0
VERTEX
  8
0
 10
2014.5243
 20
1442.8079
 30
0.0000
  0
VERTEX
  8
0
 10
2013.9070
 20
1443.4028
 30
0.0000
  0
VERTEX
  8
0
 10
2013.1789
 20
1443.9314
 30
0.0000
  0
VERTEX
  8
0
 10
2012.3541
 20
1444.3834
 30
0.0000
  0
VERTEX
  8
0
 10
2011.4485
 20
1444.7501
 30
0.0000
  0
VERTEX
  8
0
 10
2010.3551
 20
1445.0518
 30
0.0000
  0
VERTEX
  8
0
 10
2009.2085
 20
1445.2293
 30
0.0000
  0
VERTEX
  8
0
 10
2008.0368
 20
1445.2781
 30
0.0000
  0
VERTEX
  8
0
 10
2006.8687
 20
1445.1970
 30
0.0000
  0
VERTEX
  8
0
 10
2005.7328
 20
1444.9880
 30
0.0000
  0
VERTEX
  8
0
 10
2004.7727
 20
1444.6990
 30
0.0000
  0
VERTEX
  8
0
 10
2003.8785
 20
1444.3185
 30
0.0000
  0
VERTEX
  8
0
 10
2003.0678
 20
1443.8540
 30
0.0000
  0
VERTEX
  8
0
 10
2002.8800
 20
1443.7258
 30
0.0000
  0
SEQEND
  0
POLYLINE
  6
continous
  8
BYBLOCK
 70
0
 66
1
  0
VERTEX
  8
0
 10
1946.3114
 20
1403.7258
 30
0.0000
  0
VERTEX
  8
0
 10
1945.6305
 20
1403.1726
 30
0.0000
  0
VERTEX
  8
0
 10
1945.0640
 20
1402.5583
 30
0.0000
  0
VERTEX
  8
0
 10
1944.6228
 20
1401.8946
 30
0.0000
  0
VERTEX
  8
0
 10
1944.3153
 20
1401.1942
 30
0.0000
  0
VERTEX
  8
0
 10
1944.1474
 20
1400.4705
 30
0.0000
  0
VERTEX
  8
0
 10
1944.1149
 20
1400.0125
 30
0.0000
  0
SEQEND
  0
LINE
  6
continous
  8
BYBLOCK
 10
1946.3114
 20
1403.7258
 30
0.0000
 11
1946.3114
 21
1403.7965
 31
0.0000
  0
POLYLINE
  6
continous
  8
BYBLOCK
 70
0
 66
1
  0
VERTEX
  8
0
 10
1959.1146
 20
1400.0095
 30
0.0000
  0
VERTEX
  8
0
 10
1959.0354
 20
1400.7452
 30
0.0000
  0
VERTEX
  8
0
 10
1958.8125
 20
1401.4661
 30
0.0000
  0
VERTEX
  8
0
 10
1958.4503
 20
1402.1581
 30
0.0000
  0
VERTEX
  8
0
 10
1957.9557
 20
1402.8079
 30
0.0000
  0
VERTEX
  8
0
 10
1957.3384
 20
1403.4028
 30
0.0000
  0
VERTEX
  8
0
 10
1956.6103
 20
1403.9314
 30
0.0000
  0
VERTEX
  8
0
 10
1955.7855
 20
1404.3834
 30
0.0000
  0
VERTEX
  8
0
 10
1954.8799
 20
1404.7501
 30
0.0000
  0
VERTEX
  8
0
 10
1953.7866
 20
1405.0518
 30
0.0000
  0
VERTEX
  8
0
 10
1952.6400
 20
1405.2293
 30
0.0000
  0
VERTEX
  8
0
 10
1951.4683
 20
1405.2781
 30
0.0000
  0
VERTEX
  8
0
 10
1950.3002
 20
1405.1970
 30
0.0000
  0
VERTEX
  8
0
 10
1949.1643
 20
1404.9880
 30
0.0000
  0
VERTEX
  8
0
 10
1948.2041
 20
1404.6990
 30
0.0000
  0
VERTEX
  8
0
 10
1947.3100
 20
1404.3185
 30
0.0000
  0
VERTEX
  8
0
 10
1946.4992
 20
1403.8540
 30
0.0000
  0
VERTEX
  8
0
 10
1946.3114
 20
1403.7258
 30
0.0000
  0
SEQEND
  0
POLYLINE
  6
continous
  8
BYBLOCK
 70
0
 66
1
  0
VERTEX
  8
0
 10
1889.7429
 20
1363.7258
 30
0.0000
  0
VERTEX
  8
0
 10
1889.0620
 20
1363.1726
 30
0.0000
  0
VERTEX
  8
0
 10
1888.4955
 20
1362.5583
 30
0.0000
  0
VERTEX
  8
0
 10
1888.0543
 20
1361.8946
 30
0.0000
  0
VERTEX
  8
0
 10
1887.7468
 20
1361.1942
 30
0.0000
  0
VERTEX
  8
0
 10
1887.5789
 20
1360.4705
 30
0.0000
  0
VERTEX
  8
0
 10
1887.5464
 20
1360.0125
 30
0.0000
  0
SEQEND
  0
LINE
  6
continous
  8
BYBLOCK
 10
1889.7429
 20
1363.7258
 30
0.0000
 11
1889.7429
 21
1363.7965
 31
0.0000
  0
POLYLINE
  6
continous
  8
BYBLOCK
 70
0
 66
1
  0
VERTEX
  8
0
 10
1902.5460
 20
1360.0095
 30
0.0000
  0
VERTEX
  8
0
 10
1902.4668
 20
1360.7452
 30
0.0000
  0
VERTEX
  8
0
 10
1902.2439
 20
1361.4661
 30
0.0000
  0
VERTEX
  8
0
 10
1901.8817
 20
1362.1581
 30
0.0000
  0
VERTEX
  8
0
 10
1901.3872
 20
1362.8079
 30
0.0000
  0
VERTEX
  8
0
 10
1900.7699
 20
1363.4028
 30
0.0000
  0
VERTEX
  8
0
 10
1900.0418
 20
1363.9314
 30
0.0000
  0
VERTEX
  8
0
 10
1899.2170
 20
1364.3834
 30
0.0000
  0
VERTEX
  8
0
 10
1898.3114
 20
1364.7501
 30
0.0000
  0
VERTEX
  8
0
 10
1897.2180
 20
1365.0518
 30
0.0000
  0
VERTEX
  8
0
 10
1896.0714
 20
1365.2293
 30
0.0000
  0
VERTEX
  8
0
 10
1894.8997
 20
1365.2781
 30
0.0000
  0
VERTEX
  8
0
 10
1893.7316
 20
1365.1970
 30
0.0000
  0
VERTEX
  8
0
 10
1892.5957
 20
1364.9880
 30
0.0000
  0
VERTEX
  8
0
 10
1891.6356
 20
1364.6990
 30
0.0000
  0
VERTEX
  8
0
 10
1890.7415
 20
1364.3185
 30
0.0000
  0
VERTEX
  8
0
 10
1889.9307
 20
1363.8540
 30
0.0000
  0
VERTEX
  8
0
 10
1889.7429
 20
1363.7258
 30
0.0000
  0
SEQEND
  0
POLYLINE
  6
continous
  8
BYBLOCK
 70
0
 66
1
  0
VERTEX
  8
0
 10
1833.1743
 20
1323.7258
 30
0.0000
  0
VERTEX
  8
0
 10
1832.4934
 20
1323.1726
 30
0.0000
  0
VERTEX
  8
0
 10
1831.9270
 20
1322.5583
 30
0.0000
  0
VERTEX
  8
0
 10
1831.4858
 20
1321.8946
 30
0.0000
  0
VERTEX
  8
0
 10
1831.1783
 20
1321.1942
 30
0.0000
  0
VERTEX
  8
0
 10
1831.0103
 20
1320.4705
 30
0.0000
  0
VERTEX
  8
0
 10
1830.9778
 20
1320.0125
 30
0.0000
  0
SEQEND
  0
LINE
  6
continous
  8
BYBLOCK
 10
1833.1743
 20
1323.7258
 30
0.0000
 11
1833.1743
 21
1323.7965
 31
0.0000
  0
POLYLINE
  6
continous
  8
BYBLOCK
 70
0
 66
1
  0
VERTEX
  8
0
 10
1845.9775
 20
1320.0095
 30
0.0000
  0
VERTEX
  8
0
 10
1845.8983
 20
1320.7452
 30
0.0000
  0
VERTEX
  8
0
 10
1845.6754
 20
1321.4661
 30
0.0000
  0
VERTEX
  8
0
 10
1845.3132
 20
1322.1581
 30
0.0000
  0
VERTEX
  8
0
 10
1844.8186
 20
1322.8079
 30
0.0000
  0
VERTEX
  8
0
 10
1844.2013
 20
1323.4028
 30
0.0000
  0
VERTEX
  8
0
 10
1843.4732
 20
1323.9314
 30
0.0000
  0
VERTEX
  8
0
 10
1842.6484
 20
1324.3834
 30
0.0000
  0
VERTEX
  8
0
 10
1841.7429
 20
1324.7501
 30
0.0000
  0
VERTEX
  8
0
 10
1840.6495
 20
1325.0518
 30
0.0000
  0
VERTEX
  8
0
 10
1839.5029
 20
1325.2293
 30
0.0000
  0
VERTEX
  8
0
 10
1838.3312
 20
1325.2781
 30
0.0000
  0
VERTEX
  8
0
 10
1837.1631
 20
1325.1970
 30
0.0000
  0
VERTEX
  8
0
 10
1836.0272
 20
1324.9880
 30
0.0000
  0
VERTEX
  8
0
 10
1835.0670
 20
1324.6990
 30
0.0000
  0
VERTEX
  8
0
 10
1834.1729
 20
1324.3185
 30
0.0000
  0
VERTEX
  8
0
 10
1833.3621
 20
1323.8540
 30
0.0000
  0
VERTEX
  8
0
 10
1833.1743
 20
1323.7258
 30
0.0000
  0
SEQEND
  0
POLYLINE
  6
continous
  8
BYBLOCK
 70
0
 66
1
  0
VERTEX
  8
0
 10
1776.6058
 20
1283.7258
 30
0.0000
  0
VERTEX
  8
0
 10
1775.9249
 20
1283.1726
 30
0.0000
  0
VERTEX
  8
0
 10
1775.3584
 20
1282.5583
 30
0.0000
  0
VERTEX
  8
0
 10
1774.9172
 20
1281.8946
 30
0.0000
  0
VERTEX
  8
0
 10
1774.6097
 20
1281.1942
 30
0.0000
  0
VERTEX
  8
0
 10
1774.4418
 20
1280.4705
 30
0.0000
  0
VERTEX
  8
0
 10
1774.4093
 20
1280.0125
 30
0.0000
  0
SEQEND
  0
LINE
  6
continous
  8
BYBLOCK
 10
1776.6058
 20
1283.7258
 30
0.0000
 11
1776.6058
 21
1283.7965
 31
0.0000
  0
POLYLINE
  6
continous
  8
BYBLOCK
 70
0
 66
1
  0
VERTEX
  8
0
 10
1789.4089
 20
1280.0095
 30
0.0000
  0
VERTEX
  8
0
 10
1789.3297
 20
1280.7452
 30
0.0000
  0
VERTEX
  8
0
 10
1789.1069
 20
1281.4661
 30
0.0000
  0
VERTEX
  8
0
 10
1788.7446
 20
1282.1581
 30
0.0000
  0
VERTEX
  8
0
 10
1788.2501
 20
1282.8079
 30
0.0000
  0
VERTEX
  8
0
 10
1787.6328
 20
1283.4028
 30
0.0000
  0
VERTEX
  8
0
 10
1786.9047
 20
1283.9314
 30
0.0000
  0
VERTEX
  8
0
 10
1786.0799
 20
1284.3834
 30
0.0000
  0
VERTEX
  8
0
 10
1785.1743
 20
1284.7501
 30
0.0000
  0
VERTEX
  8
0
 10
1784.0809
 20
1285.0518
 30
0.0000
  0
VERTEX
  8
0
 10
1782.9344
 20
1285.2293
 30
0.0000
  0
VERTEX
  8
0
 10
1781.7627
 20
1285.2781
 30
0.0000
  0
VERTEX
  8
0
 10
1780.5946
 20
1285.1970
 30
0.0000
  0
VERTEX
  8
0
 10
1779.4586
 20
1284.9880
 30
0.0000
  0
VERTEX
  8
0
 10
1778.4985
 20
1284.6990
 30
0.0000
  0
VERTEX
  8
0
 10
1777.6044
 20
1284.3185
 30
0.0000
  0
VERTEX
  8
0
 10
1776.7936
 20
1283.8540
 30
0.0000
  0
VERTEX
  8
0
 10
1776.6058
 20
1283.7258
 30
0.0000
  0
SEQEND
  0
POLYLINE
  6
continous
  8
BYBLOCK
 70
0
 66
1
  0
VERTEX
  8
0
 10
1720.0372
 20
1243.7258
 30
0.0000
  0
VERTEX
  8
0
 10
1719.3563
 20
1243.1726
 30
0.0000
  0
VERTEX
  8
0
 10
1718.7899
 20
1242.5583
 30
0.0000
  0
VERTEX
  8
0
 10
1718.3487
 20
1241.8946
 30
0.0000
  0
VERTEX
  8
0
 10
1718.0412
 20
1241.1942
 30
0.0000
  0
VERTEX
  8
0
 10
1717.8733
 20
1240.4705
 30
0.0000
  0
VERTEX
  8
0
 10
1717.8407
 20
1240.0125
 30
0.0000
  0
SEQEND
  0
LINE
  6
continous
  8
BYBLOCK
 10
1720.0372
 20
1243.7258
 30
0.0000
 11
1720.0372
 21
1243.7965
 31
0.0000
  0
POLYLINE
  6
continous
  8
BYBLOCK
 70
0
 66
1
  0
VERTEX
  8
0
 10
1732.8404
 20
1240.0095
 30
0.0000
  0
VERTEX
  8
0
 10
1732.7612
 20
1240.7452
 30
0.0000
  0
VERTEX
  8
0
 10
1732.5383
 20
1241.4661
 30
0.0000
  0
VERTEX
  8
0
 10
1732.1761
 20
1242.1581
 30
0.0000
  0
VERTEX
  8
0
 10
1731.6816
 20
1242.8079
 30
0.0000
  0
VERTEX
  8
0
 10
1731.0643
 20
1243.4028
 30
0.0000
  0
VERTEX
  8
0
 10
1730.3362
 20
1243.9314
 30
0.0000
  0
VERTEX
  8
0
 10
1729.5113
 20
1244.3834
 30
0.0000
  0
VERTEX
  8
0
 10
1728.6058
 20
1244.7501
 30
0.0000
  0
VERTEX
  8
0
 10
1727.5124
 20
1245.0518
 30
0.0000
  0
VERTEX
  8
0
 10
1726.3658
 20
1245.2293
 30
0.0000
  0
VERTEX
  8
0
 10
1725.1941
 20
1245.2781
 30
0.0000
  0
VERTEX
  8
0
 10
1724.0260
 20
1245.1970
 30
0.0000
  0
VERTEX
  8
0
 10
1722.8901
 20
1244.9880
 30
0.0000
  0
VERTEX
  8
0
 10
1721.9300
 20
1244.6990
 30
0.0000
  0
VERTEX
  8
0
 10
1721.0358
 20
1244.3185
 30
0.0000
  0
VERTEX
  8
0
 10
1720.2250
 20
1243.8540
 30
0.0000
  0
VERTEX
  8
0
 10
1720.0372
 20
1243.7258
 30
0.0000
  0
SEQEND
  0
POLYLINE
  6
continous
  8
BYBLOCK
 70
0
 66
1
  0
VERTEX
  8
0
 10
1663.4687
 20
1203.7258
 30
0.0000
  0
VERTEX
  8
0
 10
1662.7878
 20
1203.1726
 30
0.0000
  0
VERTEX
  8
0
 10
1662.2213
 20
1202.5583
 30
0.0000
  0
VERTEX
  8
0
 10
1661.7801
 20
1201.8946
 30
0.0000
  0
VERTEX
  8
0
 10
1661.4726
 20
1201.1942
 30
0.0000
  0
VERTEX
  8
0
 10
1661.3047
 20
1200.4705
 30
0.0000
  0
VERTEX
  8
0
 10
1661.2722
 20
1200.0125
 30
0.0000
  0
SEQEND
  0
LINE
  6
continous
  8
BYBLOCK
 10
1663.4687
 20
1203.7258
 30
0.0000
 11
1663.4687
 21
1203.7965
 31
0.0000
  0
POLYLINE
  6
continous
  8
BYBLOCK
 70
0
 66
1
  0
VERTEX
  8
0
 10
1676.2719
 20
1200.0095
 30
0.0000
  0
VERTEX
  8
0
 10
1676.1926
 20
1200.7452
 30
0.0000
  0
VERTEX
  8
0
 10
1675.9698
 20
1201.4661
 30
0.0000
  0
VERTEX
  8
0
 10
1675.6076
 20
1202.1581
 30
0.0000
  0
VERTEX
  8
0
 10
1675.1130
 20
1202.8079
 30
0.0000
  0
VERTEX
  8
0
 10
1674.4957
 20
1203.4028
 30
0.0000
  0
VERTEX
  8
0
 10
1673.7676
 20
1203.9314
 30
0.0000
  0
VERTEX
  8
0
 10
1672.9428
 20
1204.3834
 30
0.0000
  0
VERTEX
  8
0
 10
1672.0372
 20
1204.7501
 30
0.0000
  0
VERTEX
  8
0
 10
1670.9438
 20
1205.0518
 30
0.0000
  0
VERTEX
  8
0
 10
1669.7973
 20
1205.2293
 30
0.0000
  0
VERTEX
  8
0
 10
1668.6256
 20
1205.2781
 30
0.0000
  0
VERTEX
  8
0
 10
1667.4575
 20
1205.1970
 30
0.0000
  0
VERTEX
  8
0
 10
1666.3216
 20
1204.9880
 30
0.0000
  0
VERTEX
  8
0
 10
1665.3614
 20
1204.6990
 30
0.0000
  0
VERTEX
  8
0
 10
1664.4673
 20
1204.3185
 30
0.0000
  0
VERTEX
  8
0
 10
1663.6565
 20
1203.8540
 30
0.0000
  0
VERTEX
  8
0
 10
1663.4687
 20
1203.7258
 30
0.0000
  0
SEQEND
  0
POLYLINE
  6
continous
  8
BYBLOCK
 70
0
 66
1
  0
VERTEX
  8
0
 10
1606.9002
 20
1163.7258
 30
0.0000
  0
VERTEX
  8
0
 10
1606.2193
 20
1163.1726
 30
0.0000
  0
VERTEX
  8
0
 10
1605.6528
 20
1162.5583
 30
0.0000
  0
VERTEX
  8
0
 10
1605.2116
 20
1161.8946
 30
0.0000
  0
VERTEX
  8
0
 10
1604.9041
 20
1161.1942
 30
0.0000
  0
VERTEX
  8
0
 10
1604.7362
 20
1160.4705
 30
0.0000
  0
VERTEX
  8
0
 10
1604.7036
 20
1160.0125
 30
0.0000
  0
SEQEND
  0
LINE
  6
continous
  8
BYBLOCK
 10
1606.9002
 20
1163.7258
 30
0.0000
 11
1606.9002
 21
1163.7965
 31
0.0000
  0
POLYLINE
  6
continous
  8
BYBLOCK
 70
0
 66
1
  0
VERTEX
  8
0
 10
1619.7033
 20
1160.0095
 30
0.0000
  0
VERTEX
  8
0
 10
1619.6241
 20
1160.7452
 30
0.0000
  0
VERTEX
  8
0
 10
1619.4012
 20
1161.4661
 30
0.0000
  0
VERTEX
  8
0
 10
1619.0390
 20
1162.1581
 30
0.0000
  0
VERTEX
  8
0
 10
1618.5445
 20
1162.8079
 30
0.0000
  0
VERTEX
  8
0
 10
1617.9272
 20
1163.4028
 30
0.0000
  0
VERTEX
  8
0
 10
1617.1991
 20
1163.9314
 30
0.0000
  0
VERTEX
  8
0
 10
1616.3743
 20
1164.3834
 30
0.0000
  0
VERTEX
  8
0
 10
1615.4687
 20
1164.7501
 30
0.0000
  0
VERTEX
  8
0
 10
1614.3753
 20
1165.0518
 30
0.0000
  0
VERTEX
  8
0
 10
1613.2287
 20
1165.2293
 30
0.0000
  0
VERTEX
  8
0
 10
1612.0570
 20
1165.2781
 30
0.0000
  0
VERTEX
  8
0
 10
1610.8889
 20
1165.1970
 30
0.0000
  0
VERTEX
  8
0
 10
1609.7530
 20
1164.9880
 30
0.0000
  0
VERTEX
  8
0
 10
1608.7929
 20
1164.6990
 30
0.0000
  0
VERTEX
  8
0
 10
1607.8987
 20
1164.3185
 30
0.0000
  0
VERTEX
  8
0
 10
1607.0880
 20
1163.8540
 30
0.0000
  0
VERTEX
  8
0
 10
1606.9002
 20
1163.7258
 30
0.0000
  0
SEQEND
  0
POLYLINE
  6
continous
  8
BYBLOCK
 70
0
 66
1
  0
VERTEX
  8
0
 10
1550.3316
 20
1123.7258
 30
0.0000
  0
VERTEX
  8
0
 10
1549.6507
 20
1123.1726
 30
0.0000
  0
VERTEX
  8
0
 10
1549.0842
 20
1122.5583
 30
0.0000
  0
VERTEX
  8
0
 10
1548.6430
 20
1121.8946
 30
0.0000
  0
VERTEX
  8
0
 10
1548.3355
 20
1121.1942
 30
0.0000
  0
VERTEX
  8
0
 10
1548.1676
 20
1120.4705
 30
0.0000
  0
VERTEX
  8
0
 10
1548.1351
 20
1120.0125
 30
0.0000
  0
SEQEND
  0
LINE
  6
continous
  8
BYBLOCK
 10
1550.3316
 20
1123.7258
 30
0.0000
 11
1550.3316
 21
1123.7965
 31
0.0000
  0
POLYLINE
  6
continous
  8
BYBLOCK
 70
0
 66
1
  0
VERTEX
  8
0
 10
1563.1348
 20
1120.0095
 30
0.0000
  0
VERTEX
  8
0
 10
1563.0556
 20
1120.7452
 30
0.0000
  0
VERTEX
  8
0
 10
1562.8327
 20
1121.4661
 30
0.0000
  0
VERTEX
  8
0
 10
1562.4705
 20
1122.1581
 30
0.0000
  0
VERTEX
  8
0
 10
1561.9759
 20
1122.8079
 30
0.0000
  0
VERTEX
  8
0
 10
1561.3586
 20
1123.4028
 30
0.0000
  0
VERTEX
  8
0
 10
1560.6305
 20
1123.9314
 30
0.0000
  0
VERTEX
  8
0
 10
1559.8057
 20
1124.3834
 30
0.0000
  0
VERTEX
  8
0
 10
1558.9002
 20
1124.7501
 30
0.0000
  0
VERTEX
  8
0
 10
1557.8068
 20
1125.0518
 30
0.0000
  0
VERTEX
  8
0
 10
1556.6602
 20
1125.2293
 30
0.0000
  0
VERTEX
  8
0
 10
1555.4885
 20
1125.2781
 30
0.0000
  0
VERTEX
  8
0
 10
1554.3204
 20
1125.1970
 30
0.0000
  0
VERTEX
  8
0
 10
1553.1845
 20
1124.9880
 30
0.0000
  0
VERTEX
  8
0
 10
1552.2243
 20
1124.6990
 30
0.0000
  0
VERTEX
  8
0
 10
1551.3302
 20
1124.3185
 30
0.0000
  0
VERTEX
  8
0
 10
1550.5194
 20
1123.8540
 30
0.0000
  0
VERTEX
  8
0
 10
1550.3316
 20
1123.7258
 30
0.0000
  0
SEQEND
  0
POLYLINE
  6
continous
  8
BYBLOCK
 70
0
 66
1
  0
VERTEX
  8
0
 10
1493.7631
 20
1083.7258
 30
0.0000
  0
VERTEX
  8
0
 10
1493.0822
 20
1083.1726
 30
0.0000
  0
VERTEX
  8
0
 10
1492.5157
 20
1082.5583
 30
0.0000
  0
VERTEX
  8
0
 10
1492.0745
 20
1081.8946
 30
0.0000
  0
VERTEX
  8
0
 10
1491.7670
 20
1081.1942
 30
0.0000
  0
VERTEX
  8
0
 10
1491.5991
 20
1080.4705
 30
0.0000
  0
VERTEX
  8
0
 10
1491.5666
 20
1080.0125
 30
0.0000
  0
SEQEND
  0
LINE
  6
continous
  8
BYBLOCK
 10
1493.7631
 20
1083.7258
 30
0.0000
 11
1493.7631
 21
1083.7965
 31
0.0000
  0
POLYLINE
  6
continous
  8
BYBLOCK
 70
0
 66
1
  0
VERTEX
  8
0
 10
1506.5662
 20
1080.0095
 30
0.0000
  0
VERTEX
  8
0
 10
1506.4870
 20
1080.7452
 30
0.0000
  0
VERTEX
  8
0
 10
1506.2641
 20
1081.4661
 30
0.0000
  0
VERTEX
  8
0
 10
1505.9019
 20
1082.1581
 30
0.0000
  0
VERTEX
  8
0
 10
1505.4074
 20
1082.8079
 30
0.0000
  0
VERTEX
  8
0
 10
1504.7901
 20
1083.4028
 30
0.0000
  0
VERTEX
  8
0
 10
1504.0620
 20
1083.9314
 30
0.0000
  0
VERTEX
  8
0
 10
1503.2372
 20
1084.3834
 30
0.0000
  0
VERTEX
  8
0
 10
1502.3316
 20
1084.7501
 30
0.0000
  0
VERTEX
  8
0
 10
1501.2382
 20
1085.0518
 30
0.0000
  0
VERTEX
  8
0
 10
1500.0916
 20
1085.2293
 30
0.0000
  0
VERTEX
  8
0
 10
1498.9199
 20
1085.2781
 30
0.0000
  0
VERTEX
  8
0
 10
1497.7518
 20
1085.1970
 30
0.0000
  0
VERTEX
  8
0
 10
1496.6159
 20
1084.9880
 30
0.0000
  0
VERTEX
  8
0
 10
1495.6558
 20
1084.6990
 30
0.0000
  0
VERTEX
  8
0
 10
1494.7617
 20
1084.3185
 30
0.0000
  0
VERTEX
  8
0
 10
1493.9509
 20
1083.8540
 30
0.0000
  0
VERTEX
  8
0
 10
1493.7631
 20
1083.7258
 30
0.0000
  0
SEQEND
  0
POLYLINE
  6
continous
  8
BYBLOCK
 70
0
 66
1
  0
VERTEX
  8
0
 10
1437.1945
 20
1043.7258
 30
0.0000
  0
VERTEX
  8
0
 10
1436.5136
 20
1043.1726
 30
0.0000
  0
VERTEX
  8
0
 10
1435.9472
 20
1042.5583
 30
0.0000
  0
VERTEX
  8
0
 10
1435.5060
 20
1041.8946
 30
0.0000
  0
VERTEX
  8
0
 10
1435.1985
 20
1041.1942
 30
0.0000
  0
VERTEX
  8
0
 10
1435.0305
 20
1040.4705
 30
0.0000
  0
VERTEX
  8
0
 10
1434.9980
 20
1040.0125
 30
0.0000
  0
SEQEND
  0
LINE
  6
continous
  8
BYBLOCK
 10
1437.1945
 20
1043.7258
 30
0.0000
 11
1437.1945
 21
1043.7965
 31
0.0000
  0
POLYLINE
  6
continous
  8
BYBLOCK
 70
0
 66
1
  0
VERTEX
  8
0
 10
1449.9977
 20
1040.0095
 30
0.0000
  0
VERTEX
  8
0
 10
1449.9185
 20
1040.7452
 30
0.0000
  0
VERTEX
  8
0
 10
1449.6956
 20
1041.4661
 30
0.0000
  0
VERTEX
  8
0
 10
1449.3334
 20
1042.1581
 30
0.0000
  0
VERTEX
  8
0
 10
1448.8388
 20
1042.8079
 30
0.0000
  0
VERTEX
  8
0
 10
1448.2215
 20
1043.4028
 30
0.0000
  0
VERTEX
  8
0
 10
1447.4934
 20
1043.9314
 30
0.0000
  0
VERTEX
  8
0
 10
1446.6686
 20
1044.3834
 30
0.0000
  0
VERTEX
  8
0
 10
1445.7631
 20
1044.7501
 30
0.0000
  0
VERTEX
  8
0
 10
1444.6697
 20
1045.0518
 30
0.0000
  0
VERTEX
  8
0
 10
1443.5231
 20
1045.2293
 30
0.0000
  0
VERTEX
  8
0
 10
1442.3514
 20
1045.2781
 30
0.0000
  0
VERTEX
  8
0
 10
1441.1833
 20
1045.1970
 30
0.0000
  0
VERTEX
  8
0
 10
1440.0474
 20
1044.9880
 30
0.0000
  0
VERTEX
  8
0
 10
1439.0872
 20
1044.6990
 30
0.0000
  0
VERTEX
  8
0
 10
1438.1931
 20
1044.3185
 30
0.0000
  0
VERTEX
  8
0
 10
1437.3823
 20
1043.8540
 30
0.0000
  0
VERTEX
  8
0
 10
1437.1945
 20
1043.7258
 30
0.0000
  0
SEQEND
  0
POLYLINE
  6
continous
  8
BYBLOCK
 70
0
 66
1
  0
VERTEX
  8
0
 10
1380.6260
 20
1003.7258
 30
0.0000
  0
VERTEX
  8
0
 10
1379.9451
 20
1003.1726
 30
0.0000
  0
VERTEX
  8
0
 10
1379.3786
 20
1002.5583
 30
0.0000
  0
VERTEX
  8
0
 10
1378.9374
 20
1001.8946
 30
0.0000
  0
VERTEX
  8
0
 10
1378.6299
 20
1001.1942
 30
0.0000
  0
VERTEX
  8
0
 10
1378.4620
 20
1000.4705
 30
0.0000
  0
VERTEX
  8
0
 10
1378.4295
 20
1000.0125
 30
0.0000
  0
SEQEND
  0
LINE
  6
continous
  8
BYBLOCK
 10
1380.6260
 20
1003.7258
 30
0.0000
 11
1380.6260
 21
1003.7965
 31
0.0000
  0
POLYLINE
  6
continous
  8
BYBLOCK
 70
0
 66
1
  0
VERTEX
  8
0
 10
1393.4291
 20
1000.0095
 30
0.0000
  0
VERTEX
  8
0
 10
1393.3499
 20
1000.7452
 30
0.0000
  0
VERTEX
  8
0
 10
1393.1271
 20
1001.4661
 30
0.0000
  0
VERTEX
  8
0
 10
1392.7648
 20
1002.1581
 30
0.0000
  0
VERTEX
  8
0
 10
1392.2703
 20
1002.8079
 30
0.0000
  0
VERTEX
  8
0
 10
1391.6530
 20
1003.4028
 30
0.0000
  0
VERTEX
  8
0
 10
1390.9249
 20
1003.9314
 30
0.0000
  0
VERTEX
  8
0
 10
1390.1001
 20
1004.3834
 30
0.0000
  0
VERTEX
  8
0
 10
1389.1945
 20
1004.7501
 30
0.0000
  0
VERTEX
  8
0
 10
1388.1011
 20
1005.0518
 30
0.0000
  0
VERTEX
  8
0
 10
1386.9546
 20
1005.2293
 30
0.0000
  0
VERTEX
  8
0
 10
1385.7829
 20
1005.2781
 30
0.0000
  0
VERTEX
  8
0
 10
1384.6148
 20
1005.1970
 30
0.0000
  0
VERTEX
  8
0
 10
1383.4789
 20
1004.9880
 30
0.0000
  0
VERTEX
  8
0
 10
1382.5187
 20
1004.6990
 30
0.0000
  0
VERTEX
  8
0
 10
1381.6246
 20
1004.3185
 30
0.0000
  0
VERTEX
  8
0
 10
1380.8138
 20
1003.8540
 30
0.0000
  0
VERTEX
  8
0
 10
1380.6260
 20
1003.7258
 30
0.0000
  0
SEQEND
  0
POLYLINE
  6
continous
  8
BYBLOCK
 70
0
 66
1
  0
VERTEX
  8
0
 10
1324.0574
 20
963.7258
 30
0.0000
  0
VERTEX
  8
0
 10
1323.3765
 20
963.1726
 30
0.0000
  0
VERTEX
  8
0
 10
1322.8101
 20
962.5583
 30
0.0000
  0
VERTEX
  8
0
 10
1322.3689
 20
961.8946
 30
0.0000
  0
VERTEX
  8
0
 10
1322.0614
 20
961.1942
 30
0.0000
  0
VERTEX
  8
0
 10
1321.8935
 20
960.4705
 30
0.0000
  0
VERTEX
  8
0
 10
1321.8609
 20
960.0125
 30
0.0000
  0
SEQEND
  0
LINE
  6
continous
  8
BYBLOCK
 10
1324.0574
 20
963.7258
 30
0.0000
 11
1324.0574
 21
963.7965
 31
0.0000
  0
POLYLINE
  6
continous
  8
BYBLOCK
 70
0
 66
1
  0
VERTEX
  8
0
 10
1336.8606
 20
960.0095
 30
0.0000
  0
VERTEX
  8
0
 10
1336.7814
 20
960.7452
 30
0.0000
  0
VERTEX
  8
0
 10
1336.5585
 20
961.4661
 30
0.0000
  0
VERTEX
  8
0
 10
1336.1963
 20
962.1581
 30
0.0000
  0
VERTEX
  8
0
 10
1335.7018
 20
962.8079
 30
0.0000
  0
VERTEX
  8
0
 10
1335.0845
 20
963.4028
 30
0.0000
  0
VERTEX
  8
0
 10
1334.3564
 20
963.9314
 30
0.0000
  0
VERTEX
  8
0
 10
1333.5315
 20
964.3834
 30
0.0000
  0
VERTEX
  8
0
 10
1332.6260
 20
964.7501
 30
0.0000
  0
VERTEX
  8
0
 10
1331.5326
 20
965.0518
 30
0.0000
  0
VERTEX
  8
0
 10
1330.3860
 20
965.2293
 30
0.0000
  0
VERTEX
  8
0
 10
1329.2143
 20
965.2781
 30
0.0000
  0
VERTEX
  8
0
 10
1328.0462
 20
965.1970
 30
0.0000
  0
VERTEX
  8
0
 10
1326.9103
 20
964.9880
 30
0.0000
  0
VERTEX
  8
0
 10
1325.9502
 20
964.6990
 30
0.0000
  0
VERTEX
  8
0
 10
1325.0560
 20
964.3185
 30
0.0000
  0
VERTEX
  8
0
 10
1324.2452
 20
963.8540
 30
0.0000
  0
VERTEX
  8
0
 10
1324.0574
 20
963.7258
 30
0.0000
  0
SEQEND
  0
POLYLINE
  6
continous
  8
BYBLOCK
 70
0
 66
1
  0
VERTEX
  8
0
 10
1267.4889
 20
923.7258
 30
0.0000
  0
VERTEX
  8
0
 10
1266.8080
 20
923.1726
 30
0.0000
  0
VERTEX
  8
0
 10
1266.2415
 20
922.5583
 30
0.0000
  0
VERTEX
  8
0
 10
1265.8003
 20
921.8946
 30
0.0000
  0
VERTEX
  8
0
 10
1265.4928
 20
921.1942
 30
0.0000
  0
VERTEX
  8
0
 10
1265.3249
 20
920.4705
 30
0.0000
  0
VERTEX
  8
0
 10
1265.2924
 20
920.0125
 30
0.0000
  0
SEQEND
  0
LINE
  6
continous
  8
BYBLOCK
 10
1267.4889
 20
923.7258
 30
0.0000
 11
1267.4889
 21
923.7965
 31
0.0000
  0
POLYLINE
  6
continous
  8
BYBLOCK
 70
0
 66
1
  0
VERTEX
  8
0
 10
1280.2921
 20
920.0095
 30
0.0000
  0
VERTEX
  8
0
 10
1280.2128
 20
920.7452
 30
0.0000
  0
VERTEX
  8
0
 10
1279.9900
 20
921.4661
 30
0.0000
  0
VERTEX
  8
0
 10
1279.6278
 20
922.1581
 30
0.0000
  0
VERTEX
  8
0
 10
1279.1332
 20
922.8079
 30
0.0000
  0
VERTEX
  8
0
 10
1278.5159
 20
923.4028
 30
0.0000
  0
VERTEX
  8
0
 10
1277.7878
 20
923.9314
 30
0.0000
  0
VERTEX
  8
0
 10
1276.9630
 20
924.3834
 30
0.0000
  0
VERTEX
  8
0
 10
1276.0574
 20
924.7501
 30
0.0000
  0
VERTEX
  8
0
 10
1274.9640
 20
925.0518
 30
0.0000
  0
VERTEX
  8
0
 10
1273.8175
 20
925.2293
 30
0.0000
  0
VERTEX
  8
0
 10
1272.6458
 20
925.2781
 30
0.0000
  0
VERTEX
  8
0
 10
1271.4777
 20
925.1970
 30
0.0000
  0
VERTEX
  8
0
 10
1270.3418
 20
924.9880
 30
0.0000
  0
VERTEX
  8
0
 10
1269.3816
 20
924.6990
 30
0.0000
  0
VERTEX
  8
0
 10
1268.4875
 20
924.3185
 30
0.0000
  0
VERTEX
  8
0
 10
1267.6767
 20
923.8540
 30
0.0000
  0
VERTEX
  8
0
 10
1267.4889
 20
923.7258
 30
0.0000
  0
SEQEND
  0
POLYLINE
  6
continous
  8
BYBLOCK
 70
0
 66
1
  0
VERTEX
  8
0
 10
1210.9204
 20
883.7258
 30
0.0000
  0
VERTEX
  8
0
 10
1210.2395
 20
883.1726
 30
0.0000
  0
VERTEX
  8
0
 10
1209.6730
 20
882.5583
 30
0.0000
  0
VERTEX
  8
0
 10
1209.2318
 20
881.8946
 30
0.0000
  0
VERTEX
  8
0
 10
1208.9243
 20
881.1942
 30
0.0000
  0
VERTEX
  8
0
 10
1208.7564
 20
880.4705
 30
0.0000
  0
VERTEX
  8
0
 10
1208.7238
 20
880.0125
 30
0.0000
  0
SEQEND
  0
LINE
  6
continous
  8
BYBLOCK
 10
1210.9204
 20
883.7258
 30
0.0000
 11
1210.9204
 21
883.7965
 31
0.0000
  0
POLYLINE
  6
continous
  8
BYBLOCK
 70
0
 66
1
  0
VERTEX
  8
0
 10
1223.7235
 20
880.0095
 30
0.0000
  0
VERTEX
  8
0
 10
1223.6443
 20
880.7452
 30
0.0000
  0
VERTEX
  8
0
 10
1223.4214
 20
881.4661
 30
0.0000
  0
VERTEX
  8
0
 10
1223.0592
 20
882.1581
 30
0.0000
  0
VERTEX
  8
0
 10
1222.5647
 20
882.8079
 30
0.0000
  0
VERTEX
  8
0
 10
1221.9474
 20
883.4028
 30
0.0000
  0
VERTEX
  8
0
 10
1221.2193
 20
883.9314
 30
0.0000
  0
VERTEX
  8
0
 10
1220.3945
 20
884.3834
 30
0.0000
  0
VERTEX
  8
0
 10
1219.4889
 20
884.7501
 30
0.0000
  0
VERTEX
  8
0
 10
1218.3955
 20
885.0518
 30
0.0000
  0
VERTEX
  8
0
 10
1217.2489
 20
885.2293
 30
0.0000
  0
VERTEX
  8
0
 10
1216.0772
 20
885.2781
 30
0.0000
  0
VERTEX
  8
0
 10
1214.9091
 20
885.1970
 30
0.0000
  0
VERTEX
  8
0
 10
1213.7732
 20
884.9880
 30
0.0000
  0
VERTEX
  8
0
 10
1212.8131
 20
884.6990
 30
0.0000
  0
VERTEX
  8
0
 10
1211.9189
 20
884.3185
 30
0.0000
  0
VERTEX
  8
0
 10
1211.1082
 20
883.8540
 30
0.0000
  0
VERTEX
  8
0
 10
1210.9204
 20
883.7258
 30
0.0000
  0
SEQEND
  0
POLYLINE
  6
continous
  8
BYBLOCK
 70
0
 66
1
  0
VERTEX
  8
0
 10
1154.3518
 20
843.7258
 30
0.0000
  0
VERTEX
  8
0
 10
1153.6709
 20
843.1726
 30
0.0000
  0
VERTEX
  8
0
 10
1153.1044
 20
842.5583
 30
0.0000
  0
VERTEX
  8
0
 10
1152.6632
 20
841.8946
 30
0.0000
  0
VERTEX
  8
0
 10
1152.3557
 20
841.1942
 30
0.0000
  0
VERTEX
  8
0
 10
1152.1878
 20
840.4705
 30
0.0000
  0
VERTEX
  8
0
 10
1152.1553
 20
840.0125
 30
0.0000
  0
SEQEND
  0
LINE
  6
continous
  8
BYBLOCK
 10
1154.3518
 20
843.7258
 30
0.0000
 11
1154.3518
 21
843.7965
 31
0.0000
  0
POLYLINE
  6
continous
  8
BYBLOCK
 70
0
 66
1
  0
VERTEX
  8
0
 10
1167.1550
 20
840.0095
 30
0.0000
  0
VERTEX
  8
0
 10
1167.0758
 20
840.7452
 30
0.0000
  0
VERTEX
  8
0
 10
1166.8529
 20
841.4661
 30
0.0000
  0
VERTEX
  8
0
 10
1166.4907
 20
842.1581
 30
0.0000
  0
VERTEX
  8
0
 10
1165.9961
 20
842.8079
 30
0.0000
  0
VERTEX
  8
0
 10
1165.3788
 20
843.4028
 30
0.0000
  0
VERTEX
  8
0
 10
1164.6507
 20
843.9314
 30
0.0000
  0
VERTEX
  8
0
 10
1163.8259
 20
844.3834
 30
0.0000
  0
VERTEX
  8
0
 10
1162.9204
 20
844.7501
 30
0.0000
  0
VERTEX
  8
0
 10
1161.8270
 20
845.0518
 30
0.0000
  0
VERTEX
  8
0
 10
1160.6804
 20
845.2293
 30
0.0000
  0
VERTEX
  8
0
 10
1159.5087
 20
845.2781
 30
0.0000
  0
VERTEX
  8
0
 10
1158.3406
 20
845.1970
 30
0.0000
  0
VERTEX
  8
0
 10
1157.2047
 20
844.9880
 30
0.0000
  0
VERTEX
  8
0
 10
1156.2445
 20
844.6990
 30
0.0000
  0
VERTEX
  8
0
 10
1155.3504
 20
844.3185
 30
0.0000
  0
VERTEX
  8
0
 10
1154.5396
 20
843.8540
 30
0.0000
  0
VERTEX
  8
0
 10
1154.3518
 20
843.7258
 30
0.0000
  0
SEQEND
  0
POLYLINE
  6
continous
  8
BYBLOCK
 70
0
 66
1
  0
VERTEX
  8
0
 10
1097.7833
 20
803.7258
 30
0.0000
  0
VERTEX
  8
0
 10
1097.1024
 20
803.1726
 30
0.0000
  0
VERTEX
  8
0
 10
1096.5359
 20
802.5583
 30
0.0000
  0
VERTEX
  8
0
 10
1096.0947
 20
801.8946
 30
0.0000
  0
VERTEX
  8
0
 10
1095.7872
 20
801.1942
 30
0.0000
  0
VERTEX
  8
0
 10
1095.6193
 20
800.4705
 30
0.0000
  0
VERTEX
  8
0
 10
1095.5868
 20
800.0125
 30
0.0000
  0
SEQEND
  0
LINE
  6
continous
  8
BYBLOCK
 10
1097.7833
 20
803.7258
 30
0.0000
 11
1097.7833
 21
803.7965
 31
0.0000
  0
POLYLINE
  6
continous
  8
BYBLOCK
 70
0
 66
1
  0
VERTEX
  8
0
 10
1110.5864
 20
800.0095
 30
0.0000
  0
VERTEX
  8
0
 10
1110.5072
 20
800.7452
 30
0.0000
  0
VERTEX
  8
0
 10
1110.2843
 20
801.4661
 30
0.0000
  0
VERTEX
  8
0
 10
1109.9221
 20
802.1581
 30
0.0000
  0
VERTEX
  8
0
 10
1109.4276
 20
802.8079
 30
0.0000
  0
VERTEX
  8
0
 10
1108.8103
 20
803.4028
 30
0.0000
  0
VERTEX
  8
0
 10
1108.0822
 20
803.9314
 30
0.0000
  0
VERTEX
  8
0
 10
1107.2574
 20
804.3834
 30
0.0000
  0
VERTEX
  8
0
 10
1106.3518
 20
804.7501
 30
0.0000
  0
VERTEX
  8
0
 10
1105.2584
 20
805.0518
 30
0.0000
  0
VERTEX
  8
0
 10
1104.1118
 20
805.2293
 30
0.0000
  0
VERTEX
  8
0
 10
1102.9402
 20
805.2781
 30
0.0000
  0
VERTEX
  8
0
 10
1101.7720
 20
805.1970
 30
0.0000
  0
VERTEX
  8
0
 10
1100.6361
 20
804.9880
 30
0.0000
  0
VERTEX
  8
0
 10
1099.6760
 20
804.6990
 30
0.0000
  0
VERTEX
  8
0
 10
1098.7819
 20
804.3185
 30
0.0000
  0
VERTEX
  8
0
 10
1097.9711
 20
803.8540
 30
0.0000
  0
VERTEX
  8
0
 10
1097.7833
 20
803.7258
 30
0.0000
  0
SEQEND
  0
POLYLINE
  6
continous
  8
BYBLOCK
 70
0
 66
1
  0
VERTEX
  8
0
 10
1041.2147
 20
763.7258
 30
0.0000
  0
VERTEX
  8
0
 10
1040.5338
 20
763.1726
 30
0.0000
  0
VERTEX
  8
0
 10
1039.9674
 20
762.5583
 30
0.0000
  0
VERTEX
  8
0
 10
1039.5262
 20
761.8946
 30
0.0000
  0
VERTEX
  8
0
 10
1039.2187
 20
761.1942
 30
0.0000
  0
VERTEX
  8
0
 10
1039.0507
 20
760.4705
 30
0.0000
  0
VERTEX
  8
0
 10
1039.0182
 20
760.0125
 30
0.0000
  0
SEQEND
  0
LINE
  6
continous
  8
BYBLOCK
 10
1041.2147
 20
763.7258
 30
0.0000
 11
1041.2147
 21
763.7965
 31
0.0000
  0
POLYLINE
  6
continous
  8
BYBLOCK
 70
0
 66
1
  0
VERTEX
  8
0
 10
1054.0179
 20
760.0095
 30
0.0000
  0
VERTEX
  8
0
 10
1053.9387
 20
760.7452
 30
0.0000
  0
VERTEX
  8
0
 10
1053.7158
 20
761.4661
 30
0.0000
  0
VERTEX
  8
0
 10
1053.3536
 20
762.1581
 30
0.0000
  0
VERTEX
  8
0
 10
1052.8590
 20
762.8079
 30
0.0000
  0
VERTEX
  8
0
 10
1052.2418
 20
763.4028
 30
0.0000
  0
VERTEX
  8
0
 10
1051.5136
 20
763.9314
 30
0.0000
  0
VERTEX
  8
0
 10
1050.6888
 20
764.3834
 30
0.0000
  0
VERTEX
  8
0
 10
1049.7833
 20
764.7501
 30
0.0000
  0
VERTEX
  8
0
 10
1048.6899
 20
765.0518
 30
0.0000
  0
VERTEX
  8
0
 10
1047.5433
 20
765.2293
 30
0.0000
  0
VERTEX
  8
0
 10
1046.3716
 20
765.2781
 30
0.0000
  0
VERTEX
  8
0
 10
1045.2035
 20
765.1970
 30
0.0000
  0
VERTEX
  8
0
 10
1044.0676
 20
764.9880
 30
0.0000
  0
VERTEX
  8
0
 10
1043.1074
 20
764.6990
 30
0.0000
  0
VERTEX
  8
0
 10
1042.2133
 20
764.3185
 30
0.0000
  0
VERTEX
  8
0
 10
1041.4025
 20
763.8540
 30
0.0000
  0
VERTEX
  8
0
 10
1041.2147
 20
763.7258
 30
0.0000
  0
SEQEND
  0
POLYLINE
  6
continous
  8
BYBLOCK
 70
0
 66
1
  0
VERTEX
  8
0
 10
984.6462
 20
723.7258
 30
0.0000
  0
VERTEX
  8
0
 10
983.9653
 20
723.1726
 30
0.0000
  0
VERTEX
  8
0
 10
983.3988
 20
722.5583
 30
0.0000
  0
VERTEX
  8
0
 10
982.9576
 20
721.8946
 30
0.0000
  0
VERTEX
  8
0
 10
982.6501
 20
721.1942
 30
0.0000
  0
VERTEX
  8
0
 10
982.4822
 20
720.4705
 30
0.0000
  0
VERTEX
  8
0
 10
982.4497
 20
720.0125
 30
0.0000
  0
SEQEND
  0
LINE
  6
continous
  8
BYBLOCK
 10
984.6462
 20
723.7258
 30
0.0000
 11
984.6462
 21
723.7965
 31
0.0000
  0
POLYLINE
  6
continous
  8
BYBLOCK
 70
0
 66
1
  0
VERTEX
  8
0
 10
997.4493
 20
720.0095
 30
0.0000
  0
VERTEX
  8
0
 10
997.3701
 20
720.7452
 30
0.0000
  0
VERTEX
  8
0
 10
997.1473
 20
721.4661
 30
0.0000
  0
VERTEX
  8
0
 10
996.7850
 20
722.1581
 30
0.0000
  0
VERTEX
  8
0
 10
996.2905
 20
722.8079
 30
0.0000
  0
VERTEX
  8
0
 10
995.6732
 20
723.4028
 30
0.0000
  0
VERTEX
  8
0
 10
994.9451
 20
723.9314
 30
0.0000
  0
VERTEX
  8
0
 10
994.1203
 20
724.3834
 30
0.0000
  0
VERTEX
  8
0
 10
993.2147
 20
724.7501
 30
0.0000
  0
VERTEX
  8
0
 10
992.1213
 20
725.0518
 30
0.0000
  0
VERTEX
  8
0
 10
990.9748
 20
725.2293
 30
0.0000
  0
VERTEX
  8
0
 10
989.8031
 20
725.2781
 30
0.0000
  0
VERTEX
  8
0
 10
988.6350
 20
725.1970
 30
0.0000
  0
VERTEX
  8
0
 10
987.4991
 20
724.9880
 30
0.0000
  0
VERTEX
  8
0
 10
986.5389
 20
724.6990
 30
0.0000
  0
VERTEX
  8
0
 10
985.6448
 20
724.3185
 30
0.0000
  0
VERTEX
  8
0
 10
984.8340
 20
723.8540
 30
0.0000
  0
VERTEX
  8
0
 10
984.6462
 20
723.7258
 30
0.0000
  0
SEQEND
  0
POLYLINE
  6
continous
  8
BYBLOCK
 70
0
 66
1
  0
VERTEX
  8
0
 10
928.0777
 20
683.7258
 30
0.0000
  0
VERTEX
  8
0
 10
927.3967
 20
683.1726
 30
0.0000
  0
VERTEX
  8
0
 10
926.8303
 20
682.5583
 30
0.0000
  0
VERTEX
  8
0
 10
926.3891
 20
681.8946
 30
0.0000
  0
VERTEX
  8
0
 10
926.0816
 20
681.1942
 30
0.0000
  0
VERTEX
  8
0
 10
925.9137
 20
680.4705
 30
0.0000
  0
VERTEX
  8
0
 10
925.8811
 20
680.0125
 30
0.0000
  0
SEQEND
  0
LINE
  6
continous
  8
BYBLOCK
 10
928.0777
 20
683.7258
 30
0.0000
 11
928.0777
 21
683.7965
 31
0.0000
  0
POLYLINE
  6
continous
  8
BYBLOCK
 70
0
 66
1
  0
VERTEX
  8
0
 10
940.8808
 20
680.0095
 30
0.0000
  0
VERTEX
  8
0
 10
940.8016
 20
680.7452
 30
0.0000
  0
VERTEX
  8
0
 10
940.5787
 20
681.4661
 30
0.0000
  0
VERTEX
  8
0
 10
940.2165
 20
682.1581
 30
0.0000
  0
VERTEX
  8
0
 10
939.7220
 20
682.8079
 30
0.0000
  0
VERTEX
  8
0
 10
939.1047
 20
683.4028
 30
0.0000
  0
VERTEX
  8
0
 10
938.3766
 20
683.9314
 30
0.0000
  0
VERTEX
  8
0
 10
937.5517
 20
684.3834
 30
0.0000
  0
VERTEX
  8
0
 10
936.6462
 20
684.7501
 30
0.0000
  0
VERTEX
  8
0
 10
935.5528
 20
685.0518
 30
0.0000
  0
VERTEX
  8
0
 10
934.4062
 20
685.2293
 30
0.0000
  0
VERTEX
  8
0
 10
933.2345
 20
685.2781
 30
0.0000
  0
VERTEX
  8
0
 10
932.0664
 20
685.1970
 30
0.0000
  0
VERTEX
  8
0
 10
930.9305
 20
684.9880
 30
0.0000
  0
VERTEX
  8
0
 10
929.9704
 20
684.6990
 30
0.0000
  0
VERTEX
  8
0
 10
929.0762
 20
684.3185
 30
0.0000
  0
VERTEX
  8
0
 10
928.2654
 20
683.8540
 30
0.0000
  0
VERTEX
  8
0
 10
928.0777
 20
683.7258
 30
0.0000
  0
SEQEND
  0
POLYLINE
  6
continous
  8
BYBLOCK
 70
0
 66
1
  0
VERTEX
  8
0
 10
871.5091
 20
643.7258
 30
0.0000
  0
VERTEX
  8
0
 10
870.8282
 20
643.1726
 30
0.0000
  0
VERTEX
  8
0
 10
870.2617
 20
642.5583
 30
0.0000
  0
VERTEX
  8
0
 10
869.8205
 20
641.8946
 30
0.0000
  0
VERTEX
  8
0
 10
869.5130
 20
641.1942
 30
0.0000
  0
VERTEX
  8
0
 10
869.3451
 20
640.4705
 30
0.0000
  0
VERTEX
  8
0
 10
869.3126
 20
640.0125
 30
0.0000
  0
SEQEND
  0
LINE
  6
continous
  8
BYBLOCK
 10
871.5091
 20
643.7258
 30
0.0000
 11
871.5091
 21
643.7965
 31
0.0000
  0
POLYLINE
  6
continous
  8
BYBLOCK
 70
0
 66
1
  0
VERTEX
  8
0
 10
884.3123
 20
640.0095
 30
0.0000
  0
VERTEX
  8
0
 10
884.2330
 20
640.7452
 30
0.0000
  0
VERTEX
  8
0
 10
884.0102
 20
641.4661
 30
0.0000
  0
VERTEX
  8
0
 10
883.6480
 20
642.1581
 30
0.0000
  0
VERTEX
  8
0
 10
883.1534
 20
642.8079
 30
0.0000
  0
VERTEX
  8
0
 10
882.5361
 20
643.4028
 30
0.0000
  0
VERTEX
  8
0
 10
881.8080
 20
643.9314
 30
0.0000
  0
VERTEX
  8
0
 10
880.9832
 20
644.3834
 30
0.0000
  0
VERTEX
  8
0
 10
880.0776
 20
644.7501
 30
0.0000
  0
VERTEX
  8
0
 10
878.9843
 20
645.0518
 30
0.0000
  0
VERTEX
  8
0
 10
877.8377
 20
645.2293
 30
0.0000
  0
VERTEX
  8
0
 10
876.6660
 20
645.2781
 30
0.0000
  0
VERTEX
  8
0
 10
875.4979
 20
645.1970
 30
0.0000
  0
VERTEX
  8
0
 10
874.3620
 20
644.9880
 30
0.0000
  0
VERTEX
  8
0
 10
873.4018
 20
644.6990
 30
0.0000
  0
VERTEX
  8
0
 10
872.5077
 20
644.3185
 30
0.0000
  0
VERTEX
  8
0
 10
871.6969
 20
643.8540
 30
0.0000
  0
VERTEX
  8
0
 10
871.5091
 20
643.7258
 30
0.0000
  0
SEQEND
  0
POLYLINE
  6
continous
  8
BYBLOCK
 70
0
 66
1
  0
VERTEX
  8
0
 10
814.9406
 20
603.7258
 30
0.0000
  0
VERTEX
  8
0
 10
814.2597
 20
603.1726
 30
0.0000
  0
VERTEX
  8
0
 10
813.6932
 20
602.5583
 30
0.0000
  0
VERTEX
  8
0
 10
813.2520
 20
601.8946
 30
0.0000
  0
VERTEX
  8
0
 10
812.9445
 20
601.1942
 30
0.0000
  0
VERTEX
  8
0
 10
812.7766
 20
600.4705
 30
0.0000
  0
VERTEX
  8
0
 10
812.7440
 20
600.0125
 30
0.0000
  0
SEQEND
  0
LINE
  6
continous
  8
BYBLOCK
 10
814.9406
 20
603.7258
 30
0.0000
 11
814.9406
 21
603.7965
 31
0.0000
  0
POLYLINE
  6
continous
  8
BYBLOCK
 70
0
 66
1
  0
VERTEX
  8
0
 10
827.7437
 20
600.0095
 30
0.0000
  0
VERTEX
  8
0
 10
827.6645
 20
600.7452
 30
0.0000
  0
VERTEX
  8
0
 10
827.4416
 20
601.4661
 30
0.0000
  0
VERTEX
  8
0
 10
827.0794
 20
602.1581
 30
0.0000
  0
VERTEX
  8
0
 10
826.5849
 20
602.8079
 30
0.0000
  0
VERTEX
  8
0
 10
825.9676
 20
603.4028
 30
0.0000
  0
VERTEX
  8
0
 10
825.2395
 20
603.9314
 30
0.0000
  0
VERTEX
  8
0
 10
824.4147
 20
604.3834
 30
0.0000
  0
VERTEX
  8
0
 10
823.5091
 20
604.7501
 30
0.0000
  0
VERTEX
  8
0
 10
822.4157
 20
605.0518
 30
0.0000
  0
VERTEX
  8
0
 10
821.2691
 20
605.2293
 30
0.0000
  0
VERTEX
  8
0
 10
820.0974
 20
605.2781
 30
0.0000
  0
VERTEX
  8
0
 10
818.9293
 20
605.1970
 30
0.0000
  0
VERTEX
  8
0
 10
817.7934
 20
604.9880
 30
0.0000
  0
VERTEX
  8
0
 10
816.8333
 20
604.6990
 30
0.0000
  0
VERTEX
  8
0
 10
815.9392
 20
604.3185
 30
0.0000
  0
VERTEX
  8
0
 10
815.1284
 20
603.8540
 30
0.0000
  0
VERTEX
  8
0
 10
814.9406
 20
603.7258
 30
0.0000
  0
SEQEND
  0
POLYLINE
  6
continous
  8
BYBLOCK
 70
0
 66
1
  0
VERTEX
  8
0
 10
758.3720
 20
563.7258
 30
0.0000
  0
VERTEX
  8
0
 10
757.6911
 20
563.1726
 30
0.0000
  0
VERTEX
  8
0
 10
757.1247
 20
562.5583
 30
0.0000
  0
VERTEX
  8
0
 10
756.6834
 20
561.8946
 30
0.0000
  0
VERTEX
  8
0
 10
756.3759
 20
561.1942
 30
0.0000
  0
VERTEX
  8
0
 10
756.2080
 20
560.4705
 30
0.0000
  0
VERTEX
  8
0
 10
756.1755
 20
560.0125
 30
0.0000
  0
SEQEND
  0
LINE
  6
continous
  8
BYBLOCK
 10
758.3720
 20
563.7258
 30
0.0000
 11
758.3720
 21
563.7965
 31
0.0000
  0
POLYLINE
  6
continous
  8
BYBLOCK
 70
0
 66
1
  0
VERTEX
  8
0
 10
771.1752
 20
560.0095
 30
0.0000
  0
VERTEX
  8
0
 10
771.0960
 20
560.7452
 30
0.0000
  0
VERTEX
  8
0
 10
770.8731
 20
561.4661
 30
0.0000
  0
VERTEX
  8
0
 10
770.5109
 20
562.1581
 30
0.0000
  0
VERTEX
  8
0
 10
770.0163
 20
562.8079
 30
0.0000
  0
VERTEX
  8
0
 10
769.3990
 20
563.4028
 30
0.0000
  0
VERTEX
  8
0
 10
768.6709
 20
563.9314
 30
0.0000
  0
VERTEX
  8
0
 10
767.8461
 20
564.3834
 30
0.0000
  0
VERTEX
  8
0
 10
766.9406
 20
564.7501
 30
0.0000
  0
VERTEX
  8
0
 10
765.8472
 20
565.0518
 30
0.0000
  0
VERTEX
  8
0
 10
764.7006
 20
565.2293
 30
0.0000
  0
VERTEX
  8
0
 10
763.5289
 20
565.2781
 30
0.0000
  0
VERTEX
  8
0
 10
762.3608
 20
565.1970
 30
0.0000
  0
VERTEX
  8
0
 10
761.2249
 20
564.9880
 30
0.0000
  0
VERTEX
  8
0
 10
760.2647
 20
564.6990
 30
0.0000
  0
VERTEX
  8
0
 10
759.3706
 20
564.3185
 30
0.0000
  0
VERTEX
  8
0
 10
758.5598
 20
563.8540
 30
0.0000
  0
VERTEX
  8
0
 10
758.3720
 20
563.7258
 30
0.0000
  0
SEQEND
  0
POLYLINE
  6
continous
  8
BYBLOCK
 70
0
 66
1
  0
VERTEX
  8
0
 10
701.8035
 20
523.7258
 30
0.0000
  0
VERTEX
  8
0
 10
701.1226
 20
523.1726
 30
0.0000
  0
VERTEX
  8
0
 10
700.5561
 20
522.5583
 30
0.0000
  0
VERTEX
  8
0
 10
700.1149
 20
521.8946
 30
0.0000
  0
VERTEX
  8
0
 10
699.8074
 20
521.1942
 30
0.0000
  0
VERTEX
  8
0
 10
699.6395
 20
520.4705
 30
0.0000
  0
VERTEX
  8
0
 10
699.6070
 20
520.0125
 30
0.0000
  0
SEQEND
  0
LINE
  6
continous
  8
BYBLOCK
 10
701.8035
 20
523.7258
 30
0.0000
 11
701.8035
 21
523.7965
 31
0.0000
  0
POLYLINE
  6
continous
  8
BYBLOCK
 70
0
 66
1
  0
VERTEX
  8
0
 10
714.6066
 20
520.0095
 30
0.0000
  0
VERTEX
  8
0
 10
714.5274
 20
520.7452
 30
0.0000
  0
VERTEX
  8
0
 10
714.3045
 20
521.4661
 30
0.0000
  0
VERTEX
  8
0
 10
713.9423
 20
522.1581
 30
0.0000
  0
VERTEX
  8
0
 10
713.4478
 20
522.8079
 30
0.0000
  0
VERTEX
  8
0
 10
712.8305
 20
523.4028
 30
0.0000
  0
VERTEX
  8
0
 10
712.1024
 20
523.9314
 30
0.0000
  0
VERTEX
  8
0
 10
711.2776
 20
524.3834
 30
0.0000
  0
VERTEX
  8
0
 10
710.3720
 20
524.7501
 30
0.0000
  0
VERTEX
  8
0
 10
709.2786
 20
525.0518
 30
0.0000
  0
VERTEX
  8
0
 10
708.1320
 20
525.2293
 30
0.0000
  0
VERTEX
  8
0
 10
706.9604
 20
525.2781
 30
0.0000
  0
VERTEX
  8
0
 10
705.7923
 20
525.1970
 30
0.0000
  0
VERTEX
  8
0
 10
704.6563
 20
524.9880
 30
0.0000
  0
VERTEX
  8
0
 10
703.6962
 20
524.6990
 30
0.0000
  0
VERTEX
  8
0
 10
702.8021
 20
524.3185
 30
0.0000
  0
VERTEX
  8
0
 10
701.9913
 20
523.8540
 30
0.0000
  0
VERTEX
  8
0
 10
701.8035
 20
523.7258
 30
0.0000
  0
SEQEND
  0
POLYLINE
  6
continous
  8
BYBLOCK
 70
0
 66
1
  0
VERTEX
  8
0
 10
645.2349
 20
483.7258
 30
0.0000
  0
VERTEX
  8
0
 10
644.5540
 20
483.1726
 30
0.0000
  0
VERTEX
  8
0
 10
643.9876
 20
482.5583
 30
0.0000
  0
VERTEX
  8
0
 10
643.5464
 20
481.8946
 30
0.0000
  0
VERTEX
  8
0
 10
643.2389
 20
481.1942
 30
0.0000
  0
VERTEX
  8
0
 10
643.0709
 20
480.4705
 30
0.0000
  0
VERTEX
  8
0
 10
643.0384
 20
480.0125
 30
0.0000
  0
SEQEND
  0
LINE
  6
continous
  8
BYBLOCK
 10
645.2349
 20
483.7258
 30
0.0000
 11
645.2349
 21
483.7965
 31
0.0000
  0
POLYLINE
  6
continous
  8
BYBLOCK
 70
0
 66
1
  0
VERTEX
  8
0
 10
658.0381
 20
480.0095
 30
0.0000
  0
VERTEX
  8
0
 10
657.9589
 20
480.7452
 30
0.0000
  0
VERTEX
  8
0
 10
657.7360
 20
481.4661
 30
0.0000
  0
VERTEX
  8
0
 10
657.3738
 20
482.1581
 30
0.0000
  0
VERTEX
  8
0
 10
656.8793
 20
482.8079
 30
0.0000
  0
VERTEX
  8
0
 10
656.2620
 20
483.4028
 30
0.0000
  0
VERTEX
  8
0
 10
655.5338
 20
483.9314
 30
0.0000
  0
VERTEX
  8
0
 10
654.7090
 20
484.3834
 30
0.0000
  0
VERTEX
  8
0
 10
653.8035
 20
484.7501
 30
0.0000
  0
VERTEX
  8
0
 10
652.7101
 20
485.0518
 30
0.0000
  0
VERTEX
  8
0
 10
651.5635
 20
485.2293
 30
0.0000
  0
VERTEX
  8
0
 10
650.3918
 20
485.2781
 30
0.0000
  0
VERTEX
  8
0
 10
649.2237
 20
485.1970
 30
0.0000
  0
VERTEX
  8
0
 10
648.0878
 20
484.9880
 30
0.0000
  0
VERTEX
  8
0
 10
647.1276
 20
484.6990
 30
0.0000
  0
VERTEX
  8
0
 10
646.2335
 20
484.3185
 30
0.0000
  0
VERTEX
  8
0
 10
645.4227
 20
483.8540
 30
0.0000
  0
VERTEX
  8
0
 10
645.2349
 20
483.7258
 30
0.0000
  0
SEQEND
  0
POLYLINE
  6
continous
  8
BYBLOCK
 70
0
 66
1
  0
VERTEX
  8
0
 10
588.6664
 20
443.7258
 30
0.0000
  0
VERTEX
  8
0
 10
587.9855
 20
443.1726
 30
0.0000
  0
VERTEX
  8
0
 10
587.4190
 20
442.5583
 30
0.0000
  0
VERTEX
  8
0
 10
586.9778
 20
441.8946
 30
0.0000
  0
VERTEX
  8
0
 10
586.6703
 20
441.1942
 30
0.0000
  0
VERTEX
  8
0
 10
586.5024
 20
440.4705
 30
0.0000
  0
VERTEX
  8
0
 10
586.4699
 20
440.0125
 30
0.0000
  0
SEQEND
  0
LINE
  6
continous
  8
BYBLOCK
 10
588.6664
 20
443.7258
 30
0.0000
 11
588.6664
 21
443.7965
 31
0.0000
  0
POLYLINE
  6
continous
  8
BYBLOCK
 70
0
 66
1
  0
VERTEX
  8
0
 10
601.4695
 20
440.0095
 30
0.0000
  0
VERTEX
  8
0
 10
601.3903
 20
440.7452
 30
0.0000
  0
VERTEX
  8
0
 10
601.1675
 20
441.4661
 30
0.0000
  0
VERTEX
  8
0
 10
600.8053
 20
442.1581
 30
0.0000
  0
VERTEX
  8
0
 10
600.3107
 20
442.8079
 30
0.0000
  0
VERTEX
  8
0
 10
599.6934
 20
443.4028
 30
0.0000
  0
VERTEX
  8
0
 10
598.9653
 20
443.9314
 30
0.0000
  0
VERTEX
  8
0
 10
598.1405
 20
444.3834
 30
0.0000
  0
VERTEX
  8
0
 10
597.2349
 20
444.7501
 30
0.0000
  0
VERTEX
  8
0
 10
596.1415
 20
445.0518
 30
0.0000
  0
VERTEX
  8
0
 10
594.9950
 20
445.2293
 30
0.0000
  0
VERTEX
  8
0
 10
593.8233
 20
445.2781
 30
0.0000
  0
VERTEX
  8
0
 10
592.6552
 20
445.1970
 30
0.0000
  0
VERTEX
  8
0
 10
591.5193
 20
444.9880
 30
0.0000
  0
VERTEX
  8
0
 10
590.5591
 20
444.6990
 30
0.0000
  0
VERTEX
  8
0
 10
589.6650
 20
444.3185
 30
0.0000
  0
VERTEX
  8
0
 10
588.8542
 20
443.8540
 30
0.0000
  0
VERTEX
  8
0
 10
588.6664
 20
443.7258
 30
0.0000
  0
SEQEND
  0
POLYLINE
  6
continous
  8
BYBLOCK
 70
0
 66
1
  0
VERTEX
  8
0
 10
532.0979
 20
403.7258
 30
0.0000
  0
VERTEX
  8
0
 10
531.4169
 20
403.1726
 30
0.0000
  0
VERTEX
  8
0
 10
530.8505
 20
402.5583
 30
0.0000
  0
VERTEX
  8
0
 10
530.4093
 20
401.8946
 30
0.0000
  0
VERTEX
  8
0
 10
530.1018
 20
401.1942
 30
0.0000
  0
VERTEX
  8
0
 10
529.9339
 20
400.4705
 30
0.0000
  0
VERTEX
  8
0
 10
529.9013
 20
400.0125
 30
0.0000
  0
SEQEND
  0
LINE
  6
continous
  8
BYBLOCK
 10
532.0979
 20
403.7258
 30
0.0000
 11
532.0979
 21
403.7965
 31
0.0000
  0
POLYLINE
  6
continous
  8
BYBLOCK
 70
0
 66
1
  0
VERTEX
  8
0
 10
544.9010
 20
400.0095
 30
0.0000
  0
VERTEX
  8
0
 10
544.8218
 20
400.7452
 30
0.0000
  0
VERTEX
  8
0
 10
544.5989
 20
401.4661
 30
0.0000
  0
VERTEX
  8
0
 10
544.2367
 20
402.1581
 30
0.0000
  0
VERTEX
  8
0
 10
543.7422
 20
402.8079
 30
0.0000
  0
VERTEX
  8
0
 10
543.1249
 20
403.4028
 30
0.0000
  0
VERTEX
  8
0
 10
542.3968
 20
403.9314
 30
0.0000
  0
VERTEX
  8
0
 10
541.5719
 20
404.3834
 30
0.0000
  0
VERTEX
  8
0
 10
540.6664
 20
404.7501
 30
0.0000
  0
VERTEX
  8
0
 10
539.5730
 20
405.0518
 30
0.0000
  0
VERTEX
  8
0
 10
538.4264
 20
405.2293
 30
0.0000
  0
VERTEX
  8
0
 10
537.2547
 20
405.2781
 30
0.0000
  0
VERTEX
  8
0
 10
536.0866
 20
405.1970
 30
0.0000
  0
VERTEX
  8
0
 10
534.9507
 20
404.9880
 30
0.0000
  0
VERTEX
  8
0
 10
533.9906
 20
404.6990
 30
0.0000
  0
VERTEX
  8
0
 10
533.0964
 20
404.3185
 30
0.0000
  0
VERTEX
  8
0
 10
532.2856
 20
403.8540
 30
0.0000
  0
VERTEX
  8
0
 10
532.0979
 20
403.7258
 30
0.0000
  0
SEQEND
  0
POLYLINE
  6
continous
  8
BYBLOCK
 70
0
 66
1
  0
VERTEX
  8
0
 10
475.5293
 20
363.7258
 30
0.0000
  0
VERTEX
  8
0
 10
474.8484
 20
363.1726
 30
0.0000
  0
VERTEX
  8
0
 10
474.2819
 20
362.5583
 30
0.0000
  0
VERTEX
  8
0
 10
473.8407
 20
361.8946
 30
0.0000
  0
VERTEX
  8
0
 10
473.5332
 20
361.1942
 30
0.0000
  0
VERTEX
  8
0
 10
473.3653
 20
360.4705
 30
0.0000
  0
VERTEX
  8
0
 10
473.3328
 20
360.0125
 30
0.0000
  0
SEQEND
  0
LINE
  6
continous
  8
BYBLOCK
 10
475.5293
 20
363.7258
 30
0.0000
 11
475.5293
 21
363.7965
 31
0.0000
  0
POLYLINE
  6
continous
  8
BYBLOCK
 70
0
 66
1
  0
VERTEX
  8
0
 10
488.3325
 20
360.0095
 30
0.0000
  0
VERTEX
  8
0
 10
488.2532
 20
360.7452
 30
0.0000
  0
VERTEX
  8
0
 10
488.0304
 20
361.4661
 30
0.0000
  0
VERTEX
  8
0
 10
487.6682
 20
362.1581
 30
0.0000
  0
VERTEX
  8
0
 10
487.1736
 20
362.8079
 30
0.0000
  0
VERTEX
  8
0
 10
486.5563
 20
363.4028
 30
0.0000
  0
VERTEX
  8
0
 10
485.8282
 20
363.9314
 30
0.0000
  0
VERTEX
  8
0
 10
485.0034
 20
364.3834
 30
0.0000
  0
VERTEX
  8
0
 10
484.0978
 20
364.7501
 30
0.0000
  0
VERTEX
  8
0
 10
483.0045
 20
365.0518
 30
0.0000
  0
VERTEX
  8
0
 10
481.8579
 20
365.2293
 30
0.0000
  0
VERTEX
  8
0
 10
480.6862
 20
365.2781
 30
0.0000
  0
VERTEX
  8
0
 10
479.5181
 20
365.1970
 30
0.0000
  0
VERTEX
  8
0
 10
478.3822
 20
364.9880
 30
0.0000
  0
VERTEX
  8
0
 10
477.4220
 20
364.6990
 30
0.0000
  0
VERTEX
  8
0
 10
476.5279
 20
364.3185
 30
0.0000
  0
VERTEX
  8
0
 10
475.7171
 20
363.8540
 30
0.0000
  0
VERTEX
  8
0
 10
475.5293
 20
363.7258
 30
0.0000
  0
SEQEND
  0
POLYLINE
  6
continous
  8
BYBLOCK
 70
0
 66
1
  0
VERTEX
  8
0
 10
418.9608
 20
323.7258
 30
0.0000
  0
VERTEX
  8
0
 10
418.2799
 20
323.1726
 30
0.0000
  0
VERTEX
  8
0
 10
417.7134
 20
322.5583
 30
0.0000
  0
VERTEX
  8
0
 10
417.2722
 20
321.8946
 30
0.0000
  0
VERTEX
  8
0
 10
416.9647
 20
321.1942
 30
0.0000
  0
VERTEX
  8
0
 10
416.7968
 20
320.4705
 30
0.0000
  0
VERTEX
  8
0
 10
416.7642
 20
320.0125
 30
0.0000
  0
SEQEND
  0
LINE
  6
continous
  8
BYBLOCK
 10
418.9608
 20
323.7258
 30
0.0000
 11
418.9608
 21
323.7965
 31
0.0000
  0
POLYLINE
  6
continous
  8
BYBLOCK
 70
0
 66
1
  0
VERTEX
  8
0
 10
431.7639
 20
320.0095
 30
0.0000
  0
VERTEX
  8
0
 10
431.6847
 20
320.7452
 30
0.0000
  0
VERTEX
  8
0
 10
431.4618
 20
321.4661
 30
0.0000
  0
VERTEX
  8
0
 10
431.0996
 20
322.1581
 30
0.0000
  0
VERTEX
  8
0
 10
430.6051
 20
322.8079
 30
0.0000
  0
VERTEX
  8
0
 10
429.9878
 20
323.4028
 30
0.0000
  0
VERTEX
  8
0
 10
429.2597
 20
323.9314
 30
0.0000
  0
VERTEX
  8
0
 10
428.4349
 20
324.3834
 30
0.0000
  0
VERTEX
  8
0
 10
427.5293
 20
324.7501
 30
0.0000
  0
VERTEX
  8
0
 10
426.4359
 20
325.0518
 30
0.0000
  0
VERTEX
  8
0
 10
425.2893
 20
325.2293
 30
0.0000
  0
VERTEX
  8
0
 10
424.1176
 20
325.2781
 30
0.0000
  0
VERTEX
  8
0
 10
422.9495
 20
325.1970
 30
0.0000
  0
VERTEX
  8
0
 10
421.8136
 20
324.9880
 30
0.0000
  0
VERTEX
  8
0
 10
420.8535
 20
324.6990
 30
0.0000
  0
VERTEX
  8
0
 10
419.9594
 20
324.3185
 30
0.0000
  0
VERTEX
  8
0
 10
419.1486
 20
323.8540
 30
0.0000
  0
VERTEX
  8
0
 10
418.9608
 20
323.7258
 30
0.0000
  0
SEQEND
  0
POLYLINE
  6
continous
  8
BYBLOCK
 70
0
 66
1
  0
VERTEX
  8
0
 10
362.3922
 20
283.7258
 30
0.0000
  0
VERTEX
  8
0
 10
361.7113
 20
283.1726
 30
0.0000
  0
VERTEX
  8
0
 10
361.1449
 20
282.5583
 30
0.0000
  0
VERTEX
  8
0
 10
360.7036
 20
281.8946
 30
0.0000
  0
VERTEX
  8
0
 10
360.3961
 20
281.1942
 30
0.0000
  0
VERTEX
  8
0
 10
360.2282
 20
280.4705
 30
0.0000
  0
VERTEX
  8
0
 10
360.1957
 20
280.0125
 30
0.0000
  0
SEQEND
  0
LINE
  6
continous
  8
BYBLOCK
 10
362.3922
 20
283.7258
 30
0.0000
 11
362.3922
 21
283.7965
 31
0.0000
  0
POLYLINE
  6
continous
  8
BYBLOCK
 70
0
 66
1
  0
VERTEX
  8
0
 10
375.1954
 20
280.0095
 30
0.0000
  0
VERTEX
  8
0
 10
375.1162
 20
280.7452
 30
0.0000
  0
VERTEX
  8
0
 10
374.8933
 20
281.4661
 30
0.0000
  0
VERTEX
  8
0
 10
374.5311
 20
282.1581
 30
0.0000
  0
VERTEX
  8
0
 10
374.0365
 20
282.8079
 30
0.0000
  0
VERTEX
  8
0
 10
373.4192
 20
283.4028
 30
0.0000
  0
VERTEX
  8
0
 10
372.6911
 20
283.9314
 30
0.0000
  0
VERTEX
  8
0
 10
371.8663
 20
284.3834
 30
0.0000
  0
VERTEX
  8
0
 10
370.9608
 20
284.7501
 30
0.0000
  0
VERTEX
  8
0
 10
369.8674
 20
285.0518
 30
0.0000
  0
VERTEX
  8
0
 10
368.7208
 20
285.2293
 30
0.0000
  0
VERTEX
  8
0
 10
367.5491
 20
285.2781
 30
0.0000
  0
VERTEX
  8
0
 10
366.3810
 20
285.1970
 30
0.0000
  0
VERTEX
  8
0
 10
365.2451
 20
284.9880
 30
0.0000
  0
VERTEX
  8
0
 10
364.2849
 20
284.6990
 30
0.0000
  0
VERTEX
  8
0
 10
363.3908
 20
284.3185
 30
0.0000
  0
VERTEX
  8
0
 10
362.5800
 20
283.8540
 30
0.0000
  0
VERTEX
  8
0
 10
362.3922
 20
283.7258
 30
0.0000
  0
SEQEND
  0
POLYLINE
  6
continous
  8
BYBLOCK
 70
0
 66
1
  0
VERTEX
  8
0
 10
305.8237
 20
243.7258
 30
0.0000
  0
VERTEX
  8
0
 10
305.1428
 20
243.1726
 30
0.0000
  0
VERTEX
  8
0
 10
304.5763
 20
242.5583
 30
0.0000
  0
VERTEX
  8
0
 10
304.1351
 20
241.8946
 30
0.0000
  0
VERTEX
  8
0
 10
303.8276
 20
241.1942
 30
0.0000
  0
VERTEX
  8
0
 10
303.6597
 20
240.4705
 30
0.0000
  0
VERTEX
  8
0
 10
303.6272
 20
240.0125
 30
0.0000
  0
SEQEND
  0
LINE
  6
continous
  8
BYBLOCK
 10
305.8237
 20
243.7258
 30
0.0000
 11
305.8237
 21
243.7965
 31
0.0000
  0
POLYLINE
  6
continous
  8
BYBLOCK
 70
0
 66
1
  0
VERTEX
  8
0
 10
318.6268
 20
240.0095
 30
0.0000
  0
VERTEX
  8
0
 10
318.5476
 20
240.7452
 30
0.0000
  0
VERTEX
  8
0
 10
318.3248
 20
241.4661
 30
0.0000
  0
VERTEX
  8
0
 10
317.9625
 20
242.1581
 30
0.0000
  0
VERTEX
  8
0
 10
317.4680
 20
242.8079
 30
0.0000
  0
VERTEX
  8
0
 10
316.8507
 20
243.4028
 30
0.0000
  0
VERTEX
  8
0
 10
316.1226
 20
243.9314
 30
0.0000
  0
VERTEX
  8
0
 10
315.2978
 20
244.3834
 30
0.0000
  0
VERTEX
  8
0
 10
314.3922
 20
244.7501
 30
0.0000
  0
VERTEX
  8
0
 10
313.2988
 20
245.0518
 30
0.0000
  0
VERTEX
  8
0
 10
312.1522
 20
245.2293
 30
0.0000
  0
VERTEX
  8
0
 10
310.9806
 20
245.2781
 30
0.0000
  0
VERTEX
  8
0
 10
309.8125
 20
245.1970
 30
0.0000
  0
VERTEX
  8
0
 10
308.6765
 20
244.9880
 30
0.0000
  0
VERTEX
  8
0
 10
307.7164
 20
244.6990
 30
0.0000
  0
VERTEX
  8
0
 10
306.8223
 20
244.3185
 30
0.0000
  0
VERTEX
  8
0
 10
306.0115
 20
243.8540
 30
0.0000
  0
VERTEX
  8
0
 10
305.8237
 20
243.7258
 30
0.0000
  0
SEQEND
  0
POLYLINE
  6
continous
  8
BYBLOCK
 70
0
 66
1
  0
VERTEX
  8
0
 10
249.2551
 20
203.7258
 30
0.0000
  0
VERTEX
  8
0
 10
248.5742
 20
203.1726
 30
0.0000
  0
VERTEX
  8
0
 10
248.0078
 20
202.5583
 30
0.0000
  0
VERTEX
  8
0
 10
247.5666
 20
201.8946
 30
0.0000
  0
VERTEX
  8
0
 10
247.2591
 20
201.1942
 30
0.0000
  0
VERTEX
  8
0
 10
247.0911
 20
200.4705
 30
0.0000
  0
VERTEX
  8
0
 10
247.0586
 20
200.0125
 30
0.0000
  0
SEQEND
  0
LINE
  6
continous
  8
BYBLOCK
 10
249.2551
 20
203.7258
 30
0.0000
 11
249.2551
 21
203.7965
 31
0.0000
  0
POLYLINE
  6
continous
  8
BYBLOCK
 70
0
 66
1
  0
VERTEX
  8
0
 10
262.0583
 20
200.0095
 30
0.0000
  0
VERTEX
  8
0
 10
261.9791
 20
200.7452
 30
0.0000
  0
VERTEX
  8
0
 10
261.7562
 20
201.4661
 30
0.0000
  0
VERTEX
  8
0
 10
261.3940
 20
202.1581
 30
0.0000
  0
VERTEX
  8
0
 10
260.8995
 20
202.8079
 30
0.0000
  0
VERTEX
  8
0
 10
260.2822
 20
203.4028
 30
0.0000
  0
VERTEX
  8
0
 10
259.5540
 20
203.9314
 30
0.0000
  0
VERTEX
  8
0
 10
258.7292
 20
204.3834
 30
0.0000
  0
VERTEX
  8
0
 10
257.8237
 20
204.7501
 30
0.0000
  0
VERTEX
  8
0
 10
256.7303
 20
205.0518
 30
0.0000
  0
VERTEX
  8
0
 10
255.5837
 20
205.2293
 30
0.0000
  0
VERTEX
  8
0
 10
254.4120
 20
205.2781
 30
0.0000
  0
VERTEX
  8
0
 10
253.2439
 20
205.1970
 30
0.0000
  0
VERTEX
  8
0
 10
252.1080
 20
204.9880
 30
0.0000
  0
VERTEX
  8
0
 10
251.1479
 20
204.6990
 30
0.0000
  0
VERTEX
  8
0
 10
250.2537
 20
204.3185
 30
0.0000
  0
VERTEX
  8
0
 10
249.4429
 20
203.8540
 30
0.0000
  0
VERTEX
  8
0
 10
249.2551
 20
203.7258
 30
0.0000
  0
SEQEND
  0
POLYLINE
  6
continous
  8
BYBLOCK
 70
0
 66
1
  0
VERTEX
  8
0
 10
192.6866
 20
163.7258
 30
0.0000
  0
VERTEX
  8
0
 10
192.0057
 20
163.1726
 30
0.0000
  0
VERTEX
  8
0
 10
191.4392
 20
162.5583
 30
0.0000
  0
VERTEX
  8
0
 10
190.9980
 20
161.8946
 30
0.0000
  0
VERTEX
  8
0
 10
190.6905
 20
161.1942
 30
0.0000
  0
VERTEX
  8
0
 10
190.5226
 20
160.4705
 30
0.0000
  0
VERTEX
  8
0
 10
190.4901
 20
160.0125
 30
0.0000
  0
SEQEND
  0
LINE
  6
continous
  8
BYBLOCK
 10
192.6866
 20
163.7258
 30
0.0000
 11
192.6866
 21
163.7965
 31
0.0000
  0
POLYLINE
  6
continous
  8
BYBLOCK
 70
0
 66
1
  0
VERTEX
  8
0
 10
205.4897
 20
160.0095
 30
0.0000
  0
VERTEX
  8
0
 10
205.4105
 20
160.7452
 30
0.0000
  0
VERTEX
  8
0
 10
205.1877
 20
161.4661
 30
0.0000
  0
VERTEX
  8
0
 10
204.8255
 20
162.1581
 30
0.0000
  0
VERTEX
  8
0
 10
204.3309
 20
162.8079
 30
0.0000
  0
VERTEX
  8
0
 10
203.7136
 20
163.4028
 30
0.0000
  0
VERTEX
  8
0
 10
202.9855
 20
163.9314
 30
0.0000
  0
VERTEX
  8
0
 10
202.1607
 20
164.3834
 30
0.0000
  0
VERTEX
  8
0
 10
201.2551
 20
164.7501
 30
0.0000
  0
VERTEX
  8
0
 10
200.1617
 20
165.0518
 30
0.0000
  0
VERTEX
  8
0
 10
199.0152
 20
165.2293
 30
0.0000
  0
VERTEX
  8
0
 10
197.8435
 20
165.2781
 30
0.0000
  0
VERTEX
  8
0
 10
196.6754
 20
165.1970
 30
0.0000
  0
VERTEX
  8
0
 10
195.5395
 20
164.9880
 30
0.0000
  0
VERTEX
  8
0
 10
194.5793
 20
164.6990
 30
0.0000
  0
VERTEX
  8
0
 10
193.6852
 20
164.3185
 30
0.0000
  0
VERTEX
  8
0
 10
192.8744
 20
163.8540
 30
0.0000
  0
VERTEX
  8
0
 10
192.6866
 20
163.7258
 30
0.0000
  0
SEQEND
  0
POLYLINE
  6
continous
  8
BYBLOCK
 70
0
 66
1
  0
VERTEX
  8
0
 10
136.1181
 20
123.7258
 30
0.0000
  0
VERTEX
  8
0
 10
135.4372
 20
123.1726
 30
0.0000
  0
VERTEX
  8
0
 10
134.8707
 20
122.5583
 30
0.0000
  0
VERTEX
  8
0
 10
134.4295
 20
121.8946
 30
0.0000
  0
VERTEX
  8
0
 10
134.1220
 20
121.1942
 30
0.0000
  0
VERTEX
  8
0
 10
133.9541
 20
120.4705
 30
0.0000
  0
VERTEX
  8
0
 10
133.9215
 20
120.0125
 30
0.0000
  0
SEQEND
  0
LINE
  6
continous
  8
BYBLOCK
 10
136.1181
 20
123.7258
 30
0.0000
 11
136.1181
 21
123.7965
 31
0.0000
  0
POLYLINE
  6
continous
  8
BYBLOCK
 70
0
 66
1
  0
VERTEX
  8
0
 10
148.9212
 20
120.0095
 30
0.0000
  0
VERTEX
  8
0
 10
148.8420
 20
120.7452
 30
0.0000
  0
VERTEX
  8
0
 10
148.6191
 20
121.4661
 30
0.0000
  0
VERTEX
  8
0
 10
148.2569
 20
122.1581
 30
0.0000
  0
VERTEX
  8
0
 10
147.7624
 20
122.8079
 30
0.0000
  0
VERTEX
  8
0
 10
147.1451
 20
123.4028
 30
0.0000
  0
VERTEX
  8
0
 10
146.4170
 20
123.9314
 30
0.0000
  0
VERTEX
  8
0
 10
145.5921
 20
124.3834
 30
0.0000
  0
VERTEX
  8
0
 10
144.6866
 20
124.7501
 30
0.0000
  0
VERTEX
  8
0
 10
143.5932
 20
125.0518
 30
0.0000
  0
VERTEX
  8
0
 10
142.4466
 20
125.2293
 30
0.0000
  0
VERTEX
  8
0
 10
141.2749
 20
125.2781
 30
0.0000
  0
VERTEX
  8
0
 10
140.1068
 20
125.1970
 30
0.0000
  0
VERTEX
  8
0
 10
138.9709
 20
124.9880
 30
0.0000
  0
VERTEX
  8
0
 10
138.0108
 20
124.6990
 30
0.0000
  0
VERTEX
  8
0
 10
137.1166
 20
124.3185
 30
0.0000
  0
VERTEX
  8
0
 10
136.3059
 20
123.8540
 30
0.0000
  0
VERTEX
  8
0
 10
136.1181
 20
123.7258
 30
0.0000
  0
SEQEND
  0
POLYLINE
  6
continous
  8
BYBLOCK
 70
0
 66
1
  0
VERTEX
  8
0
 10
79.5495
 20
83.7258
 30
0.0000
  0
VERTEX
  8
0
 10
78.8686
 20
83.1726
 30
0.0000
  0
VERTEX
  8
0
 10
78.3021
 20
82.5583
 30
0.0000
  0
VERTEX
  8
0
 10
77.8609
 20
81.8946
 30
0.0000
  0
VERTEX
  8
0
 10
77.5534
 20
81.1942
 30
0.0000
  0
VERTEX
  8
0
 10
77.3855
 20
80.4705
 30
0.0000
  0
VERTEX
  8
0
 10
77.3530
 20
80.0125
 30
0.0000
  0
SEQEND
  0
LINE
  6
continous
  8
BYBLOCK
 10
79.5495
 20
83.7258
 30
0.0000
 11
79.5495
 21
83.7965
 31
0.0000
  0
POLYLINE
  6
continous
  8
BYBLOCK
 70
0
 66
1
  0
VERTEX
  8
0
 10
92.3527
 20
80.0095
 30
0.0000
  0
VERTEX
  8
0
 10
92.2735
 20
80.7452
 30
0.0000
  0
VERTEX
  8
0
 10
92.0506
 20
81.4661
 30
0.0000
  0
VERTEX
  8
0
 10
91.6884
 20
82.1581
 30
0.0000
  0
VERTEX
  8
0
 10
91.1938
 20
82.8079
 30
0.0000
  0
VERTEX
  8
0
 10
90.5765
 20
83.4028
 30
0.0000
  0
VERTEX
  8
0
 10
89.8484
 20
83.9314
 30
0.0000
  0
VERTEX
  8
0
 10
89.0236
 20
84.3834
 30
0.0000
  0
VERTEX
  8
0
 10
88.1180
 20
84.7501
 30
0.0000
  0
VERTEX
  8
0
 10
87.0247
 20
85.0518
 30
0.0000
  0
VERTEX
  8
0
 10
85.8781
 20
85.2293
 30
0.0000
  0
VERTEX
  8
0
 10
84.7064
 20
85.2781
 30
0.0000
  0
VERTEX
  8
0
 10
83.5383
 20
85.1970
 30
0.0000
  0
VERTEX
  8
0
 10
82.4024
 20
84.9880
 30
0.0000
  0
VERTEX
  8
0
 10
81.4422
 20
84.6990
 30
0.0000
  0
VERTEX
  8
0
 10
80.5481
 20
84.3185
 30
0.0000
  0
VERTEX
  8
0
 10
79.7373
 20
83.8540
 30
0.0000
  0
VERTEX
  8
0
 10
79.5495
 20
83.7258
 30
0.0000
  0
SEQEND
  0
LINE
  6
continous
  8
BYBLOCK
 10
22.9810
 20
43.7258
 30
0.0000
 11
22.9810
 21
43.7965
 31
0.0000
  0
POLYLINE
  6
continous
  8
BYBLOCK
 70
0
 66
1
  0
VERTEX
  8
0
 10
20.7843
 20
40.0465
 30
0.0000
  0
VERTEX
  8
0
 10
20.8573
 20
39.3084
 30
0.0000
  0
VERTEX
  8
0
 10
21.0748
 20
38.5847
 30
0.0000
  0
VERTEX
  8
0
 10
21.4327
 20
37.8894
 30
0.0000
  0
VERTEX
  8
0
 10
21.9239
 20
37.2362
 30
0.0000
  0
VERTEX
  8
0
 10
22.5389
 20
36.6376
 30
0.0000
  0
VERTEX
  8
0
 10
23.2658
 20
36.1054
 30
0.0000
  0
VERTEX
  8
0
 10
24.0903
 20
35.6498
 30
0.0000
  0
VERTEX
  8
0
 10
24.9965
 20
35.2799
 30
0.0000
  0
VERTEX
  8
0
 10
25.9666
 20
35.0027
 30
0.0000
  0
VERTEX
  8
0
 10
27.1110
 20
34.8085
 30
0.0000
  0
VERTEX
  8
0
 10
28.2843
 20
34.7432
 30
0.0000
  0
VERTEX
  8
0
 10
29.4575
 20
34.8085
 30
0.0000
  0
VERTEX
  8
0
 10
30.6019
 20
35.0027
 30
0.0000
  0
VERTEX
  8
0
 10
31.5721
 20
35.2799
 30
0.0000
  0
VERTEX
  8
0
 10
32.4782
 20
35.6498
 30
0.0000
  0
VERTEX
  8
0
 10
33.3028
 20
36.1054
 30
0.0000
  0
VERTEX
  8
0
 10
33.5876
 20
36.2965
 30
0.0000
  0
SEQEND
  0
POLYLINE
  6
continous
  8
BYBLOCK
 70
0
 66
1
  0
VERTEX
  8
0
 10
22.9810
 20
43.7965
 30
0.0000
  0
VERTEX
  8
0
 10
22.2945
 20
43.2381
 30
0.0000
  0
VERTEX
  8
0
 10
21.7246
 20
42.6176
 30
0.0000
  0
VERTEX
  8
0
 10
21.2824
 20
41.9470
 30
0.0000
  0
VERTEX
  8
0
 10
20.9765
 20
41.2395
 30
0.0000
  0
VERTEX
  8
0
 10
20.8128
 20
40.5087
 30
0.0000
  0
VERTEX
  8
0
 10
20.7843
 20
40.0465
 30
0.0000
  0
SEQEND
  0
POLYLINE
  6
continous
  8
BYBLOCK
 70
0
 66
1
  0
VERTEX
  8
0
 10
35.7843
 20
40.0465
 30
0.0000
  0
VERTEX
  8
0
 10
35.7113
 20
40.7846
 30
0.0000
  0
VERTEX
  8
0
 10
35.4937
 20
41.5083
 30
0.0000
  0
VERTEX
  8
0
 10
35.1359
 20
42.2035
 30
0.0000
  0
VERTEX
  8
0
 10
34.6446
 20
42.8568
 30
0.0000
  0
VERTEX
  8
0
 10
34.0296
 20
43.4554
 30
0.0000
  0
VERTEX
  8
0
 10
33.3028
 20
43.9876
 30
0.0000
  0
VERTEX
  8
0
 10
32.4782
 20
44.4431
 30
0.0000
  0
VERTEX
  8
0
 10
31.5721
 20
44.8131
 30
0.0000
  0
VERTEX
  8
0
 10
30.6019
 20
45.0902
 30
0.0000
  0
VERTEX
  8
0
 10
29.4575
 20
45.2845
 30
0.0000
  0
VERTEX
  8
0
 10
28.2843
 20
45.3498
 30
0.0000
  0
VERTEX
  8
0
 10
27.1110
 20
45.2845
 30
0.0000
  0
VERTEX
  8
0
 10
25.9666
 20
45.0902
 30
0.0000
  0
VERTEX
  8
0
 10
24.9965
 20
44.8131
 30
0.0000
  0
VERTEX
  8
0
 10
24.0903
 20
44.4431
 30
0.0000
  0
VERTEX
  8
0
 10
23.2658
 20
43.9876
 30
0.0000
  0
VERTEX
  8
0
 10
22.9810
 20
43.7965
 30
0.0000
  0
SEQEND
  0
POLYLINE
  6
continous
  8
BYBLOCK
 70
0
 66
1
  0
VERTEX
  8
0
 10
33.5876
 20
36.2965
 30
0.0000
  0
VERTEX
  8
0
 10
34.2740
 20
36.8549
 30
0.0000
  0
VERTEX
  8
0
 10
34.8439
 20
37.4754
 30
0.0000
  0
VERTEX
  8
0
 10
35.2861
 20
38.1459
 30
0.0000
  0
VERTEX
  8
0
 10
35.5920
 20
38.8535
 30
0.0000
  0
VERTEX
  8
0
 10
35.7557
 20
39.5843
 30
0.0000
  0
VERTEX
  8
0
 10
35.7843
 20
40.0465
 30
0.0000
  0
SEQEND
  0
POLYLINE
  6
continous
  8
BYBLOCK
 70
0
 66
1
  0
VERTEX
  8
0
 10
2792.6429
 20
2000.0465
 30
0.0000
  0
VERTEX
  8
0
 10
2792.7158
 20
1999.3084
 30
0.0000
  0
VERTEX
  8
0
 10
2792.9334
 20
1998.5847
 30
0.0000
  0
VERTEX
  8
0
 10
2793.2913
 20
1997.8894
 30
0.0000
  0
VERTEX
  8
0
 10
2793.7825
 20
1997.2362
 30
0.0000
  0
VERTEX
  8
0
 10
2794.3975
 20
1996.6376
 30
0.0000
  0
VERTEX
  8
0
 10
2795.1244
 20
1996.1054
 30
0.0000
  0
VERTEX
  8
0
 10
2795.9489
 20
1995.6498
 30
0.0000
  0
VERTEX
  8
0
 10
2796.8551
 20
1995.2799
 30
0.0000
  0
VERTEX
  8
0
 10
2797.8252
 20
1995.0027
 30
0.0000
  0
VERTEX
  8
0
 10
2798.9696
 20
1994.8085
 30
0.0000
  0
VERTEX
  8
0
 10
2800.1429
 20
1994.7432
 30
0.0000
  0
VERTEX
  8
0
 10
2801.3161
 20
1994.8085
 30
0.0000
  0
VERTEX
  8
0
 10
2802.4605
 20
1995.0027
 30
0.0000
  0
VERTEX
  8
0
 10
2803.4306
 20
1995.2799
 30
0.0000
  0
VERTEX
  8
0
 10
2804.3368
 20
1995.6498
 30
0.0000
  0
VERTEX
  8
0
 10
2805.1613
 20
1996.1054
 30
0.0000
  0
VERTEX
  8
0
 10
2805.4462
 20
1996.2965
 30
0.0000
  0
SEQEND
  0
POLYLINE
  6
continous
  8
BYBLOCK
 70
0
 66
1
  0
VERTEX
  8
0
 10
2794.8396
 20
2003.7965
 30
0.0000
  0
VERTEX
  8
0
 10
2794.1531
 20
2003.2381
 30
0.0000
  0
VERTEX
  8
0
 10
2793.5832
 20
2002.6176
 30
0.0000
  0
VERTEX
  8
0
 10
2793.1410
 20
2001.9470
 30
0.0000
  0
VERTEX
  8
0
 10
2792.8351
 20
2001.2395
 30
0.0000
  0
VERTEX
  8
0
 10
2792.6714
 20
2000.5087
 30
0.0000
  0
VERTEX
  8
0
 10
2792.6429
 20
2000.0465
 30
0.0000
  0
SEQEND
  0
POLYLINE
  6
continous
  8
BYBLOCK
 70
0
 66
1
  0
VERTEX
  8
0
 10
2807.6429
 20
2000.0465
 30
0.0000
  0
VERTEX
  8
0
 10
2807.5699
 20
2000.7846
 30
0.0000
  0
VERTEX
  8
0
 10
2807.3523
 20
2001.5083
 30
0.0000
  0
VERTEX
  8
0
 10
2806.9944
 20
2002.2035
 30
0.0000
  0
VERTEX
  8
0
 10
2806.5032
 20
2002.8568
 30
0.0000
  0
VERTEX
  8
0
 10
2805.8882
 20
2003.4554
 30
0.0000
  0
VERTEX
  8
0
 10
2805.1613
 20
2003.9876
 30
0.0000
  0
VERTEX
  8
0
 10
2804.3368
 20
2004.4431
 30
0.0000
  0
VERTEX
  8
0
 10
2803.4306
 20
2004.8131
 30
0.0000
  0
VERTEX
  8
0
 10
2802.4605
 20
2005.0902
 30
0.0000
  0
VERTEX
  8
0
 10
2801.3161
 20
2005.2845
 30
0.0000
  0
VERTEX
  8
0
 10
2800.1429
 20
2005.3498
 30
0.0000
  0
VERTEX
  8
0
 10
2798.9696
 20
2005.2845
 30
0.0000
  0
VERTEX
  8
0
 10
2797.8252
 20
2005.0902
 30
0.0000
  0
VERTEX
  8
0
 10
2796.8551
 20
2004.8131
 30
0.0000
  0
VERTEX
  8
0
 10
2795.9489
 20
2004.4431
 30
0.0000
  0
VERTEX
  8
0
 10
2795.1244
 20
2003.9876
 30
0.0000
  0
VERTEX
  8
0
 10
2794.8396
 20
2003.7965
 30
0.0000
  0
SEQEND
  0
POLYLINE
  6
continous
  8
BYBLOCK
 70
0
 66
1
  0
VERTEX
  8
0
 10
2805.4462
 20
1996.2965
 30
0.0000
  0
VERTEX
  8
0
 10
2806.1326
 20
1996.8549
 30
0.0000
  0
VERTEX
  8
0
 10
2806.7025
 20
1997.4754
 30
0.0000
  0
VERTEX
  8
0
 10
2807.1447
 20
1998.1459
 30
0.0000
  0
VERTEX
  8
0
 10
2807.4506
 20
1998.8535
 30
0.0000
  0
VERTEX
  8
0
 10
2807.6143
 20
1999.5843
 30
0.0000
  0
VERTEX
  8
0
 10
2807.6429
 20
2000.0465
 30
0.0000
  0
SEQEND
  0
POLYLINE
  6
continous
  8
BYBLOCK
 70
0
 66
1
  0
VERTEX
  8
0
 10
2736.0743
 20
1960.0465
 30
0.0000
  0
VERTEX
  8
0
 10
2736.1473
 20
1959.3084
 30
0.0000
  0
VERTEX
  8
0
 10
2736.3648
 20
1958.5847
 30
0.0000
  0
VERTEX
  8
0
 10
2736.7227
 20
1957.8894
 30
0.0000
  0
VERTEX
  8
0
 10
2737.2140
 20
1957.2362
 30
0.0000
  0
VERTEX
  8
0
 10
2737.8290
 20
1956.6376
 30
0.0000
  0
VERTEX
  8
0
 10
2738.5558
 20
1956.1054
 30
0.0000
  0
VERTEX
  8
0
 10
2739.3804
 20
1955.6498
 30
0.0000
  0
VERTEX
  8
0
 10
2740.2865
 20
1955.2799
 30
0.0000
  0
VERTEX
  8
0
 10
2741.2567
 20
1955.0027
 30
0.0000
  0
VERTEX
  8
0
 10
2742.4011
 20
1954.8085
 30
0.0000
  0
VERTEX
  8
0
 10
2743.5743
 20
1954.7432
 30
0.0000
  0
VERTEX
  8
0
 10
2744.7476
 20
1954.8085
 30
0.0000
  0
VERTEX
  8
0
 10
2745.8919
 20
1955.0027
 30
0.0000
  0
VERTEX
  8
0
 10
2746.8621
 20
1955.2799
 30
0.0000
  0
VERTEX
  8
0
 10
2747.7683
 20
1955.6498
 30
0.0000
  0
VERTEX
  8
0
 10
2748.5928
 20
1956.1054
 30
0.0000
  0
VERTEX
  8
0
 10
2748.8776
 20
1956.2965
 30
0.0000
  0
SEQEND
  0
POLYLINE
  6
continous
  8
BYBLOCK
 70
0
 66
1
  0
VERTEX
  8
0
 10
2738.2710
 20
1963.7965
 30
0.0000
  0
VERTEX
  8
0
 10
2737.5845
 20
1963.2381
 30
0.0000
  0
VERTEX
  8
0
 10
2737.0147
 20
1962.6176
 30
0.0000
  0
VERTEX
  8
0
 10
2736.5725
 20
1961.9470
 30
0.0000
  0
VERTEX
  8
0
 10
2736.2665
 20
1961.2395
 30
0.0000
  0
VERTEX
  8
0
 10
2736.1029
 20
1960.5087
 30
0.0000
  0
VERTEX
  8
0
 10
2736.0743
 20
1960.0465
 30
0.0000
  0
SEQEND
  0
POLYLINE
  6
continous
  8
BYBLOCK
 70
0
 66
1
  0
VERTEX
  8
0
 10
2751.0743
 20
1960.0465
 30
0.0000
  0
VERTEX
  8
0
 10
2751.0013
 20
1960.7846
 30
0.0000
  0
VERTEX
  8
0
 10
2750.7838
 20
1961.5083
 30
0.0000
  0
VERTEX
  8
0
 10
2750.4259
 20
1962.2035
 30
0.0000
  0
VERTEX
  8
0
 10
2749.9347
 20
1962.8568
 30
0.0000
  0
VERTEX
  8
0
 10
2749.3196
 20
1963.4554
 30
0.0000
  0
VERTEX
  8
0
 10
2748.5928
 20
1963.9876
 30
0.0000
  0
VERTEX
  8
0
 10
2747.7683
 20
1964.4431
 30
0.0000
  0
VERTEX
  8
0
 10
2746.8621
 20
1964.8131
 30
0.0000
  0
VERTEX
  8
0
 10
2745.8919
 20
1965.0902
 30
0.0000
  0
VERTEX
  8
0
 10
2744.7476
 20
1965.2845
 30
0.0000
  0
VERTEX
  8
0
 10
2743.5743
 20
1965.3498
 30
0.0000
  0
VERTEX
  8
0
 10
2742.4011
 20
1965.2845
 30
0.0000
  0
VERTEX
  8
0
 10
2741.2567
 20
1965.0902
 30
0.0000
  0
VERTEX
  8
0
 10
2740.2865
 20
1964.8131
 30
0.0000
  0
VERTEX
  8
0
 10
2739.3804
 20
1964.4431
 30
0.0000
  0
VERTEX
  8
0
 10
2738.5558
 20
1963.9876
 30
0.0000
  0
VERTEX
  8
0
 10
2738.2710
 20
1963.7965
 30
0.0000
  0
SEQEND
  0
POLYLINE
  6
continous
  8
BYBLOCK
 70
0
 66
1
  0
VERTEX
  8
0
 10
2748.8776
 20
1956.2965
 30
0.0000
  0
VERTEX
  8
0
 10
2749.5641
 20
1956.8549
 30
0.0000
  0
VERTEX
  8
0
 10
2750.1340
 20
1957.4754
 30
0.0000
  0
VERTEX
  8
0
 10
2750.5762
 20
1958.1459
 30
0.0000
  0
VERTEX
  8
0
 10
2750.8821
 20
1958.8535
 30
0.0000
  0
VERTEX
  8
0
 10
2751.0458
 20
1959.5843
 30
0.0000
  0
VERTEX
  8
0
 10
2751.0743
 20
1960.0465
 30
0.0000
  0
SEQEND
  0
POLYLINE
  6
continous
  8
BYBLOCK
 70
0
 66
1
  0
VERTEX
  8
0
 10
2679.5058
 20
1920.0465
 30
0.0000
  0
VERTEX
  8
0
 10
2679.5788
 20
1919.3084
 30
0.0000
  0
VERTEX
  8
0
 10
2679.7963
 20
1918.5847
 30
0.0000
  0
VERTEX
  8
0
 10
2680.1542
 20
1917.8894
 30
0.0000
  0
VERTEX
  8
0
 10
2680.6454
 20
1917.2362
 30
0.0000
  0
VERTEX
  8
0
 10
2681.2604
 20
1916.6376
 30
0.0000
  0
VERTEX
  8
0
 10
2681.9873
 20
1916.1054
 30
0.0000
  0
VERTEX
  8
0
 10
2682.8118
 20
1915.6498
 30
0.0000
  0
VERTEX
  8
0
 10
2683.7180
 20
1915.2799
 30
0.0000
  0
VERTEX
  8
0
 10
2684.6881
 20
1915.0027
 30
0.0000
  0
VERTEX
  8
0
 10
2685.8325
 20
1914.8085
 30
0.0000
  0
VERTEX
  8
0
 10
2687.0058
 20
1914.7432
 30
0.0000
  0
VERTEX
  8
0
 10
2688.1790
 20
1914.8085
 30
0.0000
  0
VERTEX
  8
0
 10
2689.3234
 20
1915.0027
 30
0.0000
  0
VERTEX
  8
0
 10
2690.2936
 20
1915.2799
 30
0.0000
  0
VERTEX
  8
0
 10
2691.1997
 20
1915.6498
 30
0.0000
  0
VERTEX
  8
0
 10
2692.0242
 20
1916.1054
 30
0.0000
  0
VERTEX
  8
0
 10
2692.3091
 20
1916.2965
 30
0.0000
  0
SEQEND
  0
POLYLINE
  6
continous
  8
BYBLOCK
 70
0
 66
1
  0
VERTEX
  8
0
 10
2681.7025
 20
1923.7965
 30
0.0000
  0
VERTEX
  8
0
 10
2681.0160
 20
1923.2381
 30
0.0000
  0
VERTEX
  8
0
 10
2680.4461
 20
1922.6176
 30
0.0000
  0
VERTEX
  8
0
 10
2680.0039
 20
1921.9470
 30
0.0000
  0
VERTEX
  8
0
 10
2679.6980
 20
1921.2395
 30
0.0000
  0
VERTEX
  8
0
 10
2679.5343
 20
1920.5087
 30
0.0000
  0
VERTEX
  8
0
 10
2679.5058
 20
1920.0465
 30
0.0000
  0
SEQEND
  0
POLYLINE
  6
continous
  8
BYBLOCK
 70
0
 66
1
  0
VERTEX
  8
0
 10
2694.5058
 20
1920.0465
 30
0.0000
  0
VERTEX
  8
0
 10
2694.4328
 20
1920.7846
 30
0.0000
  0
VERTEX
  8
0
 10
2694.2152
 20
1921.5083
 30
0.0000
  0
VERTEX
  8
0
 10
2693.8574
 20
1922.2035
 30
0.0000
  0
VERTEX
  8
0
 10
2693.3661
 20
1922.8568
 30
0.0000
  0
VERTEX
  8
0
 10
2692.7511
 20
1923.4554
 30
0.0000
  0
VERTEX
  8
0
 10
2692.0242
 20
1923.9876
 30
0.0000
  0
VERTEX
  8
0
 10
2691.1997
 20
1924.4431
 30
0.0000
  0
VERTEX
  8
0
 10
2690.2936
 20
1924.8131
 30
0.0000
  0
VERTEX
  8
0
 10
2689.3234
 20
1925.0902
 30
0.0000
  0
VERTEX
  8
0
 10
2688.1790
 20
1925.2845
 30
0.0000
  0
VERTEX
  8
0
 10
2687.0058
 20
1925.3498
 30
0.0000
  0
VERTEX
  8
0
 10
2685.8325
 20
1925.2845
 30
0.0000
  0
VERTEX
  8
0
 10
2684.6881
 20
1925.0902
 30
0.0000
  0
VERTEX
  8
0
 10
2683.7180
 20
1924.8131
 30
0.0000
  0
VERTEX
  8
0
 10
2682.8118
 20
1924.4431
 30
0.0000
  0
VERTEX
  8
0
 10
2681.9873
 20
1923.9876
 30
0.0000
  0
VERTEX
  8
0
 10
2681.7025
 20
1923.7965
 30
0.0000
  0
SEQEND
  0
POLYLINE
  6
continous
  8
BYBLOCK
 70
0
 66
1
  0
VERTEX
  8
0
 10
2692.3091
 20
1916.2965
 30
0.0000
  0
VERTEX
  8
0
 10
2692.9955
 20
1916.8549
 30
0.0000
  0
VERTEX
  8
0
 10
2693.5654
 20
1917.4754
 30
0.0000
  0
VERTEX
  8
0
 10
2694.0076
 20
1918.1459
 30
0.0000
  0
VERTEX
  8
0
 10
2694.3135
 20
1918.8535
 30
0.0000
  0
VERTEX
  8
0
 10
2694.4772
 20
1919.5843
 30
0.0000
  0
VERTEX
  8
0
 10
2694.5058
 20
1920.0465
 30
0.0000
  0
SEQEND
  0
POLYLINE
  6
continous
  8
BYBLOCK
 70
0
 66
1
  0
VERTEX
  8
0
 10
2622.9372
 20
1880.0465
 30
0.0000
  0
VERTEX
  8
0
 10
2623.0102
 20
1879.3084
 30
0.0000
  0
VERTEX
  8
0
 10
2623.2278
 20
1878.5847
 30
0.0000
  0
VERTEX
  8
0
 10
2623.5856
 20
1877.8894
 30
0.0000
  0
VERTEX
  8
0
 10
2624.0769
 20
1877.2362
 30
0.0000
  0
VERTEX
  8
0
 10
2624.6919
 20
1876.6376
 30
0.0000
  0
VERTEX
  8
0
 10
2625.4187
 20
1876.1054
 30
0.0000
  0
VERTEX
  8
0
 10
2626.2433
 20
1875.6498
 30
0.0000
  0
VERTEX
  8
0
 10
2627.1494
 20
1875.2799
 30
0.0000
  0
VERTEX
  8
0
 10
2628.1196
 20
1875.0027
 30
0.0000
  0
VERTEX
  8
0
 10
2629.2640
 20
1874.8085
 30
0.0000
  0
VERTEX
  8
0
 10
2630.4372
 20
1874.7432
 30
0.0000
  0
VERTEX
  8
0
 10
2631.6105
 20
1874.8085
 30
0.0000
  0
VERTEX
  8
0
 10
2632.7549
 20
1875.0027
 30
0.0000
  0
VERTEX
  8
0
 10
2633.7250
 20
1875.2799
 30
0.0000
  0
VERTEX
  8
0
 10
2634.6312
 20
1875.6498
 30
0.0000
  0
VERTEX
  8
0
 10
2635.4557
 20
1876.1054
 30
0.0000
  0
VERTEX
  8
0
 10
2635.7405
 20
1876.2965
 30
0.0000
  0
SEQEND
  0
POLYLINE
  6
continous
  8
BYBLOCK
 70
0
 66
1
  0
VERTEX
  8
0
 10
2625.1339
 20
1883.7965
 30
0.0000
  0
VERTEX
  8
0
 10
2624.4475
 20
1883.2381
 30
0.0000
  0
VERTEX
  8
0
 10
2623.8776
 20
1882.6176
 30
0.0000
  0
VERTEX
  8
0
 10
2623.4354
 20
1881.9470
 30
0.0000
  0
VERTEX
  8
0
 10
2623.1295
 20
1881.2395
 30
0.0000
  0
VERTEX
  8
0
 10
2622.9658
 20
1880.5087
 30
0.0000
  0
VERTEX
  8
0
 10
2622.9372
 20
1880.0465
 30
0.0000
  0
SEQEND
  0
POLYLINE
  6
continous
  8
BYBLOCK
 70
0
 66
1
  0
VERTEX
  8
0
 10
2637.9372
 20
1880.0465
 30
0.0000
  0
VERTEX
  8
0
 10
2637.8642
 20
1880.7846
 30
0.0000
  0
VERTEX
  8
0
 10
2637.6467
 20
1881.5083
 30
0.0000
  0
VERTEX
  8
0
 10
2637.2888
 20
1882.2035
 30
0.0000
  0
VERTEX
  8
0
 10
2636.7976
 20
1882.8568
 30
0.0000
  0
VERTEX
  8
0
 10
2636.1826
 20
1883.4554
 30
0.0000
  0
VERTEX
  8
0
 10
2635.4557
 20
1883.9876
 30
0.0000
  0
VERTEX
  8
0
 10
2634.6312
 20
1884.4431
 30
0.0000
  0
VERTEX
  8
0
 10
2633.7250
 20
1884.8131
 30
0.0000
  0
VERTEX
  8
0
 10
2632.7549
 20
1885.0902
 30
0.0000
  0
VERTEX
  8
0
 10
2631.6105
 20
1885.2845
 30
0.0000
  0
VERTEX
  8
0
 10
2630.4372
 20
1885.3498
 30
0.0000
  0
VERTEX
  8
0
 10
2629.2640
 20
1885.2845
 30
0.0000
  0
VERTEX
  8
0
 10
2628.1196
 20
1885.0902
 30
0.0000
  0
VERTEX
  8
0
 10
2627.1494
 20
1884.8131
 30
0.0000
  0
VERTEX
  8
0
 10
2626.2433
 20
1884.4431
 30
0.0000
  0
VERTEX
  8
0
 10
2625.4187
 20
1883.9876
 30
0.0000
  0
VERTEX
  8
0
 10
2625.1339
 20
1883.7965
 30
0.0000
  0
SEQEND
  0
POLYLINE
  6
continous
  8
BYBLOCK
 70
0
 66
1
  0
VERTEX
  8
0
 10
2635.7405
 20
1876.2965
 30
0.0000
  0
VERTEX
  8
0
 10
2636.4270
 20
1876.8549
 30
0.0000
  0
VERTEX
  8
0
 10
2636.9969
 20
1877.4754
 30
0.0000
  0
VERTEX
  8
0
 10
2637.4391
 20
1878.1459
 30
0.0000
  0
VERTEX
  8
0
 10
2637.7450
 20
1878.8535
 30
0.0000
  0
VERTEX
  8
0
 10
2637.9087
 20
1879.5843
 30
0.0000
  0
VERTEX
  8
0
 10
2637.9372
 20
1880.0465
 30
0.0000
  0
SEQEND
  0
POLYLINE
  6
continous
  8
BYBLOCK
 70
0
 66
1
  0
VERTEX
  8
0
 10
2566.3687
 20
1840.0465
 30
0.0000
  0
VERTEX
  8
0
 10
2566.4417
 20
1839.3084
 30
0.0000
  0
VERTEX
  8
0
 10
2566.6592
 20
1838.5847
 30
0.0000
  0
VERTEX
  8
0
 10
2567.0171
 20
1837.8894
 30
0.0000
  0
VERTEX
  8
0
 10
2567.5083
 20
1837.2362
 30
0.0000
  0
VERTEX
  8
0
 10
2568.1234
 20
1836.6376
 30
0.0000
  0
VERTEX
  8
0
 10
2568.8502
 20
1836.1054
 30
0.0000
  0
VERTEX
  8
0
 10
2569.6747
 20
1835.6498
 30
0.0000
  0
VERTEX
  8
0
 10
2570.5809
 20
1835.2799
 30
0.0000
  0
VERTEX
  8
0
 10
2571.5511
 20
1835.0027
 30
0.0000
  0
VERTEX
  8
0
 10
2572.6954
 20
1834.8085
 30
0.0000
  0
VERTEX
  8
0
 10
2573.8687
 20
1834.7432
 30
0.0000
  0
VERTEX
  8
0
 10
2575.0419
 20
1834.8085
 30
0.0000
  0
VERTEX
  8
0
 10
2576.1863
 20
1835.0027
 30
0.0000
  0
VERTEX
  8
0
 10
2577.1565
 20
1835.2799
 30
0.0000
  0
VERTEX
  8
0
 10
2578.0626
 20
1835.6498
 30
0.0000
  0
VERTEX
  8
0
 10
2578.8872
 20
1836.1054
 30
0.0000
  0
VERTEX
  8
0
 10
2579.1720
 20
1836.2965
 30
0.0000
  0
SEQEND
  0
POLYLINE
  6
continous
  8
BYBLOCK
 70
0
 66
1
  0
VERTEX
  8
0
 10
2568.5654
 20
1843.7965
 30
0.0000
  0
VERTEX
  8
0
 10
2567.8789
 20
1843.2381
 30
0.0000
  0
VERTEX
  8
0
 10
2567.3090
 20
1842.6176
 30
0.0000
  0
VERTEX
  8
0
 10
2566.8668
 20
1841.9470
 30
0.0000
  0
VERTEX
  8
0
 10
2566.5609
 20
1841.2395
 30
0.0000
  0
VERTEX
  8
0
 10
2566.3972
 20
1840.5087
 30
0.0000
  0
VERTEX
  8
0
 10
2566.3687
 20
1840.0465
 30
0.0000
  0
SEQEND
  0
POLYLINE
  6
continous
  8
BYBLOCK
 70
0
 66
1
  0
VERTEX
  8
0
 10
2581.3687
 20
1840.0465
 30
0.0000
  0
VERTEX
  8
0
 10
2581.2957
 20
1840.7846
 30
0.0000
  0
VERTEX
  8
0
 10
2581.0781
 20
1841.5083
 30
0.0000
  0
VERTEX
  8
0
 10
2580.7203
 20
1842.2035
 30
0.0000
  0
VERTEX
  8
0
 10
2580.2290
 20
1842.8568
 30
0.0000
  0
VERTEX
  8
0
 10
2579.6140
 20
1843.4554
 30
0.0000
  0
VERTEX
  8
0
 10
2578.8872
 20
1843.9876
 30
0.0000
  0
VERTEX
  8
0
 10
2578.0626
 20
1844.4431
 30
0.0000
  0
VERTEX
  8
0
 10
2577.1565
 20
1844.8131
 30
0.0000
  0
VERTEX
  8
0
 10
2576.1863
 20
1845.0902
 30
0.0000
  0
VERTEX
  8
0
 10
2575.0419
 20
1845.2845
 30
0.0000
  0
VERTEX
  8
0
 10
2573.8687
 20
1845.3498
 30
0.0000
  0
VERTEX
  8
0
 10
2572.6954
 20
1845.2845
 30
0.0000
  0
VERTEX
  8
0
 10
2571.5511
 20
1845.0902
 30
0.0000
  0
VERTEX
  8
0
 10
2570.5809
 20
1844.8131
 30
0.0000
  0
VERTEX
  8
0
 10
2569.6747
 20
1844.4431
 30
0.0000
  0
VERTEX
  8
0
 10
2568.8502
 20
1843.9876
 30
0.0000
  0
VERTEX
  8
0
 10
2568.5654
 20
1843.7965
 30
0.0000
  0
SEQEND
  0
POLYLINE
  6
continous
  8
BYBLOCK
 70
0
 66
1
  0
VERTEX
  8
0
 10
2579.1720
 20
1836.2965
 30
0.0000
  0
VERTEX
  8
0
 10
2579.8584
 20
1836.8549
 30
0.0000
  0
VERTEX
  8
0
 10
2580.4283
 20
1837.4754
 30
0.0000
  0
VERTEX
  8
0
 10
2580.8705
 20
1838.1459
 30
0.0000
  0
VERTEX
  8
0
 10
2581.1765
 20
1838.8535
 30
0.0000
  0
VERTEX
  8
0
 10
2581.3401
 20
1839.5843
 30
0.0000
  0
VERTEX
  8
0
 10
2581.3687
 20
1840.0465
 30
0.0000
  0
SEQEND
  0
POLYLINE
  6
continous
  8
BYBLOCK
 70
0
 66
1
  0
VERTEX
  8
0
 10
2509.8001
 20
1800.0465
 30
0.0000
  0
VERTEX
  8
0
 10
2509.8731
 20
1799.3084
 30
0.0000
  0
VERTEX
  8
0
 10
2510.0907
 20
1798.5847
 30
0.0000
  0
VERTEX
  8
0
 10
2510.4486
 20
1797.8894
 30
0.0000
  0
VERTEX
  8
0
 10
2510.9398
 20
1797.2362
 30
0.0000
  0
VERTEX
  8
0
 10
2511.5548
 20
1796.6376
 30
0.0000
  0
VERTEX
  8
0
 10
2512.2817
 20
1796.1054
 30
0.0000
  0
VERTEX
  8
0
 10
2513.1062
 20
1795.6498
 30
0.0000
  0
VERTEX
  8
0
 10
2514.0124
 20
1795.2799
 30
0.0000
  0
VERTEX
  8
0
 10
2514.9825
 20
1795.0027
 30
0.0000
  0
VERTEX
  8
0
 10
2516.1269
 20
1794.8085
 30
0.0000
  0
VERTEX
  8
0
 10
2517.3001
 20
1794.7432
 30
0.0000
  0
VERTEX
  8
0
 10
2518.4734
 20
1794.8085
 30
0.0000
  0
VERTEX
  8
0
 10
2519.6178
 20
1795.0027
 30
0.0000
  0
VERTEX
  8
0
 10
2520.5879
 20
1795.2799
 30
0.0000
  0
VERTEX
  8
0
 10
2521.4941
 20
1795.6498
 30
0.0000
  0
VERTEX
  8
0
 10
2522.3186
 20
1796.1054
 30
0.0000
  0
VERTEX
  8
0
 10
2522.6034
 20
1796.2965
 30
0.0000
  0
SEQEND
  0
POLYLINE
  6
continous
  8
BYBLOCK
 70
0
 66
1
  0
VERTEX
  8
0
 10
2511.9968
 20
1803.7965
 30
0.0000
  0
VERTEX
  8
0
 10
2511.3104
 20
1803.2381
 30
0.0000
  0
VERTEX
  8
0
 10
2510.7405
 20
1802.6176
 30
0.0000
  0
VERTEX
  8
0
 10
2510.2983
 20
1801.9470
 30
0.0000
  0
VERTEX
  8
0
 10
2509.9924
 20
1801.2395
 30
0.0000
  0
VERTEX
  8
0
 10
2509.8287
 20
1800.5087
 30
0.0000
  0
VERTEX
  8
0
 10
2509.8001
 20
1800.0465
 30
0.0000
  0
SEQEND
  0
POLYLINE
  6
continous
  8
BYBLOCK
 70
0
 66
1
  0
VERTEX
  8
0
 10
2524.8001
 20
1800.0465
 30
0.0000
  0
VERTEX
  8
0
 10
2524.7272
 20
1800.7846
 30
0.0000
  0
VERTEX
  8
0
 10
2524.5096
 20
1801.5083
 30
0.0000
  0
VERTEX
  8
0
 10
2524.1517
 20
1802.2035
 30
0.0000
  0
VERTEX
  8
0
 10
2523.6605
 20
1802.8568
 30
0.0000
  0
VERTEX
  8
0
 10
2523.0455
 20
1803.4554
 30
0.0000
  0
VERTEX
  8
0
 10
2522.3186
 20
1803.9876
 30
0.0000
  0
VERTEX
  8
0
 10
2521.4941
 20
1804.4431
 30
0.0000
  0
VERTEX
  8
0
 10
2520.5879
 20
1804.8131
 30
0.0000
  0
VERTEX
  8
0
 10
2519.6178
 20
1805.0902
 30
0.0000
  0
VERTEX
  8
0
 10
2518.4734
 20
1805.2845
 30
0.0000
  0
VERTEX
  8
0
 10
2517.3001
 20
1805.3498
 30
0.0000
  0
VERTEX
  8
0
 10
2516.1269
 20
1805.2845
 30
0.0000
  0
VERTEX
  8
0
 10
2514.9825
 20
1805.0902
 30
0.0000
  0
VERTEX
  8
0
 10
2514.0124
 20
1804.8131
 30
0.0000
  0
VERTEX
  8
0
 10
2513.1062
 20
1804.4431
 30
0.0000
  0
VERTEX
  8
0
 10
2512.2817
 20
1803.9876
 30
0.0000
  0
VERTEX
  8
0
 10
2511.9968
 20
1803.7965
 30
0.0000
  0
SEQEND
  0
POLYLINE
  6
continous
  8
BYBLOCK
 70
0
 66
1
  0
VERTEX
  8
0
 10
2522.6034
 20
1796.2965
 30
0.0000
  0
VERTEX
  8
0
 10
2523.2899
 20
1796.8549
 30
0.0000
  0
VERTEX
  8
0
 10
2523.8598
 20
1797.4754
 30
0.0000
  0
VERTEX
  8
0
 10
2524.3020
 20
1798.1459
 30
0.0000
  0
VERTEX
  8
0
 10
2524.6079
 20
1798.8535
 30
0.0000
  0
VERTEX
  8
0
 10
2524.7716
 20
1799.5843
 30
0.0000
  0
VERTEX
  8
0
 10
2524.8001
 20
1800.0465
 30
0.0000
  0
SEQEND
  0
POLYLINE
  6
continous
  8
BYBLOCK
 70
0
 66
1
  0
VERTEX
  8
0
 10
2453.2316
 20
1760.0465
 30
0.0000
  0
VERTEX
  8
0
 10
2453.3046
 20
1759.3084
 30
0.0000
  0
VERTEX
  8
0
 10
2453.5221
 20
1758.5847
 30
0.0000
  0
VERTEX
  8
0
 10
2453.8800
 20
1757.8894
 30
0.0000
  0
VERTEX
  8
0
 10
2454.3712
 20
1757.2362
 30
0.0000
  0
VERTEX
  8
0
 10
2454.9863
 20
1756.6376
 30
0.0000
  0
VERTEX
  8
0
 10
2455.7131
 20
1756.1054
 30
0.0000
  0
VERTEX
  8
0
 10
2456.5377
 20
1755.6498
 30
0.0000
  0
VERTEX
  8
0
 10
2457.4438
 20
1755.2799
 30
0.0000
  0
VERTEX
  8
0
 10
2458.4140
 20
1755.0027
 30
0.0000
  0
VERTEX
  8
0
 10
2459.5583
 20
1754.8085
 30
0.0000
  0
VERTEX
  8
0
 10
2460.7316
 20
1754.7432
 30
0.0000
  0
VERTEX
  8
0
 10
2461.9049
 20
1754.8085
 30
0.0000
  0
VERTEX
  8
0
 10
2463.0492
 20
1755.0027
 30
0.0000
  0
VERTEX
  8
0
 10
2464.0194
 20
1755.2799
 30
0.0000
  0
VERTEX
  8
0
 10
2464.9255
 20
1755.6498
 30
0.0000
  0
VERTEX
  8
0
 10
2465.7501
 20
1756.1054
 30
0.0000
  0
VERTEX
  8
0
 10
2466.0349
 20
1756.2965
 30
0.0000
  0
SEQEND
  0
POLYLINE
  6
continous
  8
BYBLOCK
 70
0
 66
1
  0
VERTEX
  8
0
 10
2455.4283
 20
1763.7965
 30
0.0000
  0
VERTEX
  8
0
 10
2454.7418
 20
1763.2381
 30
0.0000
  0
VERTEX
  8
0
 10
2454.1720
 20
1762.6176
 30
0.0000
  0
VERTEX
  8
0
 10
2453.7297
 20
1761.9470
 30
0.0000
  0
VERTEX
  8
0
 10
2453.4238
 20
1761.2395
 30
0.0000
  0
VERTEX
  8
0
 10
2453.2601
 20
1760.5087
 30
0.0000
  0
VERTEX
  8
0
 10
2453.2316
 20
1760.0465
 30
0.0000
  0
SEQEND
  0
POLYLINE
  6
continous
  8
BYBLOCK
 70
0
 66
1
  0
VERTEX
  8
0
 10
2468.2316
 20
1760.0465
 30
0.0000
  0
VERTEX
  8
0
 10
2468.1586
 20
1760.7846
 30
0.0000
  0
VERTEX
  8
0
 10
2467.9411
 20
1761.5083
 30
0.0000
  0
VERTEX
  8
0
 10
2467.5832
 20
1762.2035
 30
0.0000
  0
VERTEX
  8
0
 10
2467.0920
 20
1762.8568
 30
0.0000
  0
VERTEX
  8
0
 10
2466.4769
 20
1763.4554
 30
0.0000
  0
VERTEX
  8
0
 10
2465.7501
 20
1763.9876
 30
0.0000
  0
VERTEX
  8
0
 10
2464.9255
 20
1764.4431
 30
0.0000
  0
VERTEX
  8
0
 10
2464.0194
 20
1764.8131
 30
0.0000
  0
VERTEX
  8
0
 10
2463.0492
 20
1765.0902
 30
0.0000
  0
VERTEX
  8
0
 10
2461.9049
 20
1765.2845
 30
0.0000
  0
VERTEX
  8
0
 10
2460.7316
 20
1765.3498
 30
0.0000
  0
VERTEX
  8
0
 10
2459.5583
 20
1765.2845
 30
0.0000
  0
VERTEX
  8
0
 10
2458.4140
 20
1765.0902
 30
0.0000
  0
VERTEX
  8
0
 10
2457.4438
 20
1764.8131
 30
0.0000
  0
VERTEX
  8
0
 10
2456.5377
 20
1764.4431
 30
0.0000
  0
VERTEX
  8
0
 10
2455.7131
 20
1763.9876
 30
0.0000
  0
VERTEX
  8
0
 10
2455.4283
 20
1763.7965
 30
0.0000
  0
SEQEND
  0
POLYLINE
  6
continous
  8
BYBLOCK
 70
0
 66
1
  0
VERTEX
  8
0
 10
2466.0349
 20
1756.2965
 30
0.0000
  0
VERTEX
  8
0
 10
2466.7214
 20
1756.8549
 30
0.0000
  0
VERTEX
  8
0
 10
2467.2912
 20
1757.4754
 30
0.0000
  0
VERTEX
  8
0
 10
2467.7335
 20
1758.1459
 30
0.0000
  0
VERTEX
  8
0
 10
2468.0394
 20
1758.8535
 30
0.0000
  0
VERTEX
  8
0
 10
2468.2031
 20
1759.5843
 30
0.0000
  0
VERTEX
  8
0
 10
2468.2316
 20
1760.0465
 30
0.0000
  0
SEQEND
  0
POLYLINE
  6
continous
  8
BYBLOCK
 70
0
 66
1
  0
VERTEX
  8
0
 10
2396.6631
 20
1720.0465
 30
0.0000
  0
VERTEX
  8
0
 10
2396.7360
 20
1719.3084
 30
0.0000
  0
VERTEX
  8
0
 10
2396.9536
 20
1718.5847
 30
0.0000
  0
VERTEX
  8
0
 10
2397.3115
 20
1717.8894
 30
0.0000
  0
VERTEX
  8
0
 10
2397.8027
 20
1717.2362
 30
0.0000
  0
VERTEX
  8
0
 10
2398.4177
 20
1716.6376
 30
0.0000
  0
VERTEX
  8
0
 10
2399.1446
 20
1716.1054
 30
0.0000
  0
VERTEX
  8
0
 10
2399.9691
 20
1715.6498
 30
0.0000
  0
VERTEX
  8
0
 10
2400.8753
 20
1715.2799
 30
0.0000
  0
VERTEX
  8
0
 10
2401.8454
 20
1715.0027
 30
0.0000
  0
VERTEX
  8
0
 10
2402.9898
 20
1714.8085
 30
0.0000
  0
VERTEX
  8
0
 10
2404.1631
 20
1714.7432
 30
0.0000
  0
VERTEX
  8
0
 10
2405.3363
 20
1714.8085
 30
0.0000
  0
VERTEX
  8
0
 10
2406.4807
 20
1715.0027
 30
0.0000
  0
VERTEX
  8
0
 10
2407.4508
 20
1715.2799
 30
0.0000
  0
VERTEX
  8
0
 10
2408.3570
 20
1715.6498
 30
0.0000
  0
VERTEX
  8
0
 10
2409.1815
 20
1716.1054
 30
0.0000
  0
VERTEX
  8
0
 10
2409.4664
 20
1716.2965
 30
0.0000
  0
SEQEND
  0
POLYLINE
  6
continous
  8
BYBLOCK
 70
0
 66
1
  0
VERTEX
  8
0
 10
2398.8598
 20
1723.7965
 30
0.0000
  0
VERTEX
  8
0
 10
2398.1733
 20
1723.2381
 30
0.0000
  0
VERTEX
  8
0
 10
2397.6034
 20
1722.6176
 30
0.0000
  0
VERTEX
  8
0
 10
2397.1612
 20
1721.9470
 30
0.0000
  0
VERTEX
  8
0
 10
2396.8553
 20
1721.2395
 30
0.0000
  0
VERTEX
  8
0
 10
2396.6916
 20
1720.5087
 30
0.0000
  0
VERTEX
  8
0
 10
2396.6631
 20
1720.0465
 30
0.0000
  0
SEQEND
  0
POLYLINE
  6
continous
  8
BYBLOCK
 70
0
 66
1
  0
VERTEX
  8
0
 10
2411.6631
 20
1720.0465
 30
0.0000
  0
VERTEX
  8
0
 10
2411.5901
 20
1720.7846
 30
0.0000
  0
VERTEX
  8
0
 10
2411.3725
 20
1721.5083
 30
0.0000
  0
VERTEX
  8
0
 10
2411.0146
 20
1722.2035
 30
0.0000
  0
VERTEX
  8
0
 10
2410.5234
 20
1722.8568
 30
0.0000
  0
VERTEX
  8
0
 10
2409.9084
 20
1723.4554
 30
0.0000
  0
VERTEX
  8
0
 10
2409.1815
 20
1723.9876
 30
0.0000
  0
VERTEX
  8
0
 10
2408.3570
 20
1724.4431
 30
0.0000
  0
VERTEX
  8
0
 10
2407.4508
 20
1724.8131
 30
0.0000
  0
VERTEX
  8
0
 10
2406.4807
 20
1725.0902
 30
0.0000
  0
VERTEX
  8
0
 10
2405.3363
 20
1725.2845
 30
0.0000
  0
VERTEX
  8
0
 10
2404.1631
 20
1725.3498
 30
0.0000
  0
VERTEX
  8
0
 10
2402.9898
 20
1725.2845
 30
0.0000
  0
VERTEX
  8
0
 10
2401.8454
 20
1725.0902
 30
0.0000
  0
VERTEX
  8
0
 10
2400.8753
 20
1724.8131
 30
0.0000
  0
VERTEX
  8
0
 10
2399.9691
 20
1724.4431
 30
0.0000
  0
VERTEX
  8
0
 10
2399.1446
 20
1723.9876
 30
0.0000
  0
VERTEX
  8
0
 10
2398.8598
 20
1723.7965
 30
0.0000
  0
SEQEND
  0
POLYLINE
  6
continous
  8
BYBLOCK
 70
0
 66
1
  0
VERTEX
  8
0
 10
2409.4664
 20
1716.2965
 30
0.0000
  0
VERTEX
  8
0
 10
2410.1528
 20
1716.8549
 30
0.0000
  0
VERTEX
  8
0
 10
2410.7227
 20
1717.4754
 30
0.0000
  0
VERTEX
  8
0
 10
2411.1649
 20
1718.1459
 30
0.0000
  0
VERTEX
  8
0
 10
2411.4708
 20
1718.8535
 30
0.0000
  0
VERTEX
  8
0
 10
2411.6345
 20
1719.5843
 30
0.0000
  0
VERTEX
  8
0
 10
2411.6631
 20
1720.0465
 30
0.0000
  0
SEQEND
  0
POLYLINE
  6
continous
  8
BYBLOCK
 70
0
 66
1
  0
VERTEX
  8
0
 10
2340.0945
 20
1680.0465
 30
0.0000
  0
VERTEX
  8
0
 10
2340.1675
 20
1679.3084
 30
0.0000
  0
VERTEX
  8
0
 10
2340.3851
 20
1678.5847
 30
0.0000
  0
VERTEX
  8
0
 10
2340.7429
 20
1677.8894
 30
0.0000
  0
VERTEX
  8
0
 10
2341.2342
 20
1677.2362
 30
0.0000
  0
VERTEX
  8
0
 10
2341.8492
 20
1676.6376
 30
0.0000
  0
VERTEX
  8
0
 10
2342.5760
 20
1676.1054
 30
0.0000
  0
VERTEX
  8
0
 10
2343.4006
 20
1675.6498
 30
0.0000
  0
VERTEX
  8
0
 10
2344.3067
 20
1675.2799
 30
0.0000
  0
VERTEX
  8
0
 10
2345.2769
 20
1675.0027
 30
0.0000
  0
VERTEX
  8
0
 10
2346.4213
 20
1674.8085
 30
0.0000
  0
VERTEX
  8
0
 10
2347.5945
 20
1674.7432
 30
0.0000
  0
VERTEX
  8
0
 10
2348.7678
 20
1674.8085
 30
0.0000
  0
VERTEX
  8
0
 10
2349.9121
 20
1675.0027
 30
0.0000
  0
VERTEX
  8
0
 10
2350.8823
 20
1675.2799
 30
0.0000
  0
VERTEX
  8
0
 10
2351.7885
 20
1675.6498
 30
0.0000
  0
VERTEX
  8
0
 10
2352.6130
 20
1676.1054
 30
0.0000
  0
VERTEX
  8
0
 10
2352.8978
 20
1676.2965
 30
0.0000
  0
SEQEND
  0
POLYLINE
  6
continous
  8
BYBLOCK
 70
0
 66
1
  0
VERTEX
  8
0
 10
2342.2912
 20
1683.7965
 30
0.0000
  0
VERTEX
  8
0
 10
2341.6047
 20
1683.2381
 30
0.0000
  0
VERTEX
  8
0
 10
2341.0349
 20
1682.6176
 30
0.0000
  0
VERTEX
  8
0
 10
2340.5927
 20
1681.9470
 30
0.0000
  0
VERTEX
  8
0
 10
2340.2867
 20
1681.2395
 30
0.0000
  0
VERTEX
  8
0
 10
2340.1231
 20
1680.5087
 30
0.0000
  0
VERTEX
  8
0
 10
2340.0945
 20
1680.0465
 30
0.0000
  0
SEQEND
  0
POLYLINE
  6
continous
  8
BYBLOCK
 70
0
 66
1
  0
VERTEX
  8
0
 10
2355.0945
 20
1680.0465
 30
0.0000
  0
VERTEX
  8
0
 10
2355.0215
 20
1680.7846
 30
0.0000
  0
VERTEX
  8
0
 10
2354.8040
 20
1681.5083
 30
0.0000
  0
VERTEX
  8
0
 10
2354.4461
 20
1682.2035
 30
0.0000
  0
VERTEX
  8
0
 10
2353.9549
 20
1682.8568
 30
0.0000
  0
VERTEX
  8
0
 10
2353.3398
 20
1683.4554
 30
0.0000
  0
VERTEX
  8
0
 10
2352.6130
 20
1683.9876
 30
0.0000
  0
VERTEX
  8
0
 10
2351.7885
 20
1684.4431
 30
0.0000
  0
VERTEX
  8
0
 10
2350.8823
 20
1684.8131
 30
0.0000
  0
VERTEX
  8
0
 10
2349.9121
 20
1685.0902
 30
0.0000
  0
VERTEX
  8
0
 10
2348.7678
 20
1685.2845
 30
0.0000
  0
VERTEX
  8
0
 10
2347.5945
 20
1685.3498
 30
0.0000
  0
VERTEX
  8
0
 10
2346.4213
 20
1685.2845
 30
0.0000
  0
VERTEX
  8
0
 10
2345.2769
 20
1685.0902
 30
0.0000
  0
VERTEX
  8
0
 10
2344.3067
 20
1684.8131
 30
0.0000
  0
VERTEX
  8
0
 10
2343.4006
 20
1684.4431
 30
0.0000
  0
VERTEX
  8
0
 10
2342.5760
 20
1683.9876
 30
0.0000
  0
VERTEX
  8
0
 10
2342.2912
 20
1683.7965
 30
0.0000
  0
SEQEND
  0
POLYLINE
  6
continous
  8
BYBLOCK
 70
0
 66
1
  0
VERTEX
  8
0
 10
2352.8978
 20
1676.2965
 30
0.0000
  0
VERTEX
  8
0
 10
2353.5843
 20
1676.8549
 30
0.0000
  0
VERTEX
  8
0
 10
2354.1542
 20
1677.4754
 30
0.0000
  0
VERTEX
  8
0
 10
2354.5964
 20
1678.1459
 30
0.0000
  0
VERTEX
  8
0
 10
2354.9023
 20
1678.8535
 30
0.0000
  0
VERTEX
  8
0
 10
2355.0660
 20
1679.5843
 30
0.0000
  0
VERTEX
  8
0
 10
2355.0945
 20
1680.0465
 30
0.0000
  0
SEQEND
  0
POLYLINE
  6
continous
  8
BYBLOCK
 70
0
 66
1
  0
VERTEX
  8
0
 10
2283.5260
 20
1640.0465
 30
0.0000
  0
VERTEX
  8
0
 10
2283.5990
 20
1639.3084
 30
0.0000
  0
VERTEX
  8
0
 10
2283.8165
 20
1638.5847
 30
0.0000
  0
VERTEX
  8
0
 10
2284.1744
 20
1637.8894
 30
0.0000
  0
VERTEX
  8
0
 10
2284.6656
 20
1637.2362
 30
0.0000
  0
VERTEX
  8
0
 10
2285.2806
 20
1636.6376
 30
0.0000
  0
VERTEX
  8
0
 10
2286.0075
 20
1636.1054
 30
0.0000
  0
VERTEX
  8
0
 10
2286.8320
 20
1635.6498
 30
0.0000
  0
VERTEX
  8
0
 10
2287.7382
 20
1635.2799
 30
0.0000
  0
VERTEX
  8
0
 10
2288.7083
 20
1635.0027
 30
0.0000
  0
VERTEX
  8
0
 10
2289.8527
 20
1634.8085
 30
0.0000
  0
VERTEX
  8
0
 10
2291.0260
 20
1634.7432
 30
0.0000
  0
VERTEX
  8
0
 10
2292.1992
 20
1634.8085
 30
0.0000
  0
VERTEX
  8
0
 10
2293.3436
 20
1635.0027
 30
0.0000
  0
VERTEX
  8
0
 10
2294.3138
 20
1635.2799
 30
0.0000
  0
VERTEX
  8
0
 10
2295.2199
 20
1635.6498
 30
0.0000
  0
VERTEX
  8
0
 10
2296.0445
 20
1636.1054
 30
0.0000
  0
VERTEX
  8
0
 10
2296.3293
 20
1636.2965
 30
0.0000
  0
SEQEND
  0
POLYLINE
  6
continous
  8
BYBLOCK
 70
0
 66
1
  0
VERTEX
  8
0
 10
2285.7227
 20
1643.7965
 30
0.0000
  0
VERTEX
  8
0
 10
2285.0362
 20
1643.2381
 30
0.0000
  0
VERTEX
  8
0
 10
2284.4663
 20
1642.6176
 30
0.0000
  0
VERTEX
  8
0
 10
2284.0241
 20
1641.9470
 30
0.0000
  0
VERTEX
  8
0
 10
2283.7182
 20
1641.2395
 30
0.0000
  0
VERTEX
  8
0
 10
2283.5545
 20
1640.5087
 30
0.0000
  0
VERTEX
  8
0
 10
2283.5260
 20
1640.0465
 30
0.0000
  0
SEQEND
  0
POLYLINE
  6
continous
  8
BYBLOCK
 70
0
 66
1
  0
VERTEX
  8
0
 10
2298.5260
 20
1640.0465
 30
0.0000
  0
VERTEX
  8
0
 10
2298.4530
 20
1640.7846
 30
0.0000
  0
VERTEX
  8
0
 10
2298.2354
 20
1641.5083
 30
0.0000
  0
VERTEX
  8
0
 10
2297.8776
 20
1642.2035
 30
0.0000
  0
VERTEX
  8
0
 10
2297.3863
 20
1642.8568
 30
0.0000
  0
VERTEX
  8
0
 10
2296.7713
 20
1643.4554
 30
0.0000
  0
VERTEX
  8
0
 10
2296.0445
 20
1643.9876
 30
0.0000
  0
VERTEX
  8
0
 10
2295.2199
 20
1644.4431
 30
0.0000
  0
VERTEX
  8
0
 10
2294.3138
 20
1644.8131
 30
0.0000
  0
VERTEX
  8
0
 10
2293.3436
 20
1645.0902
 30
0.0000
  0
VERTEX
  8
0
 10
2292.1992
 20
1645.2845
 30
0.0000
  0
VERTEX
  8
0
 10
2291.0260
 20
1645.3498
 30
0.0000
  0
VERTEX
  8
0
 10
2289.8527
 20
1645.2845
 30
0.0000
  0
VERTEX
  8
0
 10
2288.7083
 20
1645.0902
 30
0.0000
  0
VERTEX
  8
0
 10
2287.7382
 20
1644.8131
 30
0.0000
  0
VERTEX
  8
0
 10
2286.8320
 20
1644.4431
 30
0.0000
  0
VERTEX
  8
0
 10
2286.0075
 20
1643.9876
 30
0.0000
  0
VERTEX
  8
0
 10
2285.7227
 20
1643.7965
 30
0.0000
  0
SEQEND
  0
POLYLINE
  6
continous
  8
BYBLOCK
 70
0
 66
1
  0
VERTEX
  8
0
 10
2296.3293
 20
1636.2965
 30
0.0000
  0
VERTEX
  8
0
 10
2297.0157
 20
1636.8549
 30
0.0000
  0
VERTEX
  8
0
 10
2297.5856
 20
1637.4754
 30
0.0000
  0
VERTEX
  8
0
 10
2298.0278
 20
1638.1459
 30
0.0000
  0
VERTEX
  8
0
 10
2298.3337
 20
1638.8535
 30
0.0000
  0
VERTEX
  8
0
 10
2298.4974
 20
1639.5843
 30
0.0000
  0
VERTEX
  8
0
 10
2298.5260
 20
1640.0465
 30
0.0000
  0
SEQEND
  0
POLYLINE
  6
continous
  8
BYBLOCK
 70
0
 66
1
  0
VERTEX
  8
0
 10
2226.9574
 20
1600.0465
 30
0.0000
  0
VERTEX
  8
0
 10
2227.0304
 20
1599.3084
 30
0.0000
  0
VERTEX
  8
0
 10
2227.2480
 20
1598.5847
 30
0.0000
  0
VERTEX
  8
0
 10
2227.6058
 20
1597.8894
 30
0.0000
  0
VERTEX
  8
0
 10
2228.0971
 20
1597.2362
 30
0.0000
  0
VERTEX
  8
0
 10
2228.7121
 20
1596.6376
 30
0.0000
  0
VERTEX
  8
0
 10
2229.4389
 20
1596.1054
 30
0.0000
  0
VERTEX
  8
0
 10
2230.2635
 20
1595.6498
 30
0.0000
  0
VERTEX
  8
0
 10
2231.1696
 20
1595.2799
 30
0.0000
  0
VERTEX
  8
0
 10
2232.1398
 20
1595.0027
 30
0.0000
  0
VERTEX
  8
0
 10
2233.2842
 20
1594.8085
 30
0.0000
  0
VERTEX
  8
0
 10
2234.4574
 20
1594.7432
 30
0.0000
  0
VERTEX
  8
0
 10
2235.6307
 20
1594.8085
 30
0.0000
  0
VERTEX
  8
0
 10
2236.7751
 20
1595.0027
 30
0.0000
  0
VERTEX
  8
0
 10
2237.7452
 20
1595.2799
 30
0.0000
  0
VERTEX
  8
0
 10
2238.6514
 20
1595.6498
 30
0.0000
  0
VERTEX
  8
0
 10
2239.4759
 20
1596.1054
 30
0.0000
  0
VERTEX
  8
0
 10
2239.7607
 20
1596.2965
 30
0.0000
  0
SEQEND
  0
POLYLINE
  6
continous
  8
BYBLOCK
 70
0
 66
1
  0
VERTEX
  8
0
 10
2229.1541
 20
1603.7965
 30
0.0000
  0
VERTEX
  8
0
 10
2228.4677
 20
1603.2381
 30
0.0000
  0
VERTEX
  8
0
 10
2227.8978
 20
1602.6176
 30
0.0000
  0
VERTEX
  8
0
 10
2227.4556
 20
1601.9470
 30
0.0000
  0
VERTEX
  8
0
 10
2227.1497
 20
1601.2395
 30
0.0000
  0
VERTEX
  8
0
 10
2226.9860
 20
1600.5087
 30
0.0000
  0
VERTEX
  8
0
 10
2226.9574
 20
1600.0465
 30
0.0000
  0
SEQEND
  0
POLYLINE
  6
continous
  8
BYBLOCK
 70
0
 66
1
  0
VERTEX
  8
0
 10
2241.9574
 20
1600.0465
 30
0.0000
  0
VERTEX
  8
0
 10
2241.8844
 20
1600.7846
 30
0.0000
  0
VERTEX
  8
0
 10
2241.6669
 20
1601.5083
 30
0.0000
  0
VERTEX
  8
0
 10
2241.3090
 20
1602.2035
 30
0.0000
  0
VERTEX
  8
0
 10
2240.8178
 20
1602.8568
 30
0.0000
  0
VERTEX
  8
0
 10
2240.2028
 20
1603.4554
 30
0.0000
  0
VERTEX
  8
0
 10
2239.4759
 20
1603.9876
 30
0.0000
  0
VERTEX
  8
0
 10
2238.6514
 20
1604.4431
 30
0.0000
  0
VERTEX
  8
0
 10
2237.7452
 20
1604.8131
 30
0.0000
  0
VERTEX
  8
0
 10
2236.7751
 20
1605.0902
 30
0.0000
  0
VERTEX
  8
0
 10
2235.6307
 20
1605.2845
 30
0.0000
  0
VERTEX
  8
0
 10
2234.4574
 20
1605.3498
 30
0.0000
  0
VERTEX
  8
0
 10
2233.2842
 20
1605.2845
 30
0.0000
  0
VERTEX
  8
0
 10
2232.1398
 20
1605.0902
 30
0.0000
  0
VERTEX
  8
0
 10
2231.1696
 20
1604.8131
 30
0.0000
  0
VERTEX
  8
0
 10
2230.2635
 20
1604.4431
 30
0.0000
  0
VERTEX
  8
0
 10
2229.4389
 20
1603.9876
 30
0.0000
  0
VERTEX
  8
0
 10
2229.1541
 20
1603.7965
 30
0.0000
  0
SEQEND
  0
POLYLINE
  6
continous
  8
BYBLOCK
 70
0
 66
1
  0
VERTEX
  8
0
 10
2239.7607
 20
1596.2965
 30
0.0000
  0
VERTEX
  8
0
 10
2240.4472
 20
1596.8549
 30
0.0000
  0
VERTEX
  8
0
 10
2241.0171
 20
1597.4754
 30
0.0000
  0
VERTEX
  8
0
 10
2241.4593
 20
1598.1459
 30
0.0000
  0
VERTEX
  8
0
 10
2241.7652
 20
1598.8535
 30
0.0000
  0
VERTEX
  8
0
 10
2241.9289
 20
1599.5843
 30
0.0000
  0
VERTEX
  8
0
 10
2241.9574
 20
1600.0465
 30
0.0000
  0
SEQEND
  0
POLYLINE
  6
continous
  8
BYBLOCK
 70
0
 66
1
  0
VERTEX
  8
0
 10
2170.3889
 20
1560.0465
 30
0.0000
  0
VERTEX
  8
0
 10
2170.4619
 20
1559.3084
 30
0.0000
  0
VERTEX
  8
0
 10
2170.6794
 20
1558.5847
 30
0.0000
  0
VERTEX
  8
0
 10
2171.0373
 20
1557.8894
 30
0.0000
  0
VERTEX
  8
0
 10
2171.5285
 20
1557.2362
 30
0.0000
  0
VERTEX
  8
0
 10
2172.1436
 20
1556.6376
 30
0.0000
  0
VERTEX
  8
0
 10
2172.8704
 20
1556.1054
 30
0.0000
  0
VERTEX
  8
0
 10
2173.6949
 20
1555.6498
 30
0.0000
  0
VERTEX
  8
0
 10
2174.6011
 20
1555.2799
 30
0.0000
  0
VERTEX
  8
0
 10
2175.5713
 20
1555.0027
 30
0.0000
  0
VERTEX
  8
0
 10
2176.7156
 20
1554.8085
 30
0.0000
  0
VERTEX
  8
0
 10
2177.8889
 20
1554.7432
 30
0.0000
  0
VERTEX
  8
0
 10
2179.0621
 20
1554.8085
 30
0.0000
  0
VERTEX
  8
0
 10
2180.2065
 20
1555.0027
 30
0.0000
  0
VERTEX
  8
0
 10
2181.1767
 20
1555.2799
 30
0.0000
  0
VERTEX
  8
0
 10
2182.0828
 20
1555.6498
 30
0.0000
  0
VERTEX
  8
0
 10
2182.9074
 20
1556.1054
 30
0.0000
  0
VERTEX
  8
0
 10
2183.1922
 20
1556.2965
 30
0.0000
  0
SEQEND
  0
POLYLINE
  6
continous
  8
BYBLOCK
 70
0
 66
1
  0
VERTEX
  8
0
 10
2172.5856
 20
1563.7965
 30
0.0000
  0
VERTEX
  8
0
 10
2171.8991
 20
1563.2381
 30
0.0000
  0
VERTEX
  8
0
 10
2171.3292
 20
1562.6176
 30
0.0000
  0
VERTEX
  8
0
 10
2170.8870
 20
1561.9470
 30
0.0000
  0
VERTEX
  8
0
 10
2170.5811
 20
1561.2395
 30
0.0000
  0
VERTEX
  8
0
 10
2170.4174
 20
1560.5087
 30
0.0000
  0
VERTEX
  8
0
 10
2170.3889
 20
1560.0465
 30
0.0000
  0
SEQEND
  0
POLYLINE
  6
continous
  8
BYBLOCK
 70
0
 66
1
  0
VERTEX
  8
0
 10
2185.3889
 20
1560.0465
 30
0.0000
  0
VERTEX
  8
0
 10
2185.3159
 20
1560.7846
 30
0.0000
  0
VERTEX
  8
0
 10
2185.0983
 20
1561.5083
 30
0.0000
  0
VERTEX
  8
0
 10
2184.7405
 20
1562.2035
 30
0.0000
  0
VERTEX
  8
0
 10
2184.2492
 20
1562.8568
 30
0.0000
  0
VERTEX
  8
0
 10
2183.6342
 20
1563.4554
 30
0.0000
  0
VERTEX
  8
0
 10
2182.9074
 20
1563.9876
 30
0.0000
  0
VERTEX
  8
0
 10
2182.0828
 20
1564.4431
 30
0.0000
  0
VERTEX
  8
0
 10
2181.1767
 20
1564.8131
 30
0.0000
  0
VERTEX
  8
0
 10
2180.2065
 20
1565.0902
 30
0.0000
  0
VERTEX
  8
0
 10
2179.0621
 20
1565.2845
 30
0.0000
  0
VERTEX
  8
0
 10
2177.8889
 20
1565.3498
 30
0.0000
  0
VERTEX
  8
0
 10
2176.7156
 20
1565.2845
 30
0.0000
  0
VERTEX
  8
0
 10
2175.5713
 20
1565.0902
 30
0.0000
  0
VERTEX
  8
0
 10
2174.6011
 20
1564.8131
 30
0.0000
  0
VERTEX
  8
0
 10
2173.6949
 20
1564.4431
 30
0.0000
  0
VERTEX
  8
0
 10
2172.8704
 20
1563.9876
 30
0.0000
  0
VERTEX
  8
0
 10
2172.5856
 20
1563.7965
 30
0.0000
  0
SEQEND
  0
POLYLINE
  6
continous
  8
BYBLOCK
 70
0
 66
1
  0
VERTEX
  8
0
 10
2183.1922
 20
1556.2965
 30
0.0000
  0
VERTEX
  8
0
 10
2183.8787
 20
1556.8549
 30
0.0000
  0
VERTEX
  8
0
 10
2184.4485
 20
1557.4754
 30
0.0000
  0
VERTEX
  8
0
 10
2184.8907
 20
1558.1459
 30
0.0000
  0
VERTEX
  8
0
 10
2185.1967
 20
1558.8535
 30
0.0000
  0
VERTEX
  8
0
 10
2185.3603
 20
1559.5843
 30
0.0000
  0
VERTEX
  8
0
 10
2185.3889
 20
1560.0465
 30
0.0000
  0
SEQEND
  0
POLYLINE
  6
continous
  8
BYBLOCK
 70
0
 66
1
  0
VERTEX
  8
0
 10
2113.8203
 20
1520.0465
 30
0.0000
  0
VERTEX
  8
0
 10
2113.8933
 20
1519.3084
 30
0.0000
  0
VERTEX
  8
0
 10
2114.1109
 20
1518.5847
 30
0.0000
  0
VERTEX
  8
0
 10
2114.4688
 20
1517.8894
 30
0.0000
  0
VERTEX
  8
0
 10
2114.9600
 20
1517.2362
 30
0.0000
  0
VERTEX
  8
0
 10
2115.5750
 20
1516.6376
 30
0.0000
  0
VERTEX
  8
0
 10
2116.3019
 20
1516.1054
 30
0.0000
  0
VERTEX
  8
0
 10
2117.1264
 20
1515.6498
 30
0.0000
  0
VERTEX
  8
0
 10
2118.0326
 20
1515.2799
 30
0.0000
  0
VERTEX
  8
0
 10
2119.0027
 20
1515.0027
 30
0.0000
  0
VERTEX
  8
0
 10
2120.1471
 20
1514.8085
 30
0.0000
  0
VERTEX
  8
0
 10
2121.3203
 20
1514.7432
 30
0.0000
  0
VERTEX
  8
0
 10
2122.4936
 20
1514.8085
 30
0.0000
  0
VERTEX
  8
0
 10
2123.6380
 20
1515.0027
 30
0.0000
  0
VERTEX
  8
0
 10
2124.6081
 20
1515.2799
 30
0.0000
  0
VERTEX
  8
0
 10
2125.5143
 20
1515.6498
 30
0.0000
  0
VERTEX
  8
0
 10
2126.3388
 20
1516.1054
 30
0.0000
  0
VERTEX
  8
0
 10
2126.6236
 20
1516.2965
 30
0.0000
  0
SEQEND
  0
POLYLINE
  6
continous
  8
BYBLOCK
 70
0
 66
1
  0
VERTEX
  8
0
 10
2116.0170
 20
1523.7965
 30
0.0000
  0
VERTEX
  8
0
 10
2115.3306
 20
1523.2381
 30
0.0000
  0
VERTEX
  8
0
 10
2114.7607
 20
1522.6176
 30
0.0000
  0
VERTEX
  8
0
 10
2114.3185
 20
1521.9470
 30
0.0000
  0
VERTEX
  8
0
 10
2114.0126
 20
1521.2395
 30
0.0000
  0
VERTEX
  8
0
 10
2113.8489
 20
1520.5087
 30
0.0000
  0
VERTEX
  8
0
 10
2113.8203
 20
1520.0465
 30
0.0000
  0
SEQEND
  0
POLYLINE
  6
continous
  8
BYBLOCK
 70
0
 66
1
  0
VERTEX
  8
0
 10
2128.8203
 20
1520.0465
 30
0.0000
  0
VERTEX
  8
0
 10
2128.7474
 20
1520.7846
 30
0.0000
  0
VERTEX
  8
0
 10
2128.5298
 20
1521.5083
 30
0.0000
  0
VERTEX
  8
0
 10
2128.1719
 20
1522.2035
 30
0.0000
  0
VERTEX
  8
0
 10
2127.6807
 20
1522.8568
 30
0.0000
  0
VERTEX
  8
0
 10
2127.0657
 20
1523.4554
 30
0.0000
  0
VERTEX
  8
0
 10
2126.3388
 20
1523.9876
 30
0.0000
  0
VERTEX
  8
0
 10
2125.5143
 20
1524.4431
 30
0.0000
  0
VERTEX
  8
0
 10
2124.6081
 20
1524.8131
 30
0.0000
  0
VERTEX
  8
0
 10
2123.6380
 20
1525.0902
 30
0.0000
  0
VERTEX
  8
0
 10
2122.4936
 20
1525.2845
 30
0.0000
  0
VERTEX
  8
0
 10
2121.3203
 20
1525.3498
 30
0.0000
  0
VERTEX
  8
0
 10
2120.1471
 20
1525.2845
 30
0.0000
  0
VERTEX
  8
0
 10
2119.0027
 20
1525.0902
 30
0.0000
  0
VERTEX
  8
0
 10
2118.0326
 20
1524.8131
 30
0.0000
  0
VERTEX
  8
0
 10
2117.1264
 20
1524.4431
 30
0.0000
  0
VERTEX
  8
0
 10
2116.3019
 20
1523.9876
 30
0.0000
  0
VERTEX
  8
0
 10
2116.0170
 20
1523.7965
 30
0.0000
  0
SEQEND
  0
POLYLINE
  6
continous
  8
BYBLOCK
 70
0
 66
1
  0
VERTEX
  8
0
 10
2126.6236
 20
1516.2965
 30
0.0000
  0
VERTEX
  8
0
 10
2127.3101
 20
1516.8549
 30
0.0000
  0
VERTEX
  8
0
 10
2127.8800
 20
1517.4754
 30
0.0000
  0
VERTEX
  8
0
 10
2128.3222
 20
1518.1459
 30
0.0000
  0
VERTEX
  8
0
 10
2128.6281
 20
1518.8535
 30
0.0000
  0
VERTEX
  8
0
 10
2128.7918
 20
1519.5843
 30
0.0000
  0
VERTEX
  8
0
 10
2128.8203
 20
1520.0465
 30
0.0000
  0
SEQEND
  0
POLYLINE
  6
continous
  8
BYBLOCK
 70
0
 66
1
  0
VERTEX
  8
0
 10
2057.2518
 20
1480.0465
 30
0.0000
  0
VERTEX
  8
0
 10
2057.3248
 20
1479.3084
 30
0.0000
  0
VERTEX
  8
0
 10
2057.5423
 20
1478.5847
 30
0.0000
  0
VERTEX
  8
0
 10
2057.9002
 20
1477.8894
 30
0.0000
  0
VERTEX
  8
0
 10
2058.3914
 20
1477.2362
 30
0.0000
  0
VERTEX
  8
0
 10
2059.0065
 20
1476.6376
 30
0.0000
  0
VERTEX
  8
0
 10
2059.7333
 20
1476.1054
 30
0.0000
  0
VERTEX
  8
0
 10
2060.5579
 20
1475.6498
 30
0.0000
  0
VERTEX
  8
0
 10
2061.4640
 20
1475.2799
 30
0.0000
  0
VERTEX
  8
0
 10
2062.4342
 20
1475.0027
 30
0.0000
  0
VERTEX
  8
0
 10
2063.5785
 20
1474.8085
 30
0.0000
  0
VERTEX
  8
0
 10
2064.7518
 20
1474.7432
 30
0.0000
  0
VERTEX
  8
0
 10
2065.9251
 20
1474.8085
 30
0.0000
  0
VERTEX
  8
0
 10
2067.0694
 20
1475.0027
 30
0.0000
  0
VERTEX
  8
0
 10
2068.0396
 20
1475.2799
 30
0.0000
  0
VERTEX
  8
0
 10
2068.9457
 20
1475.6498
 30
0.0000
  0
VERTEX
  8
0
 10
2069.7703
 20
1476.1054
 30
0.0000
  0
VERTEX
  8
0
 10
2070.0551
 20
1476.2965
 30
0.0000
  0
SEQEND
  0
POLYLINE
  6
continous
  8
BYBLOCK
 70
0
 66
1
  0
VERTEX
  8
0
 10
2059.4485
 20
1483.7965
 30
0.0000
  0
VERTEX
  8
0
 10
2058.7620
 20
1483.2381
 30
0.0000
  0
VERTEX
  8
0
 10
2058.1922
 20
1482.6176
 30
0.0000
  0
VERTEX
  8
0
 10
2057.7499
 20
1481.9470
 30
0.0000
  0
VERTEX
  8
0
 10
2057.4440
 20
1481.2395
 30
0.0000
  0
VERTEX
  8
0
 10
2057.2803
 20
1480.5087
 30
0.0000
  0
VERTEX
  8
0
 10
2057.2518
 20
1480.0465
 30
0.0000
  0
SEQEND
  0
POLYLINE
  6
continous
  8
BYBLOCK
 70
0
 66
1
  0
VERTEX
  8
0
 10
2072.2518
 20
1480.0465
 30
0.0000
  0
VERTEX
  8
0
 10
2072.1788
 20
1480.7846
 30
0.0000
  0
VERTEX
  8
0
 10
2071.9613
 20
1481.5083
 30
0.0000
  0
VERTEX
  8
0
 10
2071.6034
 20
1482.2035
 30
0.0000
  0
VERTEX
  8
0
 10
2071.1122
 20
1482.8568
 30
0.0000
  0
VERTEX
  8
0
 10
2070.4971
 20
1483.4554
 30
0.0000
  0
VERTEX
  8
0
 10
2069.7703
 20
1483.9876
 30
0.0000
  0
VERTEX
  8
0
 10
2068.9457
 20
1484.4431
 30
0.0000
  0
VERTEX
  8
0
 10
2068.0396
 20
1484.8131
 30
0.0000
  0
VERTEX
  8
0
 10
2067.0694
 20
1485.0902
 30
0.0000
  0
VERTEX
  8
0
 10
2065.9251
 20
1485.2845
 30
0.0000
  0
VERTEX
  8
0
 10
2064.7518
 20
1485.3498
 30
0.0000
  0
VERTEX
  8
0
 10
2063.5785
 20
1485.2845
 30
0.0000
  0
VERTEX
  8
0
 10
2062.4342
 20
1485.0902
 30
0.0000
  0
VERTEX
  8
0
 10
2061.4640
 20
1484.8131
 30
0.0000
  0
VERTEX
  8
0
 10
2060.5579
 20
1484.4431
 30
0.0000
  0
VERTEX
  8
0
 10
2059.7333
 20
1483.9876
 30
0.0000
  0
VERTEX
  8
0
 10
2059.4485
 20
1483.7965
 30
0.0000
  0
SEQEND
  0
POLYLINE
  6
continous
  8
BYBLOCK
 70
0
 66
1
  0
VERTEX
  8
0
 10
2070.0551
 20
1476.2965
 30
0.0000
  0
VERTEX
  8
0
 10
2070.7416
 20
1476.8549
 30
0.0000
  0
VERTEX
  8
0
 10
2071.3114
 20
1477.4754
 30
0.0000
  0
VERTEX
  8
0
 10
2071.7537
 20
1478.1459
 30
0.0000
  0
VERTEX
  8
0
 10
2072.0596
 20
1478.8535
 30
0.0000
  0
VERTEX
  8
0
 10
2072.2233
 20
1479.5843
 30
0.0000
  0
VERTEX
  8
0
 10
2072.2518
 20
1480.0465
 30
0.0000
  0
SEQEND
  0
POLYLINE
  6
continous
  8
BYBLOCK
 70
0
 66
1
  0
VERTEX
  8
0
 10
2000.6833
 20
1440.0465
 30
0.0000
  0
VERTEX
  8
0
 10
2000.7562
 20
1439.3084
 30
0.0000
  0
VERTEX
  8
0
 10
2000.9738
 20
1438.5847
 30
0.0000
  0
VERTEX
  8
0
 10
2001.3317
 20
1437.8894
 30
0.0000
  0
VERTEX
  8
0
 10
2001.8229
 20
1437.2362
 30
0.0000
  0
VERTEX
  8
0
 10
2002.4379
 20
1436.6376
 30
0.0000
  0
VERTEX
  8
0
 10
2003.1648
 20
1436.1054
 30
0.0000
  0
VERTEX
  8
0
 10
2003.9893
 20
1435.6498
 30
0.0000
  0
VERTEX
  8
0
 10
2004.8955
 20
1435.2799
 30
0.0000
  0
VERTEX
  8
0
 10
2005.8656
 20
1435.0027
 30
0.0000
  0
VERTEX
  8
0
 10
2007.0100
 20
1434.8085
 30
0.0000
  0
VERTEX
  8
0
 10
2008.1833
 20
1434.7432
 30
0.0000
  0
VERTEX
  8
0
 10
2009.3565
 20
1434.8085
 30
0.0000
  0
VERTEX
  8
0
 10
2010.5009
 20
1435.0027
 30
0.0000
  0
VERTEX
  8
0
 10
2011.4710
 20
1435.2799
 30
0.0000
  0
VERTEX
  8
0
 10
2012.3772
 20
1435.6498
 30
0.0000
  0
VERTEX
  8
0
 10
2013.2017
 20
1436.1054
 30
0.0000
  0
VERTEX
  8
0
 10
2013.4866
 20
1436.2965
 30
0.0000
  0
SEQEND
  0
POLYLINE
  6
continous
  8
BYBLOCK
 70
0
 66
1
  0
VERTEX
  8
0
 10
2002.8800
 20
1443.7965
 30
0.0000
  0
VERTEX
  8
0
 10
2002.1935
 20
1443.2381
 30
0.0000
  0
VERTEX
  8
0
 10
2001.6236
 20
1442.6176
 30
0.0000
  0
VERTEX
  8
0
 10
2001.1814
 20
1441.9470
 30
0.0000
  0
VERTEX
  8
0
 10
2000.8755
 20
1441.2395
 30
0.0000
  0
VERTEX
  8
0
 10
2000.7118
 20
1440.5087
 30
0.0000
  0
VERTEX
  8
0
 10
2000.6833
 20
1440.0465
 30
0.0000
  0
SEQEND
  0
POLYLINE
  6
continous
  8
BYBLOCK
 70
0
 66
1
  0
VERTEX
  8
0
 10
2015.6833
 20
1440.0465
 30
0.0000
  0
VERTEX
  8
0
 10
2015.6103
 20
1440.7846
 30
0.0000
  0
VERTEX
  8
0
 10
2015.3927
 20
1441.5083
 30
0.0000
  0
VERTEX
  8
0
 10
2015.0348
 20
1442.2035
 30
0.0000
  0
VERTEX
  8
0
 10
2014.5436
 20
1442.8568
 30
0.0000
  0
VERTEX
  8
0
 10
2013.9286
 20
1443.4554
 30
0.0000
  0
VERTEX
  8
0
 10
2013.2017
 20
1443.9876
 30
0.0000
  0
VERTEX
  8
0
 10
2012.3772
 20
1444.4431
 30
0.0000
  0
VERTEX
  8
0
 10
2011.4710
 20
1444.8131
 30
0.0000
  0
VERTEX
  8
0
 10
2010.5009
 20
1445.0902
 30
0.0000
  0
VERTEX
  8
0
 10
2009.3565
 20
1445.2845
 30
0.0000
  0
VERTEX
  8
0
 10
2008.1833
 20
1445.3498
 30
0.0000
  0
VERTEX
  8
0
 10
2007.0100
 20
1445.2845
 30
0.0000
  0
VERTEX
  8
0
 10
2005.8656
 20
1445.0902
 30
0.0000
  0
VERTEX
  8
0
 10
2004.8955
 20
1444.8131
 30
0.0000
  0
VERTEX
  8
0
 10
2003.9893
 20
1444.4431
 30
0.0000
  0
VERTEX
  8
0
 10
2003.1648
 20
1443.9876
 30
0.0000
  0
VERTEX
  8
0
 10
2002.8800
 20
1443.7965
 30
0.0000
  0
SEQEND
  0
POLYLINE
  6
continous
  8
BYBLOCK
 70
0
 66
1
  0
VERTEX
  8
0
 10
2013.4866
 20
1436.2965
 30
0.0000
  0
VERTEX
  8
0
 10
2014.1730
 20
1436.8549
 30
0.0000
  0
VERTEX
  8
0
 10
2014.7429
 20
1437.4754
 30
0.0000
  0
VERTEX
  8
0
 10
2015.1851
 20
1438.1459
 30
0.0000
  0
VERTEX
  8
0
 10
2015.4910
 20
1438.8535
 30
0.0000
  0
VERTEX
  8
0
 10
2015.6547
 20
1439.5843
 30
0.0000
  0
VERTEX
  8
0
 10
2015.6833
 20
1440.0465
 30
0.0000
  0
SEQEND
  0
POLYLINE
  6
continous
  8
BYBLOCK
 70
0
 66
1
  0
VERTEX
  8
0
 10
1944.1147
 20
1400.0465
 30
0.0000
  0
VERTEX
  8
0
 10
1944.1877
 20
1399.3084
 30
0.0000
  0
VERTEX
  8
0
 10
1944.4053
 20
1398.5847
 30
0.0000
  0
VERTEX
  8
0
 10
1944.7631
 20
1397.8894
 30
0.0000
  0
VERTEX
  8
0
 10
1945.2544
 20
1397.2362
 30
0.0000
  0
VERTEX
  8
0
 10
1945.8694
 20
1396.6376
 30
0.0000
  0
VERTEX
  8
0
 10
1946.5962
 20
1396.1054
 30
0.0000
  0
VERTEX
  8
0
 10
1947.4208
 20
1395.6498
 30
0.0000
  0
VERTEX
  8
0
 10
1948.3269
 20
1395.2799
 30
0.0000
  0
VERTEX
  8
0
 10
1949.2971
 20
1395.0027
 30
0.0000
  0
VERTEX
  8
0
 10
1950.4415
 20
1394.8085
 30
0.0000
  0
VERTEX
  8
0
 10
1951.6147
 20
1394.7432
 30
0.0000
  0
VERTEX
  8
0
 10
1952.7880
 20
1394.8085
 30
0.0000
  0
VERTEX
  8
0
 10
1953.9323
 20
1395.0027
 30
0.0000
  0
VERTEX
  8
0
 10
1954.9025
 20
1395.2799
 30
0.0000
  0
VERTEX
  8
0
 10
1955.8087
 20
1395.6498
 30
0.0000
  0
VERTEX
  8
0
 10
1956.6332
 20
1396.1054
 30
0.0000
  0
VERTEX
  8
0
 10
1956.9180
 20
1396.2965
 30
0.0000
  0
SEQEND
  0
POLYLINE
  6
continous
  8
BYBLOCK
 70
0
 66
1
  0
VERTEX
  8
0
 10
1946.3114
 20
1403.7965
 30
0.0000
  0
VERTEX
  8
0
 10
1945.6249
 20
1403.2381
 30
0.0000
  0
VERTEX
  8
0
 10
1945.0551
 20
1402.6176
 30
0.0000
  0
VERTEX
  8
0
 10
1944.6129
 20
1401.9470
 30
0.0000
  0
VERTEX
  8
0
 10
1944.3069
 20
1401.2395
 30
0.0000
  0
VERTEX
  8
0
 10
1944.1433
 20
1400.5087
 30
0.0000
  0
VERTEX
  8
0
 10
1944.1147
 20
1400.0465
 30
0.0000
  0
SEQEND
  0
POLYLINE
  6
continous
  8
BYBLOCK
 70
0
 66
1
  0
VERTEX
  8
0
 10
1959.1147
 20
1400.0465
 30
0.0000
  0
VERTEX
  8
0
 10
1959.0417
 20
1400.7846
 30
0.0000
  0
VERTEX
  8
0
 10
1958.8242
 20
1401.5083
 30
0.0000
  0
VERTEX
  8
0
 10
1958.4663
 20
1402.2035
 30
0.0000
  0
VERTEX
  8
0
 10
1957.9751
 20
1402.8568
 30
0.0000
  0
VERTEX
  8
0
 10
1957.3600
 20
1403.4554
 30
0.0000
  0
VERTEX
  8
0
 10
1956.6332
 20
1403.9876
 30
0.0000
  0
VERTEX
  8
0
 10
1955.8087
 20
1404.4431
 30
0.0000
  0
VERTEX
  8
0
 10
1954.9025
 20
1404.8131
 30
0.0000
  0
VERTEX
  8
0
 10
1953.9323
 20
1405.0902
 30
0.0000
  0
VERTEX
  8
0
 10
1952.7880
 20
1405.2845
 30
0.0000
  0
VERTEX
  8
0
 10
1951.6147
 20
1405.3498
 30
0.0000
  0
VERTEX
  8
0
 10
1950.4415
 20
1405.2845
 30
0.0000
  0
VERTEX
  8
0
 10
1949.2971
 20
1405.0902
 30
0.0000
  0
VERTEX
  8
0
 10
1948.3269
 20
1404.8131
 30
0.0000
  0
VERTEX
  8
0
 10
1947.4208
 20
1404.4431
 30
0.0000
  0
VERTEX
  8
0
 10
1946.5962
 20
1403.9876
 30
0.0000
  0
VERTEX
  8
0
 10
1946.3114
 20
1403.7965
 30
0.0000
  0
SEQEND
  0
POLYLINE
  6
continous
  8
BYBLOCK
 70
0
 66
1
  0
VERTEX
  8
0
 10
1956.9180
 20
1396.2965
 30
0.0000
  0
VERTEX
  8
0
 10
1957.6045
 20
1396.8549
 30
0.0000
  0
VERTEX
  8
0
 10
1958.1744
 20
1397.4754
 30
0.0000
  0
VERTEX
  8
0
 10
1958.6166
 20
1398.1459
 30
0.0000
  0
VERTEX
  8
0
 10
1958.9225
 20
1398.8535
 30
0.0000
  0
VERTEX
  8
0
 10
1959.0862
 20
1399.5843
 30
0.0000
  0
VERTEX
  8
0
 10
1959.1147
 20
1400.0465
 30
0.0000
  0
SEQEND
  0
POLYLINE
  6
continous
  8
BYBLOCK
 70
0
 66
1
  0
VERTEX
  8
0
 10
1887.5462
 20
1360.0465
 30
0.0000
  0
VERTEX
  8
0
 10
1887.6192
 20
1359.3084
 30
0.0000
  0
VERTEX
  8
0
 10
1887.8367
 20
1358.5847
 30
0.0000
  0
VERTEX
  8
0
 10
1888.1946
 20
1357.8894
 30
0.0000
  0
VERTEX
  8
0
 10
1888.6858
 20
1357.2362
 30
0.0000
  0
VERTEX
  8
0
 10
1889.3008
 20
1356.6376
 30
0.0000
  0
VERTEX
  8
0
 10
1890.0277
 20
1356.1054
 30
0.0000
  0
VERTEX
  8
0
 10
1890.8522
 20
1355.6498
 30
0.0000
  0
VERTEX
  8
0
 10
1891.7584
 20
1355.2799
 30
0.0000
  0
VERTEX
  8
0
 10
1892.7285
 20
1355.0027
 30
0.0000
  0
VERTEX
  8
0
 10
1893.8729
 20
1354.8085
 30
0.0000
  0
VERTEX
  8
0
 10
1895.0462
 20
1354.7432
 30
0.0000
  0
VERTEX
  8
0
 10
1896.2194
 20
1354.8085
 30
0.0000
  0
VERTEX
  8
0
 10
1897.3638
 20
1355.0027
 30
0.0000
  0
VERTEX
  8
0
 10
1898.3340
 20
1355.2799
 30
0.0000
  0
VERTEX
  8
0
 10
1899.2401
 20
1355.6498
 30
0.0000
  0
VERTEX
  8
0
 10
1900.0647
 20
1356.1054
 30
0.0000
  0
VERTEX
  8
0
 10
1900.3495
 20
1356.2965
 30
0.0000
  0
SEQEND
  0
POLYLINE
  6
continous
  8
BYBLOCK
 70
0
 66
1
  0
VERTEX
  8
0
 10
1889.7429
 20
1363.7965
 30
0.0000
  0
VERTEX
  8
0
 10
1889.0564
 20
1363.2381
 30
0.0000
  0
VERTEX
  8
0
 10
1888.4865
 20
1362.6176
 30
0.0000
  0
VERTEX
  8
0
 10
1888.0443
 20
1361.9470
 30
0.0000
  0
VERTEX
  8
0
 10
1887.7384
 20
1361.2395
 30
0.0000
  0
VERTEX
  8
0
 10
1887.5747
 20
1360.5087
 30
0.0000
  0
VERTEX
  8
0
 10
1887.5462
 20
1360.0465
 30
0.0000
  0
SEQEND
  0
POLYLINE
  6
continous
  8
BYBLOCK
 70
0
 66
1
  0
VERTEX
  8
0
 10
1902.5462
 20
1360.0465
 30
0.0000
  0
VERTEX
  8
0
 10
1902.4732
 20
1360.7846
 30
0.0000
  0
VERTEX
  8
0
 10
1902.2556
 20
1361.5083
 30
0.0000
  0
VERTEX
  8
0
 10
1901.8978
 20
1362.2035
 30
0.0000
  0
VERTEX
  8
0
 10
1901.4065
 20
1362.8568
 30
0.0000
  0
VERTEX
  8
0
 10
1900.7915
 20
1363.4554
 30
0.0000
  0
VERTEX
  8
0
 10
1900.0647
 20
1363.9876
 30
0.0000
  0
VERTEX
  8
0
 10
1899.2401
 20
1364.4431
 30
0.0000
  0
VERTEX
  8
0
 10
1898.3340
 20
1364.8131
 30
0.0000
  0
VERTEX
  8
0
 10
1897.3638
 20
1365.0902
 30
0.0000
  0
VERTEX
  8
0
 10
1896.2194
 20
1365.2845
 30
0.0000
  0
VERTEX
  8
0
 10
1895.0462
 20
1365.3498
 30
0.0000
  0
VERTEX
  8
0
 10
1893.8729
 20
1365.2845
 30
0.0000
  0
VERTEX
  8
0
 10
1892.7285
 20
1365.0902
 30
0.0000
  0
VERTEX
  8
0
 10
1891.7584
 20
1364.8131
 30
0.0000
  0
VERTEX
  8
0
 10
1890.8522
 20
1364.4431
 30
0.0000
  0
VERTEX
  8
0
 10
1890.0277
 20
1363.9876
 30
0.0000
  0
VERTEX
  8
0
 10
1889.7429
 20
1363.7965
 30
0.0000
  0
SEQEND
  0
POLYLINE
  6
continous
  8
BYBLOCK
 70
0
 66
1
  0
VERTEX
  8
0
 10
1900.3495
 20
1356.2965
 30
0.0000
  0
VERTEX
  8
0
 10
1901.0359
 20
1356.8549
 30
0.0000
  0
VERTEX
  8
0
 10
1901.6058
 20
1357.4754
 30
0.0000
  0
VERTEX
  8
0
 10
1902.0480
 20
1358.1459
 30
0.0000
  0
VERTEX
  8
0
 10
1902.3539
 20
1358.8535
 30
0.0000
  0
VERTEX
  8
0
 10
1902.5176
 20
1359.5843
 30
0.0000
  0
VERTEX
  8
0
 10
1902.5462
 20
1360.0465
 30
0.0000
  0
SEQEND
  0
POLYLINE
  6
continous
  8
BYBLOCK
 70
0
 66
1
  0
VERTEX
  8
0
 10
1830.9776
 20
1320.0465
 30
0.0000
  0
VERTEX
  8
0
 10
1831.0506
 20
1319.3084
 30
0.0000
  0
VERTEX
  8
0
 10
1831.2682
 20
1318.5847
 30
0.0000
  0
VERTEX
  8
0
 10
1831.6260
 20
1317.8894
 30
0.0000
  0
VERTEX
  8
0
 10
1832.1173
 20
1317.2362
 30
0.0000
  0
VERTEX
  8
0
 10
1832.7323
 20
1316.6376
 30
0.0000
  0
VERTEX
  8
0
 10
1833.4592
 20
1316.1054
 30
0.0000
  0
VERTEX
  8
0
 10
1834.2837
 20
1315.6498
 30
0.0000
  0
VERTEX
  8
0
 10
1835.1898
 20
1315.2799
 30
0.0000
  0
VERTEX
  8
0
 10
1836.1600
 20
1315.0027
 30
0.0000
  0
VERTEX
  8
0
 10
1837.3044
 20
1314.8085
 30
0.0000
  0
VERTEX
  8
0
 10
1838.4776
 20
1314.7432
 30
0.0000
  0
VERTEX
  8
0
 10
1839.6509
 20
1314.8085
 30
0.0000
  0
VERTEX
  8
0
 10
1840.7953
 20
1315.0027
 30
0.0000
  0
VERTEX
  8
0
 10
1841.7654
 20
1315.2799
 30
0.0000
  0
VERTEX
  8
0
 10
1842.6716
 20
1315.6498
 30
0.0000
  0
VERTEX
  8
0
 10
1843.4961
 20
1316.1054
 30
0.0000
  0
VERTEX
  8
0
 10
1843.7809
 20
1316.2965
 30
0.0000
  0
SEQEND
  0
POLYLINE
  6
continous
  8
BYBLOCK
 70
0
 66
1
  0
VERTEX
  8
0
 10
1833.1743
 20
1323.7965
 30
0.0000
  0
VERTEX
  8
0
 10
1832.4879
 20
1323.2381
 30
0.0000
  0
VERTEX
  8
0
 10
1831.9180
 20
1322.6176
 30
0.0000
  0
VERTEX
  8
0
 10
1831.4758
 20
1321.9470
 30
0.0000
  0
VERTEX
  8
0
 10
1831.1699
 20
1321.2395
 30
0.0000
  0
VERTEX
  8
0
 10
1831.0062
 20
1320.5087
 30
0.0000
  0
VERTEX
  8
0
 10
1830.9776
 20
1320.0465
 30
0.0000
  0
SEQEND
  0
POLYLINE
  6
continous
  8
BYBLOCK
 70
0
 66
1
  0
VERTEX
  8
0
 10
1845.9776
 20
1320.0465
 30
0.0000
  0
VERTEX
  8
0
 10
1845.9046
 20
1320.7846
 30
0.0000
  0
VERTEX
  8
0
 10
1845.6871
 20
1321.5083
 30
0.0000
  0
VERTEX
  8
0
 10
1845.3292
 20
1322.2035
 30
0.0000
  0
VERTEX
  8
0
 10
1844.8380
 20
1322.8568
 30
0.0000
  0
VERTEX
  8
0
 10
1844.2230
 20
1323.4554
 30
0.0000
  0
VERTEX
  8
0
 10
1843.4961
 20
1323.9876
 30
0.0000
  0
VERTEX
  8
0
 10
1842.6716
 20
1324.4431
 30
0.0000
  0
VERTEX
  8
0
 10
1841.7654
 20
1324.8131
 30
0.0000
  0
VERTEX
  8
0
 10
1840.7953
 20
1325.0902
 30
0.0000
  0
VERTEX
  8
0
 10
1839.6509
 20
1325.2845
 30
0.0000
  0
VERTEX
  8
0
 10
1838.4776
 20
1325.3498
 30
0.0000
  0
VERTEX
  8
0
 10
1837.3044
 20
1325.2845
 30
0.0000
  0
VERTEX
  8
0
 10
1836.1600
 20
1325.0902
 30
0.0000
  0
VERTEX
  8
0
 10
1835.1898
 20
1324.8131
 30
0.0000
  0
VERTEX
  8
0
 10
1834.2837
 20
1324.4431
 30
0.0000
  0
VERTEX
  8
0
 10
1833.4592
 20
1323.9876
 30
0.0000
  0
VERTEX
  8
0
 10
1833.1743
 20
1323.7965
 30
0.0000
  0
SEQEND
  0
POLYLINE
  6
continous
  8
BYBLOCK
 70
0
 66
1
  0
VERTEX
  8
0
 10
1843.7809
 20
1316.2965
 30
0.0000
  0
VERTEX
  8
0
 10
1844.4674
 20
1316.8549
 30
0.0000
  0
VERTEX
  8
0
 10
1845.0373
 20
1317.4754
 30
0.0000
  0
VERTEX
  8
0
 10
1845.4795
 20
1318.1459
 30
0.0000
  0
VERTEX
  8
0
 10
1845.7854
 20
1318.8535
 30
0.0000
  0
VERTEX
  8
0
 10
1845.9491
 20
1319.5843
 30
0.0000
  0
VERTEX
  8
0
 10
1845.9776
 20
1320.0465
 30
0.0000
  0
SEQEND
  0
POLYLINE
  6
continous
  8
BYBLOCK
 70
0
 66
1
  0
VERTEX
  8
0
 10
1774.4091
 20
1280.0465
 30
0.0000
  0
VERTEX
  8
0
 10
1774.4821
 20
1279.3084
 30
0.0000
  0
VERTEX
  8
0
 10
1774.6996
 20
1278.5847
 30
0.0000
  0
VERTEX
  8
0
 10
1775.0575
 20
1277.8894
 30
0.0000
  0
VERTEX
  8
0
 10
1775.5487
 20
1277.2362
 30
0.0000
  0
VERTEX
  8
0
 10
1776.1638
 20
1276.6376
 30
0.0000
  0
VERTEX
  8
0
 10
1776.8906
 20
1276.1054
 30
0.0000
  0
VERTEX
  8
0
 10
1777.7151
 20
1275.6498
 30
0.0000
  0
VERTEX
  8
0
 10
1778.6213
 20
1275.2799
 30
0.0000
  0
VERTEX
  8
0
 10
1779.5915
 20
1275.0027
 30
0.0000
  0
VERTEX
  8
0
 10
1780.7358
 20
1274.8085
 30
0.0000
  0
VERTEX
  8
0
 10
1781.9091
 20
1274.7432
 30
0.0000
  0
VERTEX
  8
0
 10
1783.0823
 20
1274.8085
 30
0.0000
  0
VERTEX
  8
0
 10
1784.2267
 20
1275.0027
 30
0.0000
  0
VERTEX
  8
0
 10
1785.1969
 20
1275.2799
 30
0.0000
  0
VERTEX
  8
0
 10
1786.1030
 20
1275.6498
 30
0.0000
  0
VERTEX
  8
0
 10
1786.9276
 20
1276.1054
 30
0.0000
  0
VERTEX
  8
0
 10
1787.2124
 20
1276.2965
 30
0.0000
  0
SEQEND
  0
POLYLINE
  6
continous
  8
BYBLOCK
 70
0
 66
1
  0
VERTEX
  8
0
 10
1776.6058
 20
1283.7965
 30
0.0000
  0
VERTEX
  8
0
 10
1775.9193
 20
1283.2381
 30
0.0000
  0
VERTEX
  8
0
 10
1775.3494
 20
1282.6176
 30
0.0000
  0
VERTEX
  8
0
 10
1774.9072
 20
1281.9470
 30
0.0000
  0
VERTEX
  8
0
 10
1774.6013
 20
1281.2395
 30
0.0000
  0
VERTEX
  8
0
 10
1774.4376
 20
1280.5087
 30
0.0000
  0
VERTEX
  8
0
 10
1774.4091
 20
1280.0465
 30
0.0000
  0
SEQEND
  0
POLYLINE
  6
continous
  8
BYBLOCK
 70
0
 66
1
  0
VERTEX
  8
0
 10
1789.4091
 20
1280.0465
 30
0.0000
  0
VERTEX
  8
0
 10
1789.3361
 20
1280.7846
 30
0.0000
  0
VERTEX
  8
0
 10
1789.1186
 20
1281.5083
 30
0.0000
  0
VERTEX
  8
0
 10
1788.7607
 20
1282.2035
 30
0.0000
  0
VERTEX
  8
0
 10
1788.2694
 20
1282.8568
 30
0.0000
  0
VERTEX
  8
0
 10
1787.6544
 20
1283.4554
 30
0.0000
  0
VERTEX
  8
0
 10
1786.9276
 20
1283.9876
 30
0.0000
  0
VERTEX
  8
0
 10
1786.1030
 20
1284.4431
 30
0.0000
  0
VERTEX
  8
0
 10
1785.1969
 20
1284.8131
 30
0.0000
  0
VERTEX
  8
0
 10
1784.2267
 20
1285.0902
 30
0.0000
  0
VERTEX
  8
0
 10
1783.0823
 20
1285.2845
 30
0.0000
  0
VERTEX
  8
0
 10
1781.9091
 20
1285.3498
 30
0.0000
  0
VERTEX
  8
0
 10
1780.7358
 20
1285.2845
 30
0.0000
  0
VERTEX
  8
0
 10
1779.5915
 20
1285.0902
 30
0.0000
  0
VERTEX
  8
0
 10
1778.6213
 20
1284.8131
 30
0.0000
  0
VERTEX
  8
0
 10
1777.7151
 20
1284.4431
 30
0.0000
  0
VERTEX
  8
0
 10
1776.8906
 20
1283.9876
 30
0.0000
  0
VERTEX
  8
0
 10
1776.6058
 20
1283.7965
 30
0.0000
  0
SEQEND
  0
POLYLINE
  6
continous
  8
BYBLOCK
 70
0
 66
1
  0
VERTEX
  8
0
 10
1787.2124
 20
1276.2965
 30
0.0000
  0
VERTEX
  8
0
 10
1787.8989
 20
1276.8549
 30
0.0000
  0
VERTEX
  8
0
 10
1788.4687
 20
1277.4754
 30
0.0000
  0
VERTEX
  8
0
 10
1788.9109
 20
1278.1459
 30
0.0000
  0
VERTEX
  8
0
 10
1789.2169
 20
1278.8535
 30
0.0000
  0
VERTEX
  8
0
 10
1789.3805
 20
1279.5843
 30
0.0000
  0
VERTEX
  8
0
 10
1789.4091
 20
1280.0465
 30
0.0000
  0
SEQEND
  0
POLYLINE
  6
continous
  8
BYBLOCK
 70
0
 66
1
  0
VERTEX
  8
0
 10
1717.8405
 20
1240.0465
 30
0.0000
  0
VERTEX
  8
0
 10
1717.9135
 20
1239.3084
 30
0.0000
  0
VERTEX
  8
0
 10
1718.1311
 20
1238.5847
 30
0.0000
  0
VERTEX
  8
0
 10
1718.4890
 20
1237.8894
 30
0.0000
  0
VERTEX
  8
0
 10
1718.9802
 20
1237.2362
 30
0.0000
  0
VERTEX
  8
0
 10
1719.5952
 20
1236.6376
 30
0.0000
  0
VERTEX
  8
0
 10
1720.3221
 20
1236.1054
 30
0.0000
  0
VERTEX
  8
0
 10
1721.1466
 20
1235.6498
 30
0.0000
  0
VERTEX
  8
0
 10
1722.0528
 20
1235.2799
 30
0.0000
  0
VERTEX
  8
0
 10
1723.0229
 20
1235.0027
 30
0.0000
  0
VERTEX
  8
0
 10
1724.1673
 20
1234.8085
 30
0.0000
  0
VERTEX
  8
0
 10
1725.3405
 20
1234.7432
 30
0.0000
  0
VERTEX
  8
0
 10
1726.5138
 20
1234.8085
 30
0.0000
  0
VERTEX
  8
0
 10
1727.6582
 20
1235.0027
 30
0.0000
  0
VERTEX
  8
0
 10
1728.6283
 20
1235.2799
 30
0.0000
  0
VERTEX
  8
0
 10
1729.5345
 20
1235.6498
 30
0.0000
  0
VERTEX
  8
0
 10
1730.3590
 20
1236.1054
 30
0.0000
  0
VERTEX
  8
0
 10
1730.6438
 20
1236.2965
 30
0.0000
  0
SEQEND
  0
POLYLINE
  6
continous
  8
BYBLOCK
 70
0
 66
1
  0
VERTEX
  8
0
 10
1720.0372
 20
1243.7965
 30
0.0000
  0
VERTEX
  8
0
 10
1719.3508
 20
1243.2381
 30
0.0000
  0
VERTEX
  8
0
 10
1718.7809
 20
1242.6176
 30
0.0000
  0
VERTEX
  8
0
 10
1718.3387
 20
1241.9470
 30
0.0000
  0
VERTEX
  8
0
 10
1718.0328
 20
1241.2395
 30
0.0000
  0
VERTEX
  8
0
 10
1717.8691
 20
1240.5087
 30
0.0000
  0
VERTEX
  8
0
 10
1717.8405
 20
1240.0465
 30
0.0000
  0
SEQEND
  0
POLYLINE
  6
continous
  8
BYBLOCK
 70
0
 66
1
  0
VERTEX
  8
0
 10
1732.8405
 20
1240.0465
 30
0.0000
  0
VERTEX
  8
0
 10
1732.7676
 20
1240.7846
 30
0.0000
  0
VERTEX
  8
0
 10
1732.5500
 20
1241.5083
 30
0.0000
  0
VERTEX
  8
0
 10
1732.1921
 20
1242.2035
 30
0.0000
  0
VERTEX
  8
0
 10
1731.7009
 20
1242.8568
 30
0.0000
  0
VERTEX
  8
0
 10
1731.0859
 20
1243.4554
 30
0.0000
  0
VERTEX
  8
0
 10
1730.3590
 20
1243.9876
 30
0.0000
  0
VERTEX
  8
0
 10
1729.5345
 20
1244.4431
 30
0.0000
  0
VERTEX
  8
0
 10
1728.6283
 20
1244.8131
 30
0.0000
  0
VERTEX
  8
0
 10
1727.6582
 20
1245.0902
 30
0.0000
  0
VERTEX
  8
0
 10
1726.5138
 20
1245.2845
 30
0.0000
  0
VERTEX
  8
0
 10
1725.3405
 20
1245.3498
 30
0.0000
  0
VERTEX
  8
0
 10
1724.1673
 20
1245.2845
 30
0.0000
  0
VERTEX
  8
0
 10
1723.0229
 20
1245.0902
 30
0.0000
  0
VERTEX
  8
0
 10
1722.0528
 20
1244.8131
 30
0.0000
  0
VERTEX
  8
0
 10
1721.1466
 20
1244.4431
 30
0.0000
  0
VERTEX
  8
0
 10
1720.3221
 20
1243.9876
 30
0.0000
  0
VERTEX
  8
0
 10
1720.0372
 20
1243.7965
 30
0.0000
  0
SEQEND
  0
POLYLINE
  6
continous
  8
BYBLOCK
 70
0
 66
1
  0
VERTEX
  8
0
 10
1730.6438
 20
1236.2965
 30
0.0000
  0
VERTEX
  8
0
 10
1731.3303
 20
1236.8549
 30
0.0000
  0
VERTEX
  8
0
 10
1731.9002
 20
1237.4754
 30
0.0000
  0
VERTEX
  8
0
 10
1732.3424
 20
1238.1459
 30
0.0000
  0
VERTEX
  8
0
 10
1732.6483
 20
1238.8535
 30
0.0000
  0
VERTEX
  8
0
 10
1732.8120
 20
1239.5843
 30
0.0000
  0
VERTEX
  8
0
 10
1732.8405
 20
1240.0465
 30
0.0000
  0
SEQEND
  0
POLYLINE
  6
continous
  8
BYBLOCK
 70
0
 66
1
  0
VERTEX
  8
0
 10
1661.2720
 20
1200.0465
 30
0.0000
  0
VERTEX
  8
0
 10
1661.3450
 20
1199.3084
 30
0.0000
  0
VERTEX
  8
0
 10
1661.5625
 20
1198.5847
 30
0.0000
  0
VERTEX
  8
0
 10
1661.9204
 20
1197.8894
 30
0.0000
  0
VERTEX
  8
0
 10
1662.4116
 20
1197.2362
 30
0.0000
  0
VERTEX
  8
0
 10
1663.0267
 20
1196.6376
 30
0.0000
  0
VERTEX
  8
0
 10
1663.7535
 20
1196.1054
 30
0.0000
  0
VERTEX
  8
0
 10
1664.5781
 20
1195.6498
 30
0.0000
  0
VERTEX
  8
0
 10
1665.4842
 20
1195.2799
 30
0.0000
  0
VERTEX
  8
0
 10
1666.4544
 20
1195.0027
 30
0.0000
  0
VERTEX
  8
0
 10
1667.5987
 20
1194.8085
 30
0.0000
  0
VERTEX
  8
0
 10
1668.7720
 20
1194.7432
 30
0.0000
  0
VERTEX
  8
0
 10
1669.9453
 20
1194.8085
 30
0.0000
  0
VERTEX
  8
0
 10
1671.0896
 20
1195.0027
 30
0.0000
  0
VERTEX
  8
0
 10
1672.0598
 20
1195.2799
 30
0.0000
  0
VERTEX
  8
0
 10
1672.9660
 20
1195.6498
 30
0.0000
  0
VERTEX
  8
0
 10
1673.7905
 20
1196.1054
 30
0.0000
  0
VERTEX
  8
0
 10
1674.0753
 20
1196.2965
 30
0.0000
  0
SEQEND
  0
POLYLINE
  6
continous
  8
BYBLOCK
 70
0
 66
1
  0
VERTEX
  8
0
 10
1663.4687
 20
1203.7965
 30
0.0000
  0
VERTEX
  8
0
 10
1662.7822
 20
1203.2381
 30
0.0000
  0
VERTEX
  8
0
 10
1662.2124
 20
1202.6176
 30
0.0000
  0
VERTEX
  8
0
 10
1661.7702
 20
1201.9470
 30
0.0000
  0
VERTEX
  8
0
 10
1661.4642
 20
1201.2395
 30
0.0000
  0
VERTEX
  8
0
 10
1661.3005
 20
1200.5087
 30
0.0000
  0
VERTEX
  8
0
 10
1661.2720
 20
1200.0465
 30
0.0000
  0
SEQEND
  0
POLYLINE
  6
continous
  8
BYBLOCK
 70
0
 66
1
  0
VERTEX
  8
0
 10
1676.2720
 20
1200.0465
 30
0.0000
  0
VERTEX
  8
0
 10
1676.1990
 20
1200.7846
 30
0.0000
  0
VERTEX
  8
0
 10
1675.9815
 20
1201.5083
 30
0.0000
  0
VERTEX
  8
0
 10
1675.6236
 20
1202.2035
 30
0.0000
  0
VERTEX
  8
0
 10
1675.1324
 20
1202.8568
 30
0.0000
  0
VERTEX
  8
0
 10
1674.5173
 20
1203.4554
 30
0.0000
  0
VERTEX
  8
0
 10
1673.7905
 20
1203.9876
 30
0.0000
  0
VERTEX
  8
0
 10
1672.9660
 20
1204.4431
 30
0.0000
  0
VERTEX
  8
0
 10
1672.0598
 20
1204.8131
 30
0.0000
  0
VERTEX
  8
0
 10
1671.0896
 20
1205.0902
 30
0.0000
  0
VERTEX
  8
0
 10
1669.9453
 20
1205.2845
 30
0.0000
  0
VERTEX
  8
0
 10
1668.7720
 20
1205.3498
 30
0.0000
  0
VERTEX
  8
0
 10
1667.5987
 20
1205.2845
 30
0.0000
  0
VERTEX
  8
0
 10
1666.4544
 20
1205.0902
 30
0.0000
  0
VERTEX
  8
0
 10
1665.4842
 20
1204.8131
 30
0.0000
  0
VERTEX
  8
0
 10
1664.5781
 20
1204.4431
 30
0.0000
  0
VERTEX
  8
0
 10
1663.7535
 20
1203.9876
 30
0.0000
  0
VERTEX
  8
0
 10
1663.4687
 20
1203.7965
 30
0.0000
  0
SEQEND
  0
POLYLINE
  6
continous
  8
BYBLOCK
 70
0
 66
1
  0
VERTEX
  8
0
 10
1674.0753
 20
1196.2965
 30
0.0000
  0
VERTEX
  8
0
 10
1674.7618
 20
1196.8549
 30
0.0000
  0
VERTEX
  8
0
 10
1675.3317
 20
1197.4754
 30
0.0000
  0
VERTEX
  8
0
 10
1675.7739
 20
1198.1459
 30
0.0000
  0
VERTEX
  8
0
 10
1676.0798
 20
1198.8535
 30
0.0000
  0
VERTEX
  8
0
 10
1676.2435
 20
1199.5843
 30
0.0000
  0
VERTEX
  8
0
 10
1676.2720
 20
1200.0465
 30
0.0000
  0
SEQEND
  0
POLYLINE
  6
continous
  8
BYBLOCK
 70
0
 66
1
  0
VERTEX
  8
0
 10
1604.7035
 20
1160.0465
 30
0.0000
  0
VERTEX
  8
0
 10
1604.7765
 20
1159.3084
 30
0.0000
  0
VERTEX
  8
0
 10
1604.9940
 20
1158.5847
 30
0.0000
  0
VERTEX
  8
0
 10
1605.3519
 20
1157.8894
 30
0.0000
  0
VERTEX
  8
0
 10
1605.8431
 20
1157.2362
 30
0.0000
  0
VERTEX
  8
0
 10
1606.4581
 20
1156.6376
 30
0.0000
  0
VERTEX
  8
0
 10
1607.1850
 20
1156.1054
 30
0.0000
  0
VERTEX
  8
0
 10
1608.0095
 20
1155.6498
 30
0.0000
  0
VERTEX
  8
0
 10
1608.9157
 20
1155.2799
 30
0.0000
  0
VERTEX
  8
0
 10
1609.8858
 20
1155.0027
 30
0.0000
  0
VERTEX
  8
0
 10
1611.0302
 20
1154.8085
 30
0.0000
  0
VERTEX
  8
0
 10
1612.2035
 20
1154.7432
 30
0.0000
  0
VERTEX
  8
0
 10
1613.3767
 20
1154.8085
 30
0.0000
  0
VERTEX
  8
0
 10
1614.5211
 20
1155.0027
 30
0.0000
  0
VERTEX
  8
0
 10
1615.4912
 20
1155.2799
 30
0.0000
  0
VERTEX
  8
0
 10
1616.3974
 20
1155.6498
 30
0.0000
  0
VERTEX
  8
0
 10
1617.2219
 20
1156.1054
 30
0.0000
  0
VERTEX
  8
0
 10
1617.5068
 20
1156.2965
 30
0.0000
  0
SEQEND
  0
POLYLINE
  6
continous
  8
BYBLOCK
 70
0
 66
1
  0
VERTEX
  8
0
 10
1606.9002
 20
1163.7965
 30
0.0000
  0
VERTEX
  8
0
 10
1606.2137
 20
1163.2381
 30
0.0000
  0
VERTEX
  8
0
 10
1605.6438
 20
1162.6176
 30
0.0000
  0
VERTEX
  8
0
 10
1605.2016
 20
1161.9470
 30
0.0000
  0
VERTEX
  8
0
 10
1604.8957
 20
1161.2395
 30
0.0000
  0
VERTEX
  8
0
 10
1604.7320
 20
1160.5087
 30
0.0000
  0
VERTEX
  8
0
 10
1604.7035
 20
1160.0465
 30
0.0000
  0
SEQEND
  0
POLYLINE
  6
continous
  8
BYBLOCK
 70
0
 66
1
  0
VERTEX
  8
0
 10
1619.7035
 20
1160.0465
 30
0.0000
  0
VERTEX
  8
0
 10
1619.6305
 20
1160.7846
 30
0.0000
  0
VERTEX
  8
0
 10
1619.4129
 20
1161.5083
 30
0.0000
  0
VERTEX
  8
0
 10
1619.0551
 20
1162.2035
 30
0.0000
  0
VERTEX
  8
0
 10
1618.5638
 20
1162.8568
 30
0.0000
  0
VERTEX
  8
0
 10
1617.9488
 20
1163.4554
 30
0.0000
  0
VERTEX
  8
0
 10
1617.2219
 20
1163.9876
 30
0.0000
  0
VERTEX
  8
0
 10
1616.3974
 20
1164.4431
 30
0.0000
  0
VERTEX
  8
0
 10
1615.4912
 20
1164.8131
 30
0.0000
  0
VERTEX
  8
0
 10
1614.5211
 20
1165.0902
 30
0.0000
  0
VERTEX
  8
0
 10
1613.3767
 20
1165.2845
 30
0.0000
  0
VERTEX
  8
0
 10
1612.2035
 20
1165.3498
 30
0.0000
  0
VERTEX
  8
0
 10
1611.0302
 20
1165.2845
 30
0.0000
  0
VERTEX
  8
0
 10
1609.8858
 20
1165.0902
 30
0.0000
  0
VERTEX
  8
0
 10
1608.9157
 20
1164.8131
 30
0.0000
  0
VERTEX
  8
0
 10
1608.0095
 20
1164.4431
 30
0.0000
  0
VERTEX
  8
0
 10
1607.1850
 20
1163.9876
 30
0.0000
  0
VERTEX
  8
0
 10
1606.9002
 20
1163.7965
 30
0.0000
  0
SEQEND
  0
POLYLINE
  6
continous
  8
BYBLOCK
 70
0
 66
1
  0
VERTEX
  8
0
 10
1617.5068
 20
1156.2965
 30
0.0000
  0
VERTEX
  8
0
 10
1618.1932
 20
1156.8549
 30
0.0000
  0
VERTEX
  8
0
 10
1618.7631
 20
1157.4754
 30
0.0000
  0
VERTEX
  8
0
 10
1619.2053
 20
1158.1459
 30
0.0000
  0
VERTEX
  8
0
 10
1619.5112
 20
1158.8535
 30
0.0000
  0
VERTEX
  8
0
 10
1619.6749
 20
1159.5843
 30
0.0000
  0
VERTEX
  8
0
 10
1619.7035
 20
1160.0465
 30
0.0000
  0
SEQEND
  0
POLYLINE
  6
continous
  8
BYBLOCK
 70
0
 66
1
  0
VERTEX
  8
0
 10
1548.1349
 20
1120.0465
 30
0.0000
  0
VERTEX
  8
0
 10
1548.2079
 20
1119.3084
 30
0.0000
  0
VERTEX
  8
0
 10
1548.4255
 20
1118.5847
 30
0.0000
  0
VERTEX
  8
0
 10
1548.7833
 20
1117.8894
 30
0.0000
  0
VERTEX
  8
0
 10
1549.2746
 20
1117.2362
 30
0.0000
  0
VERTEX
  8
0
 10
1549.8896
 20
1116.6376
 30
0.0000
  0
VERTEX
  8
0
 10
1550.6164
 20
1116.1054
 30
0.0000
  0
VERTEX
  8
0
 10
1551.4410
 20
1115.6498
 30
0.0000
  0
VERTEX
  8
0
 10
1552.3471
 20
1115.2799
 30
0.0000
  0
VERTEX
  8
0
 10
1553.3173
 20
1115.0027
 30
0.0000
  0
VERTEX
  8
0
 10
1554.4617
 20
1114.8085
 30
0.0000
  0
VERTEX
  8
0
 10
1555.6349
 20
1114.7432
 30
0.0000
  0
VERTEX
  8
0
 10
1556.8082
 20
1114.8085
 30
0.0000
  0
VERTEX
  8
0
 10
1557.9525
 20
1115.0027
 30
0.0000
  0
VERTEX
  8
0
 10
1558.9227
 20
1115.2799
 30
0.0000
  0
VERTEX
  8
0
 10
1559.8289
 20
1115.6498
 30
0.0000
  0
VERTEX
  8
0
 10
1560.6534
 20
1116.1054
 30
0.0000
  0
VERTEX
  8
0
 10
1560.9382
 20
1116.2965
 30
0.0000
  0
SEQEND
  0
POLYLINE
  6
continous
  8
BYBLOCK
 70
0
 66
1
  0
VERTEX
  8
0
 10
1550.3316
 20
1123.7965
 30
0.0000
  0
VERTEX
  8
0
 10
1549.6452
 20
1123.2381
 30
0.0000
  0
VERTEX
  8
0
 10
1549.0753
 20
1122.6176
 30
0.0000
  0
VERTEX
  8
0
 10
1548.6331
 20
1121.9470
 30
0.0000
  0
VERTEX
  8
0
 10
1548.3271
 20
1121.2395
 30
0.0000
  0
VERTEX
  8
0
 10
1548.1635
 20
1120.5087
 30
0.0000
  0
VERTEX
  8
0
 10
1548.1349
 20
1120.0465
 30
0.0000
  0
SEQEND
  0
POLYLINE
  6
continous
  8
BYBLOCK
 70
0
 66
1
  0
VERTEX
  8
0
 10
1563.1349
 20
1120.0465
 30
0.0000
  0
VERTEX
  8
0
 10
1563.0619
 20
1120.7846
 30
0.0000
  0
VERTEX
  8
0
 10
1562.8444
 20
1121.5083
 30
0.0000
  0
VERTEX
  8
0
 10
1562.4865
 20
1122.2035
 30
0.0000
  0
VERTEX
  8
0
 10
1561.9953
 20
1122.8568
 30
0.0000
  0
VERTEX
  8
0
 10
1561.3803
 20
1123.4554
 30
0.0000
  0
VERTEX
  8
0
 10
1560.6534
 20
1123.9876
 30
0.0000
  0
VERTEX
  8
0
 10
1559.8289
 20
1124.4431
 30
0.0000
  0
VERTEX
  8
0
 10
1558.9227
 20
1124.8131
 30
0.0000
  0
VERTEX
  8
0
 10
1557.9525
 20
1125.0902
 30
0.0000
  0
VERTEX
  8
0
 10
1556.8082
 20
1125.2845
 30
0.0000
  0
VERTEX
  8
0
 10
1555.6349
 20
1125.3498
 30
0.0000
  0
VERTEX
  8
0
 10
1554.4617
 20
1125.2845
 30
0.0000
  0
VERTEX
  8
0
 10
1553.3173
 20
1125.0902
 30
0.0000
  0
VERTEX
  8
0
 10
1552.3471
 20
1124.8131
 30
0.0000
  0
VERTEX
  8
0
 10
1551.4410
 20
1124.4431
 30
0.0000
  0
VERTEX
  8
0
 10
1550.6164
 20
1123.9876
 30
0.0000
  0
VERTEX
  8
0
 10
1550.3316
 20
1123.7965
 30
0.0000
  0
SEQEND
  0
POLYLINE
  6
continous
  8
BYBLOCK
 70
0
 66
1
  0
VERTEX
  8
0
 10
1560.9382
 20
1116.2965
 30
0.0000
  0
VERTEX
  8
0
 10
1561.6247
 20
1116.8549
 30
0.0000
  0
VERTEX
  8
0
 10
1562.1946
 20
1117.4754
 30
0.0000
  0
VERTEX
  8
0
 10
1562.6368
 20
1118.1459
 30
0.0000
  0
VERTEX
  8
0
 10
1562.9427
 20
1118.8535
 30
0.0000
  0
VERTEX
  8
0
 10
1563.1064
 20
1119.5843
 30
0.0000
  0
VERTEX
  8
0
 10
1563.1349
 20
1120.0465
 30
0.0000
  0
SEQEND
  0
POLYLINE
  6
continous
  8
BYBLOCK
 70
0
 66
1
  0
VERTEX
  8
0
 10
1491.5664
 20
1080.0465
 30
0.0000
  0
VERTEX
  8
0
 10
1491.6394
 20
1079.3084
 30
0.0000
  0
VERTEX
  8
0
 10
1491.8569
 20
1078.5847
 30
0.0000
  0
VERTEX
  8
0
 10
1492.2148
 20
1077.8894
 30
0.0000
  0
VERTEX
  8
0
 10
1492.7060
 20
1077.2362
 30
0.0000
  0
VERTEX
  8
0
 10
1493.3210
 20
1076.6376
 30
0.0000
  0
VERTEX
  8
0
 10
1494.0479
 20
1076.1054
 30
0.0000
  0
VERTEX
  8
0
 10
1494.8724
 20
1075.6498
 30
0.0000
  0
VERTEX
  8
0
 10
1495.7786
 20
1075.2799
 30
0.0000
  0
VERTEX
  8
0
 10
1496.7487
 20
1075.0027
 30
0.0000
  0
VERTEX
  8
0
 10
1497.8931
 20
1074.8085
 30
0.0000
  0
VERTEX
  8
0
 10
1499.0664
 20
1074.7432
 30
0.0000
  0
VERTEX
  8
0
 10
1500.2396
 20
1074.8085
 30
0.0000
  0
VERTEX
  8
0
 10
1501.3840
 20
1075.0027
 30
0.0000
  0
VERTEX
  8
0
 10
1502.3542
 20
1075.2799
 30
0.0000
  0
VERTEX
  8
0
 10
1503.2603
 20
1075.6498
 30
0.0000
  0
VERTEX
  8
0
 10
1504.0849
 20
1076.1054
 30
0.0000
  0
VERTEX
  8
0
 10
1504.3697
 20
1076.2965
 30
0.0000
  0
SEQEND
  0
POLYLINE
  6
continous
  8
BYBLOCK
 70
0
 66
1
  0
VERTEX
  8
0
 10
1493.7631
 20
1083.7965
 30
0.0000
  0
VERTEX
  8
0
 10
1493.0766
 20
1083.2381
 30
0.0000
  0
VERTEX
  8
0
 10
1492.5067
 20
1082.6176
 30
0.0000
  0
VERTEX
  8
0
 10
1492.0645
 20
1081.9470
 30
0.0000
  0
VERTEX
  8
0
 10
1491.7586
 20
1081.2395
 30
0.0000
  0
VERTEX
  8
0
 10
1491.5949
 20
1080.5087
 30
0.0000
  0
VERTEX
  8
0
 10
1491.5664
 20
1080.0465
 30
0.0000
  0
SEQEND
  0
POLYLINE
  6
continous
  8
BYBLOCK
 70
0
 66
1
  0
VERTEX
  8
0
 10
1506.5664
 20
1080.0465
 30
0.0000
  0
VERTEX
  8
0
 10
1506.4934
 20
1080.7846
 30
0.0000
  0
VERTEX
  8
0
 10
1506.2758
 20
1081.5083
 30
0.0000
  0
VERTEX
  8
0
 10
1505.9180
 20
1082.2035
 30
0.0000
  0
VERTEX
  8
0
 10
1505.4267
 20
1082.8568
 30
0.0000
  0
VERTEX
  8
0
 10
1504.8117
 20
1083.4554
 30
0.0000
  0
VERTEX
  8
0
 10
1504.0849
 20
1083.9876
 30
0.0000
  0
VERTEX
  8
0
 10
1503.2603
 20
1084.4431
 30
0.0000
  0
VERTEX
  8
0
 10
1502.3542
 20
1084.8131
 30
0.0000
  0
VERTEX
  8
0
 10
1501.3840
 20
1085.0902
 30
0.0000
  0
VERTEX
  8
0
 10
1500.2396
 20
1085.2845
 30
0.0000
  0
VERTEX
  8
0
 10
1499.0664
 20
1085.3498
 30
0.0000
  0
VERTEX
  8
0
 10
1497.8931
 20
1085.2845
 30
0.0000
  0
VERTEX
  8
0
 10
1496.7487
 20
1085.0902
 30
0.0000
  0
VERTEX
  8
0
 10
1495.7786
 20
1084.8131
 30
0.0000
  0
VERTEX
  8
0
 10
1494.8724
 20
1084.4431
 30
0.0000
  0
VERTEX
  8
0
 10
1494.0479
 20
1083.9876
 30
0.0000
  0
VERTEX
  8
0
 10
1493.7631
 20
1083.7965
 30
0.0000
  0
SEQEND
  0
POLYLINE
  6
continous
  8
BYBLOCK
 70
0
 66
1
  0
VERTEX
  8
0
 10
1504.3697
 20
1076.2965
 30
0.0000
  0
VERTEX
  8
0
 10
1505.0561
 20
1076.8549
 30
0.0000
  0
VERTEX
  8
0
 10
1505.6260
 20
1077.4754
 30
0.0000
  0
VERTEX
  8
0
 10
1506.0682
 20
1078.1459
 30
0.0000
  0
VERTEX
  8
0
 10
1506.3742
 20
1078.8535
 30
0.0000
  0
VERTEX
  8
0
 10
1506.5378
 20
1079.5843
 30
0.0000
  0
VERTEX
  8
0
 10
1506.5664
 20
1080.0465
 30
0.0000
  0
SEQEND
  0
POLYLINE
  6
continous
  8
BYBLOCK
 70
0
 66
1
  0
VERTEX
  8
0
 10
1434.9978
 20
1040.0465
 30
0.0000
  0
VERTEX
  8
0
 10
1435.0708
 20
1039.3084
 30
0.0000
  0
VERTEX
  8
0
 10
1435.2884
 20
1038.5847
 30
0.0000
  0
VERTEX
  8
0
 10
1435.6462
 20
1037.8894
 30
0.0000
  0
VERTEX
  8
0
 10
1436.1375
 20
1037.2362
 30
0.0000
  0
VERTEX
  8
0
 10
1436.7525
 20
1036.6376
 30
0.0000
  0
VERTEX
  8
0
 10
1437.4794
 20
1036.1054
 30
0.0000
  0
VERTEX
  8
0
 10
1438.3039
 20
1035.6498
 30
0.0000
  0
VERTEX
  8
0
 10
1439.2101
 20
1035.2799
 30
0.0000
  0
VERTEX
  8
0
 10
1440.1802
 20
1035.0027
 30
0.0000
  0
VERTEX
  8
0
 10
1441.3246
 20
1034.8085
 30
0.0000
  0
VERTEX
  8
0
 10
1442.4978
 20
1034.7432
 30
0.0000
  0
VERTEX
  8
0
 10
1443.6711
 20
1034.8085
 30
0.0000
  0
VERTEX
  8
0
 10
1444.8155
 20
1035.0027
 30
0.0000
  0
VERTEX
  8
0
 10
1445.7856
 20
1035.2799
 30
0.0000
  0
VERTEX
  8
0
 10
1446.6918
 20
1035.6498
 30
0.0000
  0
VERTEX
  8
0
 10
1447.5163
 20
1036.1054
 30
0.0000
  0
VERTEX
  8
0
 10
1447.8011
 20
1036.2965
 30
0.0000
  0
SEQEND
  0
POLYLINE
  6
continous
  8
BYBLOCK
 70
0
 66
1
  0
VERTEX
  8
0
 10
1437.1945
 20
1043.7965
 30
0.0000
  0
VERTEX
  8
0
 10
1436.5081
 20
1043.2381
 30
0.0000
  0
VERTEX
  8
0
 10
1435.9382
 20
1042.6176
 30
0.0000
  0
VERTEX
  8
0
 10
1435.4960
 20
1041.9470
 30
0.0000
  0
VERTEX
  8
0
 10
1435.1901
 20
1041.2395
 30
0.0000
  0
VERTEX
  8
0
 10
1435.0264
 20
1040.5087
 30
0.0000
  0
VERTEX
  8
0
 10
1434.9978
 20
1040.0465
 30
0.0000
  0
SEQEND
  0
POLYLINE
  6
continous
  8
BYBLOCK
 70
0
 66
1
  0
VERTEX
  8
0
 10
1449.9978
 20
1040.0465
 30
0.0000
  0
VERTEX
  8
0
 10
1449.9248
 20
1040.7846
 30
0.0000
  0
VERTEX
  8
0
 10
1449.7073
 20
1041.5083
 30
0.0000
  0
VERTEX
  8
0
 10
1449.3494
 20
1042.2035
 30
0.0000
  0
VERTEX
  8
0
 10
1448.8582
 20
1042.8568
 30
0.0000
  0
VERTEX
  8
0
 10
1448.2432
 20
1043.4554
 30
0.0000
  0
VERTEX
  8
0
 10
1447.5163
 20
1043.9876
 30
0.0000
  0
VERTEX
  8
0
 10
1446.6918
 20
1044.4431
 30
0.0000
  0
VERTEX
  8
0
 10
1445.7856
 20
1044.8131
 30
0.0000
  0
VERTEX
  8
0
 10
1444.8155
 20
1045.0902
 30
0.0000
  0
VERTEX
  8
0
 10
1443.6711
 20
1045.2845
 30
0.0000
  0
VERTEX
  8
0
 10
1442.4978
 20
1045.3498
 30
0.0000
  0
VERTEX
  8
0
 10
1441.3246
 20
1045.2845
 30
0.0000
  0
VERTEX
  8
0
 10
1440.1802
 20
1045.0902
 30
0.0000
  0
VERTEX
  8
0
 10
1439.2101
 20
1044.8131
 30
0.0000
  0
VERTEX
  8
0
 10
1438.3039
 20
1044.4431
 30
0.0000
  0
VERTEX
  8
0
 10
1437.4794
 20
1043.9876
 30
0.0000
  0
VERTEX
  8
0
 10
1437.1945
 20
1043.7965
 30
0.0000
  0
SEQEND
  0
POLYLINE
  6
continous
  8
BYBLOCK
 70
0
 66
1
  0
VERTEX
  8
0
 10
1447.8011
 20
1036.2965
 30
0.0000
  0
VERTEX
  8
0
 10
1448.4876
 20
1036.8549
 30
0.0000
  0
VERTEX
  8
0
 10
1449.0575
 20
1037.4754
 30
0.0000
  0
VERTEX
  8
0
 10
1449.4997
 20
1038.1459
 30
0.0000
  0
VERTEX
  8
0
 10
1449.8056
 20
1038.8535
 30
0.0000
  0
VERTEX
  8
0
 10
1449.9693
 20
1039.5843
 30
0.0000
  0
VERTEX
  8
0
 10
1449.9978
 20
1040.0465
 30
0.0000
  0
SEQEND
  0
POLYLINE
  6
continous
  8
BYBLOCK
 70
0
 66
1
  0
VERTEX
  8
0
 10
1378.4293
 20
1000.0465
 30
0.0000
  0
VERTEX
  8
0
 10
1378.5023
 20
999.3084
 30
0.0000
  0
VERTEX
  8
0
 10
1378.7198
 20
998.5847
 30
0.0000
  0
VERTEX
  8
0
 10
1379.0777
 20
997.8894
 30
0.0000
  0
VERTEX
  8
0
 10
1379.5689
 20
997.2362
 30
0.0000
  0
VERTEX
  8
0
 10
1380.1840
 20
996.6376
 30
0.0000
  0
VERTEX
  8
0
 10
1380.9108
 20
996.1054
 30
0.0000
  0
VERTEX
  8
0
 10
1381.7353
 20
995.6498
 30
0.0000
  0
VERTEX
  8
0
 10
1382.6415
 20
995.2799
 30
0.0000
  0
VERTEX
  8
0
 10
1383.6117
 20
995.0027
 30
0.0000
  0
VERTEX
  8
0
 10
1384.7560
 20
994.8085
 30
0.0000
  0
VERTEX
  8
0
 10
1385.9293
 20
994.7432
 30
0.0000
  0
VERTEX
  8
0
 10
1387.1025
 20
994.8085
 30
0.0000
  0
VERTEX
  8
0
 10
1388.2469
 20
995.0027
 30
0.0000
  0
VERTEX
  8
0
 10
1389.2171
 20
995.2799
 30
0.0000
  0
VERTEX
  8
0
 10
1390.1232
 20
995.6498
 30
0.0000
  0
VERTEX
  8
0
 10
1390.9478
 20
996.1054
 30
0.0000
  0
VERTEX
  8
0
 10
1391.2326
 20
996.2965
 30
0.0000
  0
SEQEND
  0
POLYLINE
  6
continous
  8
BYBLOCK
 70
0
 66
1
  0
VERTEX
  8
0
 10
1380.6260
 20
1003.7965
 30
0.0000
  0
VERTEX
  8
0
 10
1379.9395
 20
1003.2381
 30
0.0000
  0
VERTEX
  8
0
 10
1379.3696
 20
1002.6176
 30
0.0000
  0
VERTEX
  8
0
 10
1378.9274
 20
1001.9470
 30
0.0000
  0
VERTEX
  8
0
 10
1378.6215
 20
1001.2395
 30
0.0000
  0
VERTEX
  8
0
 10
1378.4578
 20
1000.5087
 30
0.0000
  0
VERTEX
  8
0
 10
1378.4293
 20
1000.0465
 30
0.0000
  0
SEQEND
  0
POLYLINE
  6
continous
  8
BYBLOCK
 70
0
 66
1
  0
VERTEX
  8
0
 10
1393.4293
 20
1000.0465
 30
0.0000
  0
VERTEX
  8
0
 10
1393.3563
 20
1000.7846
 30
0.0000
  0
VERTEX
  8
0
 10
1393.1388
 20
1001.5083
 30
0.0000
  0
VERTEX
  8
0
 10
1392.7809
 20
1002.2035
 30
0.0000
  0
VERTEX
  8
0
 10
1392.2897
 20
1002.8568
 30
0.0000
  0
VERTEX
  8
0
 10
1391.6746
 20
1003.4554
 30
0.0000
  0
VERTEX
  8
0
 10
1390.9478
 20
1003.9876
 30
0.0000
  0
VERTEX
  8
0
 10
1390.1232
 20
1004.4431
 30
0.0000
  0
VERTEX
  8
0
 10
1389.2171
 20
1004.8131
 30
0.0000
  0
VERTEX
  8
0
 10
1388.2469
 20
1005.0902
 30
0.0000
  0
VERTEX
  8
0
 10
1387.1025
 20
1005.2845
 30
0.0000
  0
VERTEX
  8
0
 10
1385.9293
 20
1005.3498
 30
0.0000
  0
VERTEX
  8
0
 10
1384.7560
 20
1005.2845
 30
0.0000
  0
VERTEX
  8
0
 10
1383.6117
 20
1005.0902
 30
0.0000
  0
VERTEX
  8
0
 10
1382.6415
 20
1004.8131
 30
0.0000
  0
VERTEX
  8
0
 10
1381.7353
 20
1004.4431
 30
0.0000
  0
VERTEX
  8
0
 10
1380.9108
 20
1003.9876
 30
0.0000
  0
VERTEX
  8
0
 10
1380.6260
 20
1003.7965
 30
0.0000
  0
SEQEND
  0
POLYLINE
  6
continous
  8
BYBLOCK
 70
0
 66
1
  0
VERTEX
  8
0
 10
1391.2326
 20
996.2965
 30
0.0000
  0
VERTEX
  8
0
 10
1391.9191
 20
996.8549
 30
0.0000
  0
VERTEX
  8
0
 10
1392.4889
 20
997.4754
 30
0.0000
  0
VERTEX
  8
0
 10
1392.9311
 20
998.1459
 30
0.0000
  0
VERTEX
  8
0
 10
1393.2371
 20
998.8535
 30
0.0000
  0
VERTEX
  8
0
 10
1393.4008
 20
999.5843
 30
0.0000
  0
VERTEX
  8
0
 10
1393.4293
 20
1000.0465
 30
0.0000
  0
SEQEND
  0
POLYLINE
  6
continous
  8
BYBLOCK
 70
0
 66
1
  0
VERTEX
  8
0
 10
1321.8607
 20
960.0465
 30
0.0000
  0
VERTEX
  8
0
 10
1321.9337
 20
959.3084
 30
0.0000
  0
VERTEX
  8
0
 10
1322.1513
 20
958.5847
 30
0.0000
  0
VERTEX
  8
0
 10
1322.5092
 20
957.8894
 30
0.0000
  0
VERTEX
  8
0
 10
1323.0004
 20
957.2362
 30
0.0000
  0
VERTEX
  8
0
 10
1323.6154
 20
956.6376
 30
0.0000
  0
VERTEX
  8
0
 10
1324.3423
 20
956.1054
 30
0.0000
  0
VERTEX
  8
0
 10
1325.1668
 20
955.6498
 30
0.0000
  0
VERTEX
  8
0
 10
1326.0730
 20
955.2799
 30
0.0000
  0
VERTEX
  8
0
 10
1327.0431
 20
955.0027
 30
0.0000
  0
VERTEX
  8
0
 10
1328.1875
 20
954.8085
 30
0.0000
  0
VERTEX
  8
0
 10
1329.3607
 20
954.7432
 30
0.0000
  0
VERTEX
  8
0
 10
1330.5340
 20
954.8085
 30
0.0000
  0
VERTEX
  8
0
 10
1331.6784
 20
955.0027
 30
0.0000
  0
VERTEX
  8
0
 10
1332.6485
 20
955.2799
 30
0.0000
  0
VERTEX
  8
0
 10
1333.5547
 20
955.6498
 30
0.0000
  0
VERTEX
  8
0
 10
1334.3792
 20
956.1054
 30
0.0000
  0
VERTEX
  8
0
 10
1334.6640
 20
956.2965
 30
0.0000
  0
SEQEND
  0
POLYLINE
  6
continous
  8
BYBLOCK
 70
0
 66
1
  0
VERTEX
  8
0
 10
1324.0574
 20
963.7965
 30
0.0000
  0
VERTEX
  8
0
 10
1323.3710
 20
963.2381
 30
0.0000
  0
VERTEX
  8
0
 10
1322.8011
 20
962.6176
 30
0.0000
  0
VERTEX
  8
0
 10
1322.3589
 20
961.9470
 30
0.0000
  0
VERTEX
  8
0
 10
1322.0530
 20
961.2395
 30
0.0000
  0
VERTEX
  8
0
 10
1321.8893
 20
960.5087
 30
0.0000
  0
VERTEX
  8
0
 10
1321.8607
 20
960.0465
 30
0.0000
  0
SEQEND
  0
POLYLINE
  6
continous
  8
BYBLOCK
 70
0
 66
1
  0
VERTEX
  8
0
 10
1336.8607
 20
960.0465
 30
0.0000
  0
VERTEX
  8
0
 10
1336.7878
 20
960.7846
 30
0.0000
  0
VERTEX
  8
0
 10
1336.5702
 20
961.5083
 30
0.0000
  0
VERTEX
  8
0
 10
1336.2123
 20
962.2035
 30
0.0000
  0
VERTEX
  8
0
 10
1335.7211
 20
962.8568
 30
0.0000
  0
VERTEX
  8
0
 10
1335.1061
 20
963.4554
 30
0.0000
  0
VERTEX
  8
0
 10
1334.3792
 20
963.9876
 30
0.0000
  0
VERTEX
  8
0
 10
1333.5547
 20
964.4431
 30
0.0000
  0
VERTEX
  8
0
 10
1332.6485
 20
964.8131
 30
0.0000
  0
VERTEX
  8
0
 10
1331.6784
 20
965.0902
 30
0.0000
  0
VERTEX
  8
0
 10
1330.5340
 20
965.2845
 30
0.0000
  0
VERTEX
  8
0
 10
1329.3607
 20
965.3498
 30
0.0000
  0
VERTEX
  8
0
 10
1328.1875
 20
965.2845
 30
0.0000
  0
VERTEX
  8
0
 10
1327.0431
 20
965.0902
 30
0.0000
  0
VERTEX
  8
0
 10
1326.0730
 20
964.8131
 30
0.0000
  0
VERTEX
  8
0
 10
1325.1668
 20
964.4431
 30
0.0000
  0
VERTEX
  8
0
 10
1324.3423
 20
963.9876
 30
0.0000
  0
VERTEX
  8
0
 10
1324.0574
 20
963.7965
 30
0.0000
  0
SEQEND
  0
POLYLINE
  6
continous
  8
BYBLOCK
 70
0
 66
1
  0
VERTEX
  8
0
 10
1334.6640
 20
956.2965
 30
0.0000
  0
VERTEX
  8
0
 10
1335.3505
 20
956.8549
 30
0.0000
  0
VERTEX
  8
0
 10
1335.9204
 20
957.4754
 30
0.0000
  0
VERTEX
  8
0
 10
1336.3626
 20
958.1459
 30
0.0000
  0
VERTEX
  8
0
 10
1336.6685
 20
958.8535
 30
0.0000
  0
VERTEX
  8
0
 10
1336.8322
 20
959.5843
 30
0.0000
  0
VERTEX
  8
0
 10
1336.8607
 20
960.0465
 30
0.0000
  0
SEQEND
  0
POLYLINE
  6
continous
  8
BYBLOCK
 70
0
 66
1
  0
VERTEX
  8
0
 10
1265.2922
 20
920.0465
 30
0.0000
  0
VERTEX
  8
0
 10
1265.3652
 20
919.3084
 30
0.0000
  0
VERTEX
  8
0
 10
1265.5827
 20
918.5847
 30
0.0000
  0
VERTEX
  8
0
 10
1265.9406
 20
917.8894
 30
0.0000
  0
VERTEX
  8
0
 10
1266.4318
 20
917.2362
 30
0.0000
  0
VERTEX
  8
0
 10
1267.0469
 20
916.6376
 30
0.0000
  0
VERTEX
  8
0
 10
1267.7737
 20
916.1054
 30
0.0000
  0
VERTEX
  8
0
 10
1268.5983
 20
915.6498
 30
0.0000
  0
VERTEX
  8
0
 10
1269.5044
 20
915.2799
 30
0.0000
  0
VERTEX
  8
0
 10
1270.4746
 20
915.0027
 30
0.0000
  0
VERTEX
  8
0
 10
1271.6189
 20
914.8085
 30
0.0000
  0
VERTEX
  8
0
 10
1272.7922
 20
914.7432
 30
0.0000
  0
VERTEX
  8
0
 10
1273.9655
 20
914.8085
 30
0.0000
  0
VERTEX
  8
0
 10
1275.1098
 20
915.0027
 30
0.0000
  0
VERTEX
  8
0
 10
1276.0800
 20
915.2799
 30
0.0000
  0
VERTEX
  8
0
 10
1276.9862
 20
915.6498
 30
0.0000
  0
VERTEX
  8
0
 10
1277.8107
 20
916.1054
 30
0.0000
  0
VERTEX
  8
0
 10
1278.0955
 20
916.2965
 30
0.0000
  0
SEQEND
  0
POLYLINE
  6
continous
  8
BYBLOCK
 70
0
 66
1
  0
VERTEX
  8
0
 10
1267.4889
 20
923.7965
 30
0.0000
  0
VERTEX
  8
0
 10
1266.8024
 20
923.2381
 30
0.0000
  0
VERTEX
  8
0
 10
1266.2326
 20
922.6176
 30
0.0000
  0
VERTEX
  8
0
 10
1265.7904
 20
921.9470
 30
0.0000
  0
VERTEX
  8
0
 10
1265.4844
 20
921.2395
 30
0.0000
  0
VERTEX
  8
0
 10
1265.3207
 20
920.5087
 30
0.0000
  0
VERTEX
  8
0
 10
1265.2922
 20
920.0465
 30
0.0000
  0
SEQEND
  0
POLYLINE
  6
continous
  8
BYBLOCK
 70
0
 66
1
  0
VERTEX
  8
0
 10
1280.2922
 20
920.0465
 30
0.0000
  0
VERTEX
  8
0
 10
1280.2192
 20
920.7846
 30
0.0000
  0
VERTEX
  8
0
 10
1280.0017
 20
921.5083
 30
0.0000
  0
VERTEX
  8
0
 10
1279.6438
 20
922.2035
 30
0.0000
  0
VERTEX
  8
0
 10
1279.1526
 20
922.8568
 30
0.0000
  0
VERTEX
  8
0
 10
1278.5375
 20
923.4554
 30
0.0000
  0
VERTEX
  8
0
 10
1277.8107
 20
923.9876
 30
0.0000
  0
VERTEX
  8
0
 10
1276.9862
 20
924.4431
 30
0.0000
  0
VERTEX
  8
0
 10
1276.0800
 20
924.8131
 30
0.0000
  0
VERTEX
  8
0
 10
1275.1098
 20
925.0902
 30
0.0000
  0
VERTEX
  8
0
 10
1273.9655
 20
925.2845
 30
0.0000
  0
VERTEX
  8
0
 10
1272.7922
 20
925.3498
 30
0.0000
  0
VERTEX
  8
0
 10
1271.6189
 20
925.2845
 30
0.0000
  0
VERTEX
  8
0
 10
1270.4746
 20
925.0902
 30
0.0000
  0
VERTEX
  8
0
 10
1269.5044
 20
924.8131
 30
0.0000
  0
VERTEX
  8
0
 10
1268.5983
 20
924.4431
 30
0.0000
  0
VERTEX
  8
0
 10
1267.7737
 20
923.9876
 30
0.0000
  0
VERTEX
  8
0
 10
1267.4889
 20
923.7965
 30
0.0000
  0
SEQEND
  0
POLYLINE
  6
continous
  8
BYBLOCK
 70
0
 66
1
  0
VERTEX
  8
0
 10
1278.0955
 20
916.2965
 30
0.0000
  0
VERTEX
  8
0
 10
1278.7820
 20
916.8549
 30
0.0000
  0
VERTEX
  8
0
 10
1279.3519
 20
917.4754
 30
0.0000
  0
VERTEX
  8
0
 10
1279.7941
 20
918.1459
 30
0.0000
  0
VERTEX
  8
0
 10
1280.1000
 20
918.8535
 30
0.0000
  0
VERTEX
  8
0
 10
1280.2637
 20
919.5843
 30
0.0000
  0
VERTEX
  8
0
 10
1280.2922
 20
920.0465
 30
0.0000
  0
SEQEND
  0
POLYLINE
  6
continous
  8
BYBLOCK
 70
0
 66
1
  0
VERTEX
  8
0
 10
1208.7237
 20
880.0465
 30
0.0000
  0
VERTEX
  8
0
 10
1208.7967
 20
879.3084
 30
0.0000
  0
VERTEX
  8
0
 10
1209.0142
 20
878.5847
 30
0.0000
  0
VERTEX
  8
0
 10
1209.3721
 20
877.8894
 30
0.0000
  0
VERTEX
  8
0
 10
1209.8633
 20
877.2362
 30
0.0000
  0
VERTEX
  8
0
 10
1210.4783
 20
876.6376
 30
0.0000
  0
VERTEX
  8
0
 10
1211.2052
 20
876.1054
 30
0.0000
  0
VERTEX
  8
0
 10
1212.0297
 20
875.6498
 30
0.0000
  0
VERTEX
  8
0
 10
1212.9359
 20
875.2799
 30
0.0000
  0
VERTEX
  8
0
 10
1213.9060
 20
875.0027
 30
0.0000
  0
VERTEX
  8
0
 10
1215.0504
 20
874.8085
 30
0.0000
  0
VERTEX
  8
0
 10
1216.2237
 20
874.7432
 30
0.0000
  0
VERTEX
  8
0
 10
1217.3969
 20
874.8085
 30
0.0000
  0
VERTEX
  8
0
 10
1218.5413
 20
875.0027
 30
0.0000
  0
VERTEX
  8
0
 10
1219.5114
 20
875.2799
 30
0.0000
  0
VERTEX
  8
0
 10
1220.4176
 20
875.6498
 30
0.0000
  0
VERTEX
  8
0
 10
1221.2421
 20
876.1054
 30
0.0000
  0
VERTEX
  8
0
 10
1221.5270
 20
876.2965
 30
0.0000
  0
SEQEND
  0
POLYLINE
  6
continous
  8
BYBLOCK
 70
0
 66
1
  0
VERTEX
  8
0
 10
1210.9204
 20
883.7965
 30
0.0000
  0
VERTEX
  8
0
 10
1210.2339
 20
883.2381
 30
0.0000
  0
VERTEX
  8
0
 10
1209.6640
 20
882.6176
 30
0.0000
  0
VERTEX
  8
0
 10
1209.2218
 20
881.9470
 30
0.0000
  0
VERTEX
  8
0
 10
1208.9159
 20
881.2395
 30
0.0000
  0
VERTEX
  8
0
 10
1208.7522
 20
880.5087
 30
0.0000
  0
VERTEX
  8
0
 10
1208.7237
 20
880.0465
 30
0.0000
  0
SEQEND
  0
POLYLINE
  6
continous
  8
BYBLOCK
 70
0
 66
1
  0
VERTEX
  8
0
 10
1223.7237
 20
880.0465
 30
0.0000
  0
VERTEX
  8
0
 10
1223.6507
 20
880.7846
 30
0.0000
  0
VERTEX
  8
0
 10
1223.4331
 20
881.5083
 30
0.0000
  0
VERTEX
  8
0
 10
1223.0753
 20
882.2035
 30
0.0000
  0
VERTEX
  8
0
 10
1222.5840
 20
882.8568
 30
0.0000
  0
VERTEX
  8
0
 10
1221.9690
 20
883.4554
 30
0.0000
  0
VERTEX
  8
0
 10
1221.2421
 20
883.9876
 30
0.0000
  0
VERTEX
  8
0
 10
1220.4176
 20
884.4431
 30
0.0000
  0
VERTEX
  8
0
 10
1219.5114
 20
884.8131
 30
0.0000
  0
VERTEX
  8
0
 10
1218.5413
 20
885.0902
 30
0.0000
  0
VERTEX
  8
0
 10
1217.3969
 20
885.2845
 30
0.0000
  0
VERTEX
  8
0
 10
1216.2237
 20
885.3498
 30
0.0000
  0
VERTEX
  8
0
 10
1215.0504
 20
885.2845
 30
0.0000
  0
VERTEX
  8
0
 10
1213.9060
 20
885.0902
 30
0.0000
  0
VERTEX
  8
0
 10
1212.9359
 20
884.8131
 30
0.0000
  0
VERTEX
  8
0
 10
1212.0297
 20
884.4431
 30
0.0000
  0
VERTEX
  8
0
 10
1211.2052
 20
883.9876
 30
0.0000
  0
VERTEX
  8
0
 10
1210.9204
 20
883.7965
 30
0.0000
  0
SEQEND
  0
POLYLINE
  6
continous
  8
BYBLOCK
 70
0
 66
1
  0
VERTEX
  8
0
 10
1221.5270
 20
876.2965
 30
0.0000
  0
VERTEX
  8
0
 10
1222.2134
 20
876.8549
 30
0.0000
  0
VERTEX
  8
0
 10
1222.7833
 20
877.4754
 30
0.0000
  0
VERTEX
  8
0
 10
1223.2255
 20
878.1459
 30
0.0000
  0
VERTEX
  8
0
 10
1223.5314
 20
878.8535
 30
0.0000
  0
VERTEX
  8
0
 10
1223.6951
 20
879.5843
 30
0.0000
  0
VERTEX
  8
0
 10
1223.7237
 20
880.0465
 30
0.0000
  0
SEQEND
  0
POLYLINE
  6
continous
  8
BYBLOCK
 70
0
 66
1
  0
VERTEX
  8
0
 10
1152.1551
 20
840.0465
 30
0.0000
  0
VERTEX
  8
0
 10
1152.2281
 20
839.3084
 30
0.0000
  0
VERTEX
  8
0
 10
1152.4457
 20
838.5847
 30
0.0000
  0
VERTEX
  8
0
 10
1152.8035
 20
837.8894
 30
0.0000
  0
VERTEX
  8
0
 10
1153.2948
 20
837.2362
 30
0.0000
  0
VERTEX
  8
0
 10
1153.9098
 20
836.6376
 30
0.0000
  0
VERTEX
  8
0
 10
1154.6366
 20
836.1054
 30
0.0000
  0
VERTEX
  8
0
 10
1155.4612
 20
835.6498
 30
0.0000
  0
VERTEX
  8
0
 10
1156.3673
 20
835.2799
 30
0.0000
  0
VERTEX
  8
0
 10
1157.3375
 20
835.0027
 30
0.0000
  0
VERTEX
  8
0
 10
1158.4819
 20
834.8085
 30
0.0000
  0
VERTEX
  8
0
 10
1159.6551
 20
834.7432
 30
0.0000
  0
VERTEX
  8
0
 10
1160.8284
 20
834.8085
 30
0.0000
  0
VERTEX
  8
0
 10
1161.9727
 20
835.0027
 30
0.0000
  0
VERTEX
  8
0
 10
1162.9429
 20
835.2799
 30
0.0000
  0
VERTEX
  8
0
 10
1163.8491
 20
835.6498
 30
0.0000
  0
VERTEX
  8
0
 10
1164.6736
 20
836.1054
 30
0.0000
  0
VERTEX
  8
0
 10
1164.9584
 20
836.2965
 30
0.0000
  0
SEQEND
  0
POLYLINE
  6
continous
  8
BYBLOCK
 70
0
 66
1
  0
VERTEX
  8
0
 10
1154.3518
 20
843.7965
 30
0.0000
  0
VERTEX
  8
0
 10
1153.6654
 20
843.2381
 30
0.0000
  0
VERTEX
  8
0
 10
1153.0955
 20
842.6176
 30
0.0000
  0
VERTEX
  8
0
 10
1152.6533
 20
841.9470
 30
0.0000
  0
VERTEX
  8
0
 10
1152.3473
 20
841.2395
 30
0.0000
  0
VERTEX
  8
0
 10
1152.1837
 20
840.5087
 30
0.0000
  0
VERTEX
  8
0
 10
1152.1551
 20
840.0465
 30
0.0000
  0
SEQEND
  0
POLYLINE
  6
continous
  8
BYBLOCK
 70
0
 66
1
  0
VERTEX
  8
0
 10
1167.1551
 20
840.0465
 30
0.0000
  0
VERTEX
  8
0
 10
1167.0821
 20
840.7846
 30
0.0000
  0
VERTEX
  8
0
 10
1166.8646
 20
841.5083
 30
0.0000
  0
VERTEX
  8
0
 10
1166.5067
 20
842.2035
 30
0.0000
  0
VERTEX
  8
0
 10
1166.0155
 20
842.8568
 30
0.0000
  0
VERTEX
  8
0
 10
1165.4005
 20
843.4554
 30
0.0000
  0
VERTEX
  8
0
 10
1164.6736
 20
843.9876
 30
0.0000
  0
VERTEX
  8
0
 10
1163.8491
 20
844.4431
 30
0.0000
  0
VERTEX
  8
0
 10
1162.9429
 20
844.8131
 30
0.0000
  0
VERTEX
  8
0
 10
1161.9727
 20
845.0902
 30
0.0000
  0
VERTEX
  8
0
 10
1160.8284
 20
845.2845
 30
0.0000
  0
VERTEX
  8
0
 10
1159.6551
 20
845.3498
 30
0.0000
  0
VERTEX
  8
0
 10
1158.4819
 20
845.2845
 30
0.0000
  0
VERTEX
  8
0
 10
1157.3375
 20
845.0902
 30
0.0000
  0
VERTEX
  8
0
 10
1156.3673
 20
844.8131
 30
0.0000
  0
VERTEX
  8
0
 10
1155.4612
 20
844.4431
 30
0.0000
  0
VERTEX
  8
0
 10
1154.6366
 20
843.9876
 30
0.0000
  0
VERTEX
  8
0
 10
1154.3518
 20
843.7965
 30
0.0000
  0
SEQEND
  0
POLYLINE
  6
continous
  8
BYBLOCK
 70
0
 66
1
  0
VERTEX
  8
0
 10
1164.9584
 20
836.2965
 30
0.0000
  0
VERTEX
  8
0
 10
1165.6449
 20
836.8549
 30
0.0000
  0
VERTEX
  8
0
 10
1166.2148
 20
837.4754
 30
0.0000
  0
VERTEX
  8
0
 10
1166.6570
 20
838.1459
 30
0.0000
  0
VERTEX
  8
0
 10
1166.9629
 20
838.8535
 30
0.0000
  0
VERTEX
  8
0
 10
1167.1266
 20
839.5843
 30
0.0000
  0
VERTEX
  8
0
 10
1167.1551
 20
840.0465
 30
0.0000
  0
SEQEND
  0
POLYLINE
  6
continous
  8
BYBLOCK
 70
0
 66
1
  0
VERTEX
  8
0
 10
1095.5866
 20
800.0465
 30
0.0000
  0
VERTEX
  8
0
 10
1095.6596
 20
799.3084
 30
0.0000
  0
VERTEX
  8
0
 10
1095.8771
 20
798.5847
 30
0.0000
  0
VERTEX
  8
0
 10
1096.2350
 20
797.8894
 30
0.0000
  0
VERTEX
  8
0
 10
1096.7262
 20
797.2362
 30
0.0000
  0
VERTEX
  8
0
 10
1097.3412
 20
796.6376
 30
0.0000
  0
VERTEX
  8
0
 10
1098.0681
 20
796.1054
 30
0.0000
  0
VERTEX
  8
0
 10
1098.8926
 20
795.6498
 30
0.0000
  0
VERTEX
  8
0
 10
1099.7988
 20
795.2799
 30
0.0000
  0
VERTEX
  8
0
 10
1100.7690
 20
795.0027
 30
0.0000
  0
VERTEX
  8
0
 10
1101.9133
 20
794.8085
 30
0.0000
  0
VERTEX
  8
0
 10
1103.0866
 20
794.7432
 30
0.0000
  0
VERTEX
  8
0
 10
1104.2598
 20
794.8085
 30
0.0000
  0
VERTEX
  8
0
 10
1105.4042
 20
795.0027
 30
0.0000
  0
VERTEX
  8
0
 10
1106.3744
 20
795.2799
 30
0.0000
  0
VERTEX
  8
0
 10
1107.2805
 20
795.6498
 30
0.0000
  0
VERTEX
  8
0
 10
1108.1051
 20
796.1054
 30
0.0000
  0
VERTEX
  8
0
 10
1108.3899
 20
796.2965
 30
0.0000
  0
SEQEND
  0
POLYLINE
  6
continous
  8
BYBLOCK
 70
0
 66
1
  0
VERTEX
  8
0
 10
1097.7833
 20
803.7965
 30
0.0000
  0
VERTEX
  8
0
 10
1097.0968
 20
803.2381
 30
0.0000
  0
VERTEX
  8
0
 10
1096.5269
 20
802.6176
 30
0.0000
  0
VERTEX
  8
0
 10
1096.0847
 20
801.9470
 30
0.0000
  0
VERTEX
  8
0
 10
1095.7788
 20
801.2395
 30
0.0000
  0
VERTEX
  8
0
 10
1095.6151
 20
800.5087
 30
0.0000
  0
VERTEX
  8
0
 10
1095.5866
 20
800.0465
 30
0.0000
  0
SEQEND
  0
POLYLINE
  6
continous
  8
BYBLOCK
 70
0
 66
1
  0
VERTEX
  8
0
 10
1110.5866
 20
800.0465
 30
0.0000
  0
VERTEX
  8
0
 10
1110.5136
 20
800.7846
 30
0.0000
  0
VERTEX
  8
0
 10
1110.2960
 20
801.5083
 30
0.0000
  0
VERTEX
  8
0
 10
1109.9382
 20
802.2035
 30
0.0000
  0
VERTEX
  8
0
 10
1109.4469
 20
802.8568
 30
0.0000
  0
VERTEX
  8
0
 10
1108.8319
 20
803.4554
 30
0.0000
  0
VERTEX
  8
0
 10
1108.1051
 20
803.9876
 30
0.0000
  0
VERTEX
  8
0
 10
1107.2805
 20
804.4431
 30
0.0000
  0
VERTEX
  8
0
 10
1106.3744
 20
804.8131
 30
0.0000
  0
VERTEX
  8
0
 10
1105.4042
 20
805.0902
 30
0.0000
  0
VERTEX
  8
0
 10
1104.2598
 20
805.2845
 30
0.0000
  0
VERTEX
  8
0
 10
1103.0866
 20
805.3498
 30
0.0000
  0
VERTEX
  8
0
 10
1101.9133
 20
805.2845
 30
0.0000
  0
VERTEX
  8
0
 10
1100.7690
 20
805.0902
 30
0.0000
  0
VERTEX
  8
0
 10
1099.7988
 20
804.8131
 30
0.0000
  0
VERTEX
  8
0
 10
1098.8926
 20
804.4431
 30
0.0000
  0
VERTEX
  8
0
 10
1098.0681
 20
803.9876
 30
0.0000
  0
VERTEX
  8
0
 10
1097.7833
 20
803.7965
 30
0.0000
  0
SEQEND
  0
POLYLINE
  6
continous
  8
BYBLOCK
 70
0
 66
1
  0
VERTEX
  8
0
 10
1108.3899
 20
796.2965
 30
0.0000
  0
VERTEX
  8
0
 10
1109.0763
 20
796.8549
 30
0.0000
  0
VERTEX
  8
0
 10
1109.6462
 20
797.4754
 30
0.0000
  0
VERTEX
  8
0
 10
1110.0884
 20
798.1459
 30
0.0000
  0
VERTEX
  8
0
 10
1110.3944
 20
798.8535
 30
0.0000
  0
VERTEX
  8
0
 10
1110.5580
 20
799.5843
 30
0.0000
  0
VERTEX
  8
0
 10
1110.5866
 20
800.0465
 30
0.0000
  0
SEQEND
  0
POLYLINE
  6
continous
  8
BYBLOCK
 70
0
 66
1
  0
VERTEX
  8
0
 10
1039.0180
 20
760.0465
 30
0.0000
  0
VERTEX
  8
0
 10
1039.0910
 20
759.3084
 30
0.0000
  0
VERTEX
  8
0
 10
1039.3086
 20
758.5847
 30
0.0000
  0
VERTEX
  8
0
 10
1039.6664
 20
757.8894
 30
0.0000
  0
VERTEX
  8
0
 10
1040.1577
 20
757.2362
 30
0.0000
  0
VERTEX
  8
0
 10
1040.7727
 20
756.6376
 30
0.0000
  0
VERTEX
  8
0
 10
1041.4996
 20
756.1054
 30
0.0000
  0
VERTEX
  8
0
 10
1042.3241
 20
755.6498
 30
0.0000
  0
VERTEX
  8
0
 10
1043.2303
 20
755.2799
 30
0.0000
  0
VERTEX
  8
0
 10
1044.2004
 20
755.0027
 30
0.0000
  0
VERTEX
  8
0
 10
1045.3448
 20
754.8085
 30
0.0000
  0
VERTEX
  8
0
 10
1046.5180
 20
754.7432
 30
0.0000
  0
VERTEX
  8
0
 10
1047.6913
 20
754.8085
 30
0.0000
  0
VERTEX
  8
0
 10
1048.8357
 20
755.0027
 30
0.0000
  0
VERTEX
  8
0
 10
1049.8058
 20
755.2799
 30
0.0000
  0
VERTEX
  8
0
 10
1050.7120
 20
755.6498
 30
0.0000
  0
VERTEX
  8
0
 10
1051.5365
 20
756.1054
 30
0.0000
  0
VERTEX
  8
0
 10
1051.8213
 20
756.2965
 30
0.0000
  0
SEQEND
  0
POLYLINE
  6
continous
  8
BYBLOCK
 70
0
 66
1
  0
VERTEX
  8
0
 10
1041.2147
 20
763.7965
 30
0.0000
  0
VERTEX
  8
0
 10
1040.5283
 20
763.2381
 30
0.0000
  0
VERTEX
  8
0
 10
1039.9584
 20
762.6176
 30
0.0000
  0
VERTEX
  8
0
 10
1039.5162
 20
761.9470
 30
0.0000
  0
VERTEX
  8
0
 10
1039.2103
 20
761.2395
 30
0.0000
  0
VERTEX
  8
0
 10
1039.0466
 20
760.5087
 30
0.0000
  0
VERTEX
  8
0
 10
1039.0180
 20
760.0465
 30
0.0000
  0
SEQEND
  0
POLYLINE
  6
continous
  8
BYBLOCK
 70
0
 66
1
  0
VERTEX
  8
0
 10
1054.0180
 20
760.0465
 30
0.0000
  0
VERTEX
  8
0
 10
1053.9450
 20
760.7846
 30
0.0000
  0
VERTEX
  8
0
 10
1053.7275
 20
761.5083
 30
0.0000
  0
VERTEX
  8
0
 10
1053.3696
 20
762.2035
 30
0.0000
  0
VERTEX
  8
0
 10
1052.8784
 20
762.8568
 30
0.0000
  0
VERTEX
  8
0
 10
1052.2634
 20
763.4554
 30
0.0000
  0
VERTEX
  8
0
 10
1051.5365
 20
763.9876
 30
0.0000
  0
VERTEX
  8
0
 10
1050.7120
 20
764.4431
 30
0.0000
  0
VERTEX
  8
0
 10
1049.8058
 20
764.8131
 30
0.0000
  0
VERTEX
  8
0
 10
1048.8357
 20
765.0902
 30
0.0000
  0
VERTEX
  8
0
 10
1047.6913
 20
765.2845
 30
0.0000
  0
VERTEX
  8
0
 10
1046.5180
 20
765.3498
 30
0.0000
  0
VERTEX
  8
0
 10
1045.3448
 20
765.2845
 30
0.0000
  0
VERTEX
  8
0
 10
1044.2004
 20
765.0902
 30
0.0000
  0
VERTEX
  8
0
 10
1043.2303
 20
764.8131
 30
0.0000
  0
VERTEX
  8
0
 10
1042.3241
 20
764.4431
 30
0.0000
  0
VERTEX
  8
0
 10
1041.4996
 20
763.9876
 30
0.0000
  0
VERTEX
  8
0
 10
1041.2147
 20
763.7965
 30
0.0000
  0
SEQEND
  0
POLYLINE
  6
continous
  8
BYBLOCK
 70
0
 66
1
  0
VERTEX
  8
0
 10
1051.8213
 20
756.2965
 30
0.0000
  0
VERTEX
  8
0
 10
1052.5078
 20
756.8549
 30
0.0000
  0
VERTEX
  8
0
 10
1053.0777
 20
757.4754
 30
0.0000
  0
VERTEX
  8
0
 10
1053.5199
 20
758.1459
 30
0.0000
  0
VERTEX
  8
0
 10
1053.8258
 20
758.8535
 30
0.0000
  0
VERTEX
  8
0
 10
1053.9895
 20
759.5843
 30
0.0000
  0
VERTEX
  8
0
 10
1054.0180
 20
760.0465
 30
0.0000
  0
SEQEND
  0
POLYLINE
  6
continous
  8
BYBLOCK
 70
0
 66
1
  0
VERTEX
  8
0
 10
982.4495
 20
720.0465
 30
0.0000
  0
VERTEX
  8
0
 10
982.5225
 20
719.3084
 30
0.0000
  0
VERTEX
  8
0
 10
982.7400
 20
718.5847
 30
0.0000
  0
VERTEX
  8
0
 10
983.0979
 20
717.8894
 30
0.0000
  0
VERTEX
  8
0
 10
983.5891
 20
717.2362
 30
0.0000
  0
VERTEX
  8
0
 10
984.2042
 20
716.6376
 30
0.0000
  0
VERTEX
  8
0
 10
984.9310
 20
716.1054
 30
0.0000
  0
VERTEX
  8
0
 10
985.7555
 20
715.6498
 30
0.0000
  0
VERTEX
  8
0
 10
986.6617
 20
715.2799
 30
0.0000
  0
VERTEX
  8
0
 10
987.6319
 20
715.0027
 30
0.0000
  0
VERTEX
  8
0
 10
988.7762
 20
714.8085
 30
0.0000
  0
VERTEX
  8
0
 10
989.9495
 20
714.7432
 30
0.0000
  0
VERTEX
  8
0
 10
991.1228
 20
714.8085
 30
0.0000
  0
VERTEX
  8
0
 10
992.2671
 20
715.0027
 30
0.0000
  0
VERTEX
  8
0
 10
993.2373
 20
715.2799
 30
0.0000
  0
VERTEX
  8
0
 10
994.1434
 20
715.6498
 30
0.0000
  0
VERTEX
  8
0
 10
994.9680
 20
716.1054
 30
0.0000
  0
VERTEX
  8
0
 10
995.2528
 20
716.2965
 30
0.0000
  0
SEQEND
  0
POLYLINE
  6
continous
  8
BYBLOCK
 70
0
 66
1
  0
VERTEX
  8
0
 10
984.6462
 20
723.7965
 30
0.0000
  0
VERTEX
  8
0
 10
983.9597
 20
723.2381
 30
0.0000
  0
VERTEX
  8
0
 10
983.3898
 20
722.6176
 30
0.0000
  0
VERTEX
  8
0
 10
982.9476
 20
721.9470
 30
0.0000
  0
VERTEX
  8
0
 10
982.6417
 20
721.2395
 30
0.0000
  0
VERTEX
  8
0
 10
982.4780
 20
720.5087
 30
0.0000
  0
VERTEX
  8
0
 10
982.4495
 20
720.0465
 30
0.0000
  0
SEQEND
  0
POLYLINE
  6
continous
  8
BYBLOCK
 70
0
 66
1
  0
VERTEX
  8
0
 10
997.4495
 20
720.0465
 30
0.0000
  0
VERTEX
  8
0
 10
997.3765
 20
720.7846
 30
0.0000
  0
VERTEX
  8
0
 10
997.1590
 20
721.5083
 30
0.0000
  0
VERTEX
  8
0
 10
996.8011
 20
722.2035
 30
0.0000
  0
VERTEX
  8
0
 10
996.3099
 20
722.8568
 30
0.0000
  0
VERTEX
  8
0
 10
995.6948
 20
723.4554
 30
0.0000
  0
VERTEX
  8
0
 10
994.9680
 20
723.9876
 30
0.0000
  0
VERTEX
  8
0
 10
994.1434
 20
724.4431
 30
0.0000
  0
VERTEX
  8
0
 10
993.2373
 20
724.8131
 30
0.0000
  0
VERTEX
  8
0
 10
992.2671
 20
725.0902
 30
0.0000
  0
VERTEX
  8
0
 10
991.1228
 20
725.2845
 30
0.0000
  0
VERTEX
  8
0
 10
989.9495
 20
725.3498
 30
0.0000
  0
VERTEX
  8
0
 10
988.7762
 20
725.2845
 30
0.0000
  0
VERTEX
  8
0
 10
987.6319
 20
725.0902
 30
0.0000
  0
VERTEX
  8
0
 10
986.6617
 20
724.8131
 30
0.0000
  0
VERTEX
  8
0
 10
985.7555
 20
724.4431
 30
0.0000
  0
VERTEX
  8
0
 10
984.9310
 20
723.9876
 30
0.0000
  0
VERTEX
  8
0
 10
984.6462
 20
723.7965
 30
0.0000
  0
SEQEND
  0
POLYLINE
  6
continous
  8
BYBLOCK
 70
0
 66
1
  0
VERTEX
  8
0
 10
995.2528
 20
716.2965
 30
0.0000
  0
VERTEX
  8
0
 10
995.9393
 20
716.8549
 30
0.0000
  0
VERTEX
  8
0
 10
996.5091
 20
717.4754
 30
0.0000
  0
VERTEX
  8
0
 10
996.9513
 20
718.1459
 30
0.0000
  0
VERTEX
  8
0
 10
997.2573
 20
718.8535
 30
0.0000
  0
VERTEX
  8
0
 10
997.4210
 20
719.5843
 30
0.0000
  0
VERTEX
  8
0
 10
997.4495
 20
720.0465
 30
0.0000
  0
SEQEND
  0
POLYLINE
  6
continous
  8
BYBLOCK
 70
0
 66
1
  0
VERTEX
  8
0
 10
925.8810
 20
680.0465
 30
0.0000
  0
VERTEX
  8
0
 10
925.9539
 20
679.3084
 30
0.0000
  0
VERTEX
  8
0
 10
926.1715
 20
678.5847
 30
0.0000
  0
VERTEX
  8
0
 10
926.5294
 20
677.8894
 30
0.0000
  0
VERTEX
  8
0
 10
927.0206
 20
677.2362
 30
0.0000
  0
VERTEX
  8
0
 10
927.6356
 20
676.6376
 30
0.0000
  0
VERTEX
  8
0
 10
928.3625
 20
676.1054
 30
0.0000
  0
VERTEX
  8
0
 10
929.1870
 20
675.6498
 30
0.0000
  0
VERTEX
  8
0
 10
930.0932
 20
675.2799
 30
0.0000
  0
VERTEX
  8
0
 10
931.0633
 20
675.0027
 30
0.0000
  0
VERTEX
  8
0
 10
932.2077
 20
674.8085
 30
0.0000
  0
VERTEX
  8
0
 10
933.3810
 20
674.7432
 30
0.0000
  0
VERTEX
  8
0
 10
934.5542
 20
674.8085
 30
0.0000
  0
VERTEX
  8
0
 10
935.6986
 20
675.0027
 30
0.0000
  0
VERTEX
  8
0
 10
936.6687
 20
675.2799
 30
0.0000
  0
VERTEX
  8
0
 10
937.5749
 20
675.6498
 30
0.0000
  0
VERTEX
  8
0
 10
938.3994
 20
676.1054
 30
0.0000
  0
VERTEX
  8
0
 10
938.6843
 20
676.2965
 30
0.0000
  0
SEQEND
  0
POLYLINE
  6
continous
  8
BYBLOCK
 70
0
 66
1
  0
VERTEX
  8
0
 10
928.0777
 20
683.7965
 30
0.0000
  0
VERTEX
  8
0
 10
927.3912
 20
683.2381
 30
0.0000
  0
VERTEX
  8
0
 10
926.8213
 20
682.6176
 30
0.0000
  0
VERTEX
  8
0
 10
926.3791
 20
681.9470
 30
0.0000
  0
VERTEX
  8
0
 10
926.0732
 20
681.2395
 30
0.0000
  0
VERTEX
  8
0
 10
925.9095
 20
680.5087
 30
0.0000
  0
VERTEX
  8
0
 10
925.8810
 20
680.0465
 30
0.0000
  0
SEQEND
  0
POLYLINE
  6
continous
  8
BYBLOCK
 70
0
 66
1
  0
VERTEX
  8
0
 10
940.8810
 20
680.0465
 30
0.0000
  0
VERTEX
  8
0
 10
940.8080
 20
680.7846
 30
0.0000
  0
VERTEX
  8
0
 10
940.5904
 20
681.5083
 30
0.0000
  0
VERTEX
  8
0
 10
940.2325
 20
682.2035
 30
0.0000
  0
VERTEX
  8
0
 10
939.7413
 20
682.8568
 30
0.0000
  0
VERTEX
  8
0
 10
939.1263
 20
683.4554
 30
0.0000
  0
VERTEX
  8
0
 10
938.3994
 20
683.9876
 30
0.0000
  0
VERTEX
  8
0
 10
937.5749
 20
684.4431
 30
0.0000
  0
VERTEX
  8
0
 10
936.6687
 20
684.8131
 30
0.0000
  0
VERTEX
  8
0
 10
935.6986
 20
685.0902
 30
0.0000
  0
VERTEX
  8
0
 10
934.5542
 20
685.2845
 30
0.0000
  0
VERTEX
  8
0
 10
933.3810
 20
685.3498
 30
0.0000
  0
VERTEX
  8
0
 10
932.2077
 20
685.2845
 30
0.0000
  0
VERTEX
  8
0
 10
931.0633
 20
685.0902
 30
0.0000
  0
VERTEX
  8
0
 10
930.0932
 20
684.8131
 30
0.0000
  0
VERTEX
  8
0
 10
929.1870
 20
684.4431
 30
0.0000
  0
VERTEX
  8
0
 10
928.3625
 20
683.9876
 30
0.0000
  0
VERTEX
  8
0
 10
928.0777
 20
683.7965
 30
0.0000
  0
SEQEND
  0
POLYLINE
  6
continous
  8
BYBLOCK
 70
0
 66
1
  0
VERTEX
  8
0
 10
938.6843
 20
676.2965
 30
0.0000
  0
VERTEX
  8
0
 10
939.3707
 20
676.8549
 30
0.0000
  0
VERTEX
  8
0
 10
939.9406
 20
677.4754
 30
0.0000
  0
VERTEX
  8
0
 10
940.3828
 20
678.1459
 30
0.0000
  0
VERTEX
  8
0
 10
940.6887
 20
678.8535
 30
0.0000
  0
VERTEX
  8
0
 10
940.8524
 20
679.5843
 30
0.0000
  0
VERTEX
  8
0
 10
940.8810
 20
680.0465
 30
0.0000
  0
SEQEND
  0
POLYLINE
  6
continous
  8
BYBLOCK
 70
0
 66
1
  0
VERTEX
  8
0
 10
869.3124
 20
640.0465
 30
0.0000
  0
VERTEX
  8
0
 10
869.3854
 20
639.3084
 30
0.0000
  0
VERTEX
  8
0
 10
869.6029
 20
638.5847
 30
0.0000
  0
VERTEX
  8
0
 10
869.9608
 20
637.8894
 30
0.0000
  0
VERTEX
  8
0
 10
870.4520
 20
637.2362
 30
0.0000
  0
VERTEX
  8
0
 10
871.0671
 20
636.6376
 30
0.0000
  0
VERTEX
  8
0
 10
871.7939
 20
636.1054
 30
0.0000
  0
VERTEX
  8
0
 10
872.6185
 20
635.6498
 30
0.0000
  0
VERTEX
  8
0
 10
873.5246
 20
635.2799
 30
0.0000
  0
VERTEX
  8
0
 10
874.4948
 20
635.0027
 30
0.0000
  0
VERTEX
  8
0
 10
875.6392
 20
634.8085
 30
0.0000
  0
VERTEX
  8
0
 10
876.8124
 20
634.7432
 30
0.0000
  0
VERTEX
  8
0
 10
877.9857
 20
634.8085
 30
0.0000
  0
VERTEX
  8
0
 10
879.1300
 20
635.0027
 30
0.0000
  0
VERTEX
  8
0
 10
880.1002
 20
635.2799
 30
0.0000
  0
VERTEX
  8
0
 10
881.0064
 20
635.6498
 30
0.0000
  0
VERTEX
  8
0
 10
881.8309
 20
636.1054
 30
0.0000
  0
VERTEX
  8
0
 10
882.1157
 20
636.2965
 30
0.0000
  0
SEQEND
  0
POLYLINE
  6
continous
  8
BYBLOCK
 70
0
 66
1
  0
VERTEX
  8
0
 10
871.5091
 20
643.7965
 30
0.0000
  0
VERTEX
  8
0
 10
870.8226
 20
643.2381
 30
0.0000
  0
VERTEX
  8
0
 10
870.2528
 20
642.6176
 30
0.0000
  0
VERTEX
  8
0
 10
869.8106
 20
641.9470
 30
0.0000
  0
VERTEX
  8
0
 10
869.5046
 20
641.2395
 30
0.0000
  0
VERTEX
  8
0
 10
869.3409
 20
640.5087
 30
0.0000
  0
VERTEX
  8
0
 10
869.3124
 20
640.0465
 30
0.0000
  0
SEQEND
  0
POLYLINE
  6
continous
  8
BYBLOCK
 70
0
 66
1
  0
VERTEX
  8
0
 10
884.3124
 20
640.0465
 30
0.0000
  0
VERTEX
  8
0
 10
884.2394
 20
640.7846
 30
0.0000
  0
VERTEX
  8
0
 10
884.0219
 20
641.5083
 30
0.0000
  0
VERTEX
  8
0
 10
883.6640
 20
642.2035
 30
0.0000
  0
VERTEX
  8
0
 10
883.1728
 20
642.8568
 30
0.0000
  0
VERTEX
  8
0
 10
882.5577
 20
643.4554
 30
0.0000
  0
VERTEX
  8
0
 10
881.8309
 20
643.9876
 30
0.0000
  0
VERTEX
  8
0
 10
881.0064
 20
644.4431
 30
0.0000
  0
VERTEX
  8
0
 10
880.1002
 20
644.8131
 30
0.0000
  0
VERTEX
  8
0
 10
879.1300
 20
645.0902
 30
0.0000
  0
VERTEX
  8
0
 10
877.9857
 20
645.2845
 30
0.0000
  0
VERTEX
  8
0
 10
876.8124
 20
645.3498
 30
0.0000
  0
VERTEX
  8
0
 10
875.6392
 20
645.2845
 30
0.0000
  0
VERTEX
  8
0
 10
874.4948
 20
645.0902
 30
0.0000
  0
VERTEX
  8
0
 10
873.5246
 20
644.8131
 30
0.0000
  0
VERTEX
  8
0
 10
872.6185
 20
644.4431
 30
0.0000
  0
VERTEX
  8
0
 10
871.7939
 20
643.9876
 30
0.0000
  0
VERTEX
  8
0
 10
871.5091
 20
643.7965
 30
0.0000
  0
SEQEND
  0
POLYLINE
  6
continous
  8
BYBLOCK
 70
0
 66
1
  0
VERTEX
  8
0
 10
882.1157
 20
636.2965
 30
0.0000
  0
VERTEX
  8
0
 10
882.8022
 20
636.8549
 30
0.0000
  0
VERTEX
  8
0
 10
883.3721
 20
637.4754
 30
0.0000
  0
VERTEX
  8
0
 10
883.8143
 20
638.1459
 30
0.0000
  0
VERTEX
  8
0
 10
884.1202
 20
638.8535
 30
0.0000
  0
VERTEX
  8
0
 10
884.2839
 20
639.5843
 30
0.0000
  0
VERTEX
  8
0
 10
884.3124
 20
640.0465
 30
0.0000
  0
SEQEND
  0
POLYLINE
  6
continous
  8
BYBLOCK
 70
0
 66
1
  0
VERTEX
  8
0
 10
812.7439
 20
600.0465
 30
0.0000
  0
VERTEX
  8
0
 10
812.8169
 20
599.3084
 30
0.0000
  0
VERTEX
  8
0
 10
813.0344
 20
598.5847
 30
0.0000
  0
VERTEX
  8
0
 10
813.3923
 20
597.8894
 30
0.0000
  0
VERTEX
  8
0
 10
813.8835
 20
597.2362
 30
0.0000
  0
VERTEX
  8
0
 10
814.4985
 20
596.6376
 30
0.0000
  0
VERTEX
  8
0
 10
815.2254
 20
596.1054
 30
0.0000
  0
VERTEX
  8
0
 10
816.0499
 20
595.6498
 30
0.0000
  0
VERTEX
  8
0
 10
816.9561
 20
595.2799
 30
0.0000
  0
VERTEX
  8
0
 10
817.9262
 20
595.0027
 30
0.0000
  0
VERTEX
  8
0
 10
819.0706
 20
594.8085
 30
0.0000
  0
VERTEX
  8
0
 10
820.2439
 20
594.7432
 30
0.0000
  0
VERTEX
  8
0
 10
821.4171
 20
594.8085
 30
0.0000
  0
VERTEX
  8
0
 10
822.5615
 20
595.0027
 30
0.0000
  0
VERTEX
  8
0
 10
823.5316
 20
595.2799
 30
0.0000
  0
VERTEX
  8
0
 10
824.4378
 20
595.6498
 30
0.0000
  0
VERTEX
  8
0
 10
825.2623
 20
596.1054
 30
0.0000
  0
VERTEX
  8
0
 10
825.5472
 20
596.2965
 30
0.0000
  0
SEQEND
  0
POLYLINE
  6
continous
  8
BYBLOCK
 70
0
 66
1
  0
VERTEX
  8
0
 10
814.9406
 20
603.7965
 30
0.0000
  0
VERTEX
  8
0
 10
814.2541
 20
603.2381
 30
0.0000
  0
VERTEX
  8
0
 10
813.6842
 20
602.6176
 30
0.0000
  0
VERTEX
  8
0
 10
813.2420
 20
601.9470
 30
0.0000
  0
VERTEX
  8
0
 10
812.9361
 20
601.2395
 30
0.0000
  0
VERTEX
  8
0
 10
812.7724
 20
600.5087
 30
0.0000
  0
VERTEX
  8
0
 10
812.7439
 20
600.0465
 30
0.0000
  0
SEQEND
  0
POLYLINE
  6
continous
  8
BYBLOCK
 70
0
 66
1
  0
VERTEX
  8
0
 10
827.7439
 20
600.0465
 30
0.0000
  0
VERTEX
  8
0
 10
827.6709
 20
600.7846
 30
0.0000
  0
VERTEX
  8
0
 10
827.4533
 20
601.5083
 30
0.0000
  0
VERTEX
  8
0
 10
827.0955
 20
602.2035
 30
0.0000
  0
VERTEX
  8
0
 10
826.6042
 20
602.8568
 30
0.0000
  0
VERTEX
  8
0
 10
825.9892
 20
603.4554
 30
0.0000
  0
VERTEX
  8
0
 10
825.2623
 20
603.9876
 30
0.0000
  0
VERTEX
  8
0
 10
824.4378
 20
604.4431
 30
0.0000
  0
VERTEX
  8
0
 10
823.5316
 20
604.8131
 30
0.0000
  0
VERTEX
  8
0
 10
822.5615
 20
605.0902
 30
0.0000
  0
VERTEX
  8
0
 10
821.4171
 20
605.2845
 30
0.0000
  0
VERTEX
  8
0
 10
820.2439
 20
605.3498
 30
0.0000
  0
VERTEX
  8
0
 10
819.0706
 20
605.2845
 30
0.0000
  0
VERTEX
  8
0
 10
817.9262
 20
605.0902
 30
0.0000
  0
VERTEX
  8
0
 10
816.9561
 20
604.8131
 30
0.0000
  0
VERTEX
  8
0
 10
816.0499
 20
604.4431
 30
0.0000
  0
VERTEX
  8
0
 10
815.2254
 20
603.9876
 30
0.0000
  0
VERTEX
  8
0
 10
814.9406
 20
603.7965
 30
0.0000
  0
SEQEND
  0
POLYLINE
  6
continous
  8
BYBLOCK
 70
0
 66
1
  0
VERTEX
  8
0
 10
825.5472
 20
596.2965
 30
0.0000
  0
VERTEX
  8
0
 10
826.2336
 20
596.8549
 30
0.0000
  0
VERTEX
  8
0
 10
826.8035
 20
597.4754
 30
0.0000
  0
VERTEX
  8
0
 10
827.2457
 20
598.1459
 30
0.0000
  0
VERTEX
  8
0
 10
827.5516
 20
598.8535
 30
0.0000
  0
VERTEX
  8
0
 10
827.7153
 20
599.5843
 30
0.0000
  0
VERTEX
  8
0
 10
827.7439
 20
600.0465
 30
0.0000
  0
SEQEND
  0
POLYLINE
  6
continous
  8
BYBLOCK
 70
0
 66
1
  0
VERTEX
  8
0
 10
756.1753
 20
560.0465
 30
0.0000
  0
VERTEX
  8
0
 10
756.2483
 20
559.3084
 30
0.0000
  0
VERTEX
  8
0
 10
756.4659
 20
558.5847
 30
0.0000
  0
VERTEX
  8
0
 10
756.8237
 20
557.8894
 30
0.0000
  0
VERTEX
  8
0
 10
757.3150
 20
557.2362
 30
0.0000
  0
VERTEX
  8
0
 10
757.9300
 20
556.6376
 30
0.0000
  0
VERTEX
  8
0
 10
758.6568
 20
556.1054
 30
0.0000
  0
VERTEX
  8
0
 10
759.4814
 20
555.6498
 30
0.0000
  0
VERTEX
  8
0
 10
760.3875
 20
555.2799
 30
0.0000
  0
VERTEX
  8
0
 10
761.3577
 20
555.0027
 30
0.0000
  0
VERTEX
  8
0
 10
762.5021
 20
554.8085
 30
0.0000
  0
VERTEX
  8
0
 10
763.6753
 20
554.7432
 30
0.0000
  0
VERTEX
  8
0
 10
764.8486
 20
554.8085
 30
0.0000
  0
VERTEX
  8
0
 10
765.9930
 20
555.0027
 30
0.0000
  0
VERTEX
  8
0
 10
766.9631
 20
555.2799
 30
0.0000
  0
VERTEX
  8
0
 10
767.8693
 20
555.6498
 30
0.0000
  0
VERTEX
  8
0
 10
768.6938
 20
556.1054
 30
0.0000
  0
VERTEX
  8
0
 10
768.9786
 20
556.2965
 30
0.0000
  0
SEQEND
  0
POLYLINE
  6
continous
  8
BYBLOCK
 70
0
 66
1
  0
VERTEX
  8
0
 10
758.3720
 20
563.7965
 30
0.0000
  0
VERTEX
  8
0
 10
757.6856
 20
563.2381
 30
0.0000
  0
VERTEX
  8
0
 10
757.1157
 20
562.6176
 30
0.0000
  0
VERTEX
  8
0
 10
756.6735
 20
561.9470
 30
0.0000
  0
VERTEX
  8
0
 10
756.3675
 20
561.2395
 30
0.0000
  0
VERTEX
  8
0
 10
756.2039
 20
560.5087
 30
0.0000
  0
VERTEX
  8
0
 10
756.1753
 20
560.0465
 30
0.0000
  0
SEQEND
  0
POLYLINE
  6
continous
  8
BYBLOCK
 70
0
 66
1
  0
VERTEX
  8
0
 10
771.1753
 20
560.0465
 30
0.0000
  0
VERTEX
  8
0
 10
771.1023
 20
560.7846
 30
0.0000
  0
VERTEX
  8
0
 10
770.8848
 20
561.5083
 30
0.0000
  0
VERTEX
  8
0
 10
770.5269
 20
562.2035
 30
0.0000
  0
VERTEX
  8
0
 10
770.0357
 20
562.8568
 30
0.0000
  0
VERTEX
  8
0
 10
769.4207
 20
563.4554
 30
0.0000
  0
VERTEX
  8
0
 10
768.6938
 20
563.9876
 30
0.0000
  0
VERTEX
  8
0
 10
767.8693
 20
564.4431
 30
0.0000
  0
VERTEX
  8
0
 10
766.9631
 20
564.8131
 30
0.0000
  0
VERTEX
  8
0
 10
765.9930
 20
565.0902
 30
0.0000
  0
VERTEX
  8
0
 10
764.8486
 20
565.2845
 30
0.0000
  0
VERTEX
  8
0
 10
763.6753
 20
565.3498
 30
0.0000
  0
VERTEX
  8
0
 10
762.5021
 20
565.2845
 30
0.0000
  0
VERTEX
  8
0
 10
761.3577
 20
565.0902
 30
0.0000
  0
VERTEX
  8
0
 10
760.3875
 20
564.8131
 30
0.0000
  0
VERTEX
  8
0
 10
759.4814
 20
564.4431
 30
0.0000
  0
VERTEX
  8
0
 10
758.6568
 20
563.9876
 30
0.0000
  0
VERTEX
  8
0
 10
758.3720
 20
563.7965
 30
0.0000
  0
SEQEND
  0
POLYLINE
  6
continous
  8
BYBLOCK
 70
0
 66
1
  0
VERTEX
  8
0
 10
768.9786
 20
556.2965
 30
0.0000
  0
VERTEX
  8
0
 10
769.6651
 20
556.8549
 30
0.0000
  0
VERTEX
  8
0
 10
770.2350
 20
557.4754
 30
0.0000
  0
VERTEX
  8
0
 10
770.6772
 20
558.1459
 30
0.0000
  0
VERTEX
  8
0
 10
770.9831
 20
558.8535
 30
0.0000
  0
VERTEX
  8
0
 10
771.1468
 20
559.5843
 30
0.0000
  0
VERTEX
  8
0
 10
771.1753
 20
560.0465
 30
0.0000
  0
SEQEND
  0
POLYLINE
  6
continous
  8
BYBLOCK
 70
0
 66
1
  0
VERTEX
  8
0
 10
699.6068
 20
520.0465
 30
0.0000
  0
VERTEX
  8
0
 10
699.6798
 20
519.3084
 30
0.0000
  0
VERTEX
  8
0
 10
699.8973
 20
518.5847
 30
0.0000
  0
VERTEX
  8
0
 10
700.2552
 20
517.8894
 30
0.0000
  0
VERTEX
  8
0
 10
700.7464
 20
517.2362
 30
0.0000
  0
VERTEX
  8
0
 10
701.3614
 20
516.6376
 30
0.0000
  0
VERTEX
  8
0
 10
702.0883
 20
516.1054
 30
0.0000
  0
VERTEX
  8
0
 10
702.9128
 20
515.6498
 30
0.0000
  0
VERTEX
  8
0
 10
703.8190
 20
515.2799
 30
0.0000
  0
VERTEX
  8
0
 10
704.7892
 20
515.0027
 30
0.0000
  0
VERTEX
  8
0
 10
705.9335
 20
514.8085
 30
0.0000
  0
VERTEX
  8
0
 10
707.1068
 20
514.7432
 30
0.0000
  0
VERTEX
  8
0
 10
708.2800
 20
514.8085
 30
0.0000
  0
VERTEX
  8
0
 10
709.4244
 20
515.0027
 30
0.0000
  0
VERTEX
  8
0
 10
710.3946
 20
515.2799
 30
0.0000
  0
VERTEX
  8
0
 10
711.3007
 20
515.6498
 30
0.0000
  0
VERTEX
  8
0
 10
712.1253
 20
516.1054
 30
0.0000
  0
VERTEX
  8
0
 10
712.4101
 20
516.2965
 30
0.0000
  0
SEQEND
  0
POLYLINE
  6
continous
  8
BYBLOCK
 70
0
 66
1
  0
VERTEX
  8
0
 10
701.8035
 20
523.7965
 30
0.0000
  0
VERTEX
  8
0
 10
701.1170
 20
523.2381
 30
0.0000
  0
VERTEX
  8
0
 10
700.5471
 20
522.6176
 30
0.0000
  0
VERTEX
  8
0
 10
700.1049
 20
521.9470
 30
0.0000
  0
VERTEX
  8
0
 10
699.7990
 20
521.2395
 30
0.0000
  0
VERTEX
  8
0
 10
699.6353
 20
520.5087
 30
0.0000
  0
VERTEX
  8
0
 10
699.6068
 20
520.0465
 30
0.0000
  0
SEQEND
  0
POLYLINE
  6
continous
  8
BYBLOCK
 70
0
 66
1
  0
VERTEX
  8
0
 10
714.6068
 20
520.0465
 30
0.0000
  0
VERTEX
  8
0
 10
714.5338
 20
520.7846
 30
0.0000
  0
VERTEX
  8
0
 10
714.3162
 20
521.5083
 30
0.0000
  0
VERTEX
  8
0
 10
713.9584
 20
522.2035
 30
0.0000
  0
VERTEX
  8
0
 10
713.4671
 20
522.8568
 30
0.0000
  0
VERTEX
  8
0
 10
712.8521
 20
523.4554
 30
0.0000
  0
VERTEX
  8
0
 10
712.1253
 20
523.9876
 30
0.0000
  0
VERTEX
  8
0
 10
711.3007
 20
524.4431
 30
0.0000
  0
VERTEX
  8
0
 10
710.3946
 20
524.8131
 30
0.0000
  0
VERTEX
  8
0
 10
709.4244
 20
525.0902
 30
0.0000
  0
VERTEX
  8
0
 10
708.2800
 20
525.2845
 30
0.0000
  0
VERTEX
  8
0
 10
707.1068
 20
525.3498
 30
0.0000
  0
VERTEX
  8
0
 10
705.9335
 20
525.2845
 30
0.0000
  0
VERTEX
  8
0
 10
704.7892
 20
525.0902
 30
0.0000
  0
VERTEX
  8
0
 10
703.8190
 20
524.8131
 30
0.0000
  0
VERTEX
  8
0
 10
702.9128
 20
524.4431
 30
0.0000
  0
VERTEX
  8
0
 10
702.0883
 20
523.9876
 30
0.0000
  0
VERTEX
  8
0
 10
701.8035
 20
523.7965
 30
0.0000
  0
SEQEND
  0
POLYLINE
  6
continous
  8
BYBLOCK
 70
0
 66
1
  0
VERTEX
  8
0
 10
712.4101
 20
516.2965
 30
0.0000
  0
VERTEX
  8
0
 10
713.0965
 20
516.8549
 30
0.0000
  0
VERTEX
  8
0
 10
713.6664
 20
517.4754
 30
0.0000
  0
VERTEX
  8
0
 10
714.1086
 20
518.1459
 30
0.0000
  0
VERTEX
  8
0
 10
714.4146
 20
518.8535
 30
0.0000
  0
VERTEX
  8
0
 10
714.5782
 20
519.5843
 30
0.0000
  0
VERTEX
  8
0
 10
714.6068
 20
520.0465
 30
0.0000
  0
SEQEND
  0
POLYLINE
  6
continous
  8
BYBLOCK
 70
0
 66
1
  0
VERTEX
  8
0
 10
643.0382
 20
480.0465
 30
0.0000
  0
VERTEX
  8
0
 10
643.1112
 20
479.3084
 30
0.0000
  0
VERTEX
  8
0
 10
643.3288
 20
478.5847
 30
0.0000
  0
VERTEX
  8
0
 10
643.6866
 20
477.8894
 30
0.0000
  0
VERTEX
  8
0
 10
644.1779
 20
477.2362
 30
0.0000
  0
VERTEX
  8
0
 10
644.7929
 20
476.6376
 30
0.0000
  0
VERTEX
  8
0
 10
645.5198
 20
476.1054
 30
0.0000
  0
VERTEX
  8
0
 10
646.3443
 20
475.6498
 30
0.0000
  0
VERTEX
  8
0
 10
647.2505
 20
475.2799
 30
0.0000
  0
VERTEX
  8
0
 10
648.2206
 20
475.0027
 30
0.0000
  0
VERTEX
  8
0
 10
649.3650
 20
474.8085
 30
0.0000
  0
VERTEX
  8
0
 10
650.5382
 20
474.7432
 30
0.0000
  0
VERTEX
  8
0
 10
651.7115
 20
474.8085
 30
0.0000
  0
VERTEX
  8
0
 10
652.8559
 20
475.0027
 30
0.0000
  0
VERTEX
  8
0
 10
653.8260
 20
475.2799
 30
0.0000
  0
VERTEX
  8
0
 10
654.7322
 20
475.6498
 30
0.0000
  0
VERTEX
  8
0
 10
655.5567
 20
476.1054
 30
0.0000
  0
VERTEX
  8
0
 10
655.8415
 20
476.2965
 30
0.0000
  0
SEQEND
  0
POLYLINE
  6
continous
  8
BYBLOCK
 70
0
 66
1
  0
VERTEX
  8
0
 10
645.2349
 20
483.7965
 30
0.0000
  0
VERTEX
  8
0
 10
644.5485
 20
483.2381
 30
0.0000
  0
VERTEX
  8
0
 10
643.9786
 20
482.6176
 30
0.0000
  0
VERTEX
  8
0
 10
643.5364
 20
481.9470
 30
0.0000
  0
VERTEX
  8
0
 10
643.2305
 20
481.2395
 30
0.0000
  0
VERTEX
  8
0
 10
643.0668
 20
480.5087
 30
0.0000
  0
VERTEX
  8
0
 10
643.0382
 20
480.0465
 30
0.0000
  0
SEQEND
  0
POLYLINE
  6
continous
  8
BYBLOCK
 70
0
 66
1
  0
VERTEX
  8
0
 10
658.0382
 20
480.0465
 30
0.0000
  0
VERTEX
  8
0
 10
657.9652
 20
480.7846
 30
0.0000
  0
VERTEX
  8
0
 10
657.7477
 20
481.5083
 30
0.0000
  0
VERTEX
  8
0
 10
657.3898
 20
482.2035
 30
0.0000
  0
VERTEX
  8
0
 10
656.8986
 20
482.8568
 30
0.0000
  0
VERTEX
  8
0
 10
656.2836
 20
483.4554
 30
0.0000
  0
VERTEX
  8
0
 10
655.5567
 20
483.9876
 30
0.0000
  0
VERTEX
  8
0
 10
654.7322
 20
484.4431
 30
0.0000
  0
VERTEX
  8
0
 10
653.8260
 20
484.8131
 30
0.0000
  0
VERTEX
  8
0
 10
652.8559
 20
485.0902
 30
0.0000
  0
VERTEX
  8
0
 10
651.7115
 20
485.2845
 30
0.0000
  0
VERTEX
  8
0
 10
650.5382
 20
485.3498
 30
0.0000
  0
VERTEX
  8
0
 10
649.3650
 20
485.2845
 30
0.0000
  0
VERTEX
  8
0
 10
648.2206
 20
485.0902
 30
0.0000
  0
VERTEX
  8
0
 10
647.2505
 20
484.8131
 30
0.0000
  0
VERTEX
  8
0
 10
646.3443
 20
484.4431
 30
0.0000
  0
VERTEX
  8
0
 10
645.5198
 20
483.9876
 30
0.0000
  0
VERTEX
  8
0
 10
645.2349
 20
483.7965
 30
0.0000
  0
SEQEND
  0
POLYLINE
  6
continous
  8
BYBLOCK
 70
0
 66
1
  0
VERTEX
  8
0
 10
655.8415
 20
476.2965
 30
0.0000
  0
VERTEX
  8
0
 10
656.5280
 20
476.8549
 30
0.0000
  0
VERTEX
  8
0
 10
657.0979
 20
477.4754
 30
0.0000
  0
VERTEX
  8
0
 10
657.5401
 20
478.1459
 30
0.0000
  0
VERTEX
  8
0
 10
657.8460
 20
478.8535
 30
0.0000
  0
VERTEX
  8
0
 10
658.0097
 20
479.5843
 30
0.0000
  0
VERTEX
  8
0
 10
658.0382
 20
480.0465
 30
0.0000
  0
SEQEND
  0
POLYLINE
  6
continous
  8
BYBLOCK
 70
0
 66
1
  0
VERTEX
  8
0
 10
586.4697
 20
440.0465
 30
0.0000
  0
VERTEX
  8
0
 10
586.5427
 20
439.3084
 30
0.0000
  0
VERTEX
  8
0
 10
586.7602
 20
438.5847
 30
0.0000
  0
VERTEX
  8
0
 10
587.1181
 20
437.8894
 30
0.0000
  0
VERTEX
  8
0
 10
587.6093
 20
437.2362
 30
0.0000
  0
VERTEX
  8
0
 10
588.2244
 20
436.6376
 30
0.0000
  0
VERTEX
  8
0
 10
588.9512
 20
436.1054
 30
0.0000
  0
VERTEX
  8
0
 10
589.7757
 20
435.6498
 30
0.0000
  0
VERTEX
  8
0
 10
590.6819
 20
435.2799
 30
0.0000
  0
VERTEX
  8
0
 10
591.6521
 20
435.0027
 30
0.0000
  0
VERTEX
  8
0
 10
592.7964
 20
434.8085
 30
0.0000
  0
VERTEX
  8
0
 10
593.9697
 20
434.7432
 30
0.0000
  0
VERTEX
  8
0
 10
595.1430
 20
434.8085
 30
0.0000
  0
VERTEX
  8
0
 10
596.2873
 20
435.0027
 30
0.0000
  0
VERTEX
  8
0
 10
597.2575
 20
435.2799
 30
0.0000
  0
VERTEX
  8
0
 10
598.1636
 20
435.6498
 30
0.0000
  0
VERTEX
  8
0
 10
598.9882
 20
436.1054
 30
0.0000
  0
VERTEX
  8
0
 10
599.2730
 20
436.2965
 30
0.0000
  0
SEQEND
  0
POLYLINE
  6
continous
  8
BYBLOCK
 70
0
 66
1
  0
VERTEX
  8
0
 10
588.6664
 20
443.7965
 30
0.0000
  0
VERTEX
  8
0
 10
587.9799
 20
443.2381
 30
0.0000
  0
VERTEX
  8
0
 10
587.4100
 20
442.6176
 30
0.0000
  0
VERTEX
  8
0
 10
586.9678
 20
441.9470
 30
0.0000
  0
VERTEX
  8
0
 10
586.6619
 20
441.2395
 30
0.0000
  0
VERTEX
  8
0
 10
586.4982
 20
440.5087
 30
0.0000
  0
VERTEX
  8
0
 10
586.4697
 20
440.0465
 30
0.0000
  0
SEQEND
  0
POLYLINE
  6
continous
  8
BYBLOCK
 70
0
 66
1
  0
VERTEX
  8
0
 10
601.4697
 20
440.0465
 30
0.0000
  0
VERTEX
  8
0
 10
601.3967
 20
440.7846
 30
0.0000
  0
VERTEX
  8
0
 10
601.1792
 20
441.5083
 30
0.0000
  0
VERTEX
  8
0
 10
600.8213
 20
442.2035
 30
0.0000
  0
VERTEX
  8
0
 10
600.3301
 20
442.8568
 30
0.0000
  0
VERTEX
  8
0
 10
599.7150
 20
443.4554
 30
0.0000
  0
VERTEX
  8
0
 10
598.9882
 20
443.9876
 30
0.0000
  0
VERTEX
  8
0
 10
598.1636
 20
444.4431
 30
0.0000
  0
VERTEX
  8
0
 10
597.2575
 20
444.8131
 30
0.0000
  0
VERTEX
  8
0
 10
596.2873
 20
445.0902
 30
0.0000
  0
VERTEX
  8
0
 10
595.1430
 20
445.2845
 30
0.0000
  0
VERTEX
  8
0
 10
593.9697
 20
445.3498
 30
0.0000
  0
VERTEX
  8
0
 10
592.7964
 20
445.2845
 30
0.0000
  0
VERTEX
  8
0
 10
591.6521
 20
445.0902
 30
0.0000
  0
VERTEX
  8
0
 10
590.6819
 20
444.8131
 30
0.0000
  0
VERTEX
  8
0
 10
589.7757
 20
444.4431
 30
0.0000
  0
VERTEX
  8
0
 10
588.9512
 20
443.9876
 30
0.0000
  0
VERTEX
  8
0
 10
588.6664
 20
443.7965
 30
0.0000
  0
SEQEND
  0
POLYLINE
  6
continous
  8
BYBLOCK
 70
0
 66
1
  0
VERTEX
  8
0
 10
599.2730
 20
436.2965
 30
0.0000
  0
VERTEX
  8
0
 10
599.9595
 20
436.8549
 30
0.0000
  0
VERTEX
  8
0
 10
600.5293
 20
437.4754
 30
0.0000
  0
VERTEX
  8
0
 10
600.9715
 20
438.1459
 30
0.0000
  0
VERTEX
  8
0
 10
601.2775
 20
438.8535
 30
0.0000
  0
VERTEX
  8
0
 10
601.4412
 20
439.5843
 30
0.0000
  0
VERTEX
  8
0
 10
601.4697
 20
440.0465
 30
0.0000
  0
SEQEND
  0
POLYLINE
  6
continous
  8
BYBLOCK
 70
0
 66
1
  0
VERTEX
  8
0
 10
529.9012
 20
400.0465
 30
0.0000
  0
VERTEX
  8
0
 10
529.9741
 20
399.3084
 30
0.0000
  0
VERTEX
  8
0
 10
530.1917
 20
398.5847
 30
0.0000
  0
VERTEX
  8
0
 10
530.5496
 20
397.8894
 30
0.0000
  0
VERTEX
  8
0
 10
531.0408
 20
397.2362
 30
0.0000
  0
VERTEX
  8
0
 10
531.6558
 20
396.6376
 30
0.0000
  0
VERTEX
  8
0
 10
532.3827
 20
396.1054
 30
0.0000
  0
VERTEX
  8
0
 10
533.2072
 20
395.6498
 30
0.0000
  0
VERTEX
  8
0
 10
534.1134
 20
395.2799
 30
0.0000
  0
VERTEX
  8
0
 10
535.0835
 20
395.0027
 30
0.0000
  0
VERTEX
  8
0
 10
536.2279
 20
394.8085
 30
0.0000
  0
VERTEX
  8
0
 10
537.4012
 20
394.7432
 30
0.0000
  0
VERTEX
  8
0
 10
538.5744
 20
394.8085
 30
0.0000
  0
VERTEX
  8
0
 10
539.7188
 20
395.0027
 30
0.0000
  0
VERTEX
  8
0
 10
540.6889
 20
395.2799
 30
0.0000
  0
VERTEX
  8
0
 10
541.5951
 20
395.6498
 30
0.0000
  0
VERTEX
  8
0
 10
542.4196
 20
396.1054
 30
0.0000
  0
VERTEX
  8
0
 10
542.7045
 20
396.2965
 30
0.0000
  0
SEQEND
  0
POLYLINE
  6
continous
  8
BYBLOCK
 70
0
 66
1
  0
VERTEX
  8
0
 10
532.0979
 20
403.7965
 30
0.0000
  0
VERTEX
  8
0
 10
531.4114
 20
403.2381
 30
0.0000
  0
VERTEX
  8
0
 10
530.8415
 20
402.6176
 30
0.0000
  0
VERTEX
  8
0
 10
530.3993
 20
401.9470
 30
0.0000
  0
VERTEX
  8
0
 10
530.0934
 20
401.2395
 30
0.0000
  0
VERTEX
  8
0
 10
529.9297
 20
400.5087
 30
0.0000
  0
VERTEX
  8
0
 10
529.9012
 20
400.0465
 30
0.0000
  0
SEQEND
  0
POLYLINE
  6
continous
  8
BYBLOCK
 70
0
 66
1
  0
VERTEX
  8
0
 10
544.9012
 20
400.0465
 30
0.0000
  0
VERTEX
  8
0
 10
544.8282
 20
400.7846
 30
0.0000
  0
VERTEX
  8
0
 10
544.6106
 20
401.5083
 30
0.0000
  0
VERTEX
  8
0
 10
544.2527
 20
402.2035
 30
0.0000
  0
VERTEX
  8
0
 10
543.7615
 20
402.8568
 30
0.0000
  0
VERTEX
  8
0
 10
543.1465
 20
403.4554
 30
0.0000
  0
VERTEX
  8
0
 10
542.4196
 20
403.9876
 30
0.0000
  0
VERTEX
  8
0
 10
541.5951
 20
404.4431
 30
0.0000
  0
VERTEX
  8
0
 10
540.6889
 20
404.8131
 30
0.0000
  0
VERTEX
  8
0
 10
539.7188
 20
405.0902
 30
0.0000
  0
VERTEX
  8
0
 10
538.5744
 20
405.2845
 30
0.0000
  0
VERTEX
  8
0
 10
537.4012
 20
405.3498
 30
0.0000
  0
VERTEX
  8
0
 10
536.2279
 20
405.2845
 30
0.0000
  0
VERTEX
  8
0
 10
535.0835
 20
405.0902
 30
0.0000
  0
VERTEX
  8
0
 10
534.1134
 20
404.8131
 30
0.0000
  0
VERTEX
  8
0
 10
533.2072
 20
404.4431
 30
0.0000
  0
VERTEX
  8
0
 10
532.3827
 20
403.9876
 30
0.0000
  0
VERTEX
  8
0
 10
532.0979
 20
403.7965
 30
0.0000
  0
SEQEND
  0
POLYLINE
  6
continous
  8
BYBLOCK
 70
0
 66
1
  0
VERTEX
  8
0
 10
542.7045
 20
396.2965
 30
0.0000
  0
VERTEX
  8
0
 10
543.3909
 20
396.8549
 30
0.0000
  0
VERTEX
  8
0
 10
543.9608
 20
397.4754
 30
0.0000
  0
VERTEX
  8
0
 10
544.4030
 20
398.1459
 30
0.0000
  0
VERTEX
  8
0
 10
544.7089
 20
398.8535
 30
0.0000
  0
VERTEX
  8
0
 10
544.8726
 20
399.5843
 30
0.0000
  0
VERTEX
  8
0
 10
544.9012
 20
400.0465
 30
0.0000
  0
SEQEND
  0
POLYLINE
  6
continous
  8
BYBLOCK
 70
0
 66
1
  0
VERTEX
  8
0
 10
473.3326
 20
360.0465
 30
0.0000
  0
VERTEX
  8
0
 10
473.4056
 20
359.3084
 30
0.0000
  0
VERTEX
  8
0
 10
473.6231
 20
358.5847
 30
0.0000
  0
VERTEX
  8
0
 10
473.9810
 20
357.8894
 30
0.0000
  0
VERTEX
  8
0
 10
474.4723
 20
357.2362
 30
0.0000
  0
VERTEX
  8
0
 10
475.0873
 20
356.6376
 30
0.0000
  0
VERTEX
  8
0
 10
475.8141
 20
356.1054
 30
0.0000
  0
VERTEX
  8
0
 10
476.6387
 20
355.6498
 30
0.0000
  0
VERTEX
  8
0
 10
477.5448
 20
355.2799
 30
0.0000
  0
VERTEX
  8
0
 10
478.5150
 20
355.0027
 30
0.0000
  0
VERTEX
  8
0
 10
479.6594
 20
354.8085
 30
0.0000
  0
VERTEX
  8
0
 10
480.8326
 20
354.7432
 30
0.0000
  0
VERTEX
  8
0
 10
482.0059
 20
354.8085
 30
0.0000
  0
VERTEX
  8
0
 10
483.1502
 20
355.0027
 30
0.0000
  0
VERTEX
  8
0
 10
484.1204
 20
355.2799
 30
0.0000
  0
VERTEX
  8
0
 10
485.0266
 20
355.6498
 30
0.0000
  0
VERTEX
  8
0
 10
485.8511
 20
356.1054
 30
0.0000
  0
VERTEX
  8
0
 10
486.1359
 20
356.2965
 30
0.0000
  0
SEQEND
  0
POLYLINE
  6
continous
  8
BYBLOCK
 70
0
 66
1
  0
VERTEX
  8
0
 10
475.5293
 20
363.7965
 30
0.0000
  0
VERTEX
  8
0
 10
474.8428
 20
363.2381
 30
0.0000
  0
VERTEX
  8
0
 10
474.2730
 20
362.6176
 30
0.0000
  0
VERTEX
  8
0
 10
473.8308
 20
361.9470
 30
0.0000
  0
VERTEX
  8
0
 10
473.5248
 20
361.2395
 30
0.0000
  0
VERTEX
  8
0
 10
473.3612
 20
360.5087
 30
0.0000
  0
VERTEX
  8
0
 10
473.3326
 20
360.0465
 30
0.0000
  0
SEQEND
  0
POLYLINE
  6
continous
  8
BYBLOCK
 70
0
 66
1
  0
VERTEX
  8
0
 10
488.3326
 20
360.0465
 30
0.0000
  0
VERTEX
  8
0
 10
488.2596
 20
360.7846
 30
0.0000
  0
VERTEX
  8
0
 10
488.0421
 20
361.5083
 30
0.0000
  0
VERTEX
  8
0
 10
487.6842
 20
362.2035
 30
0.0000
  0
VERTEX
  8
0
 10
487.1930
 20
362.8568
 30
0.0000
  0
VERTEX
  8
0
 10
486.5779
 20
363.4554
 30
0.0000
  0
VERTEX
  8
0
 10
485.8511
 20
363.9876
 30
0.0000
  0
VERTEX
  8
0
 10
485.0266
 20
364.4431
 30
0.0000
  0
VERTEX
  8
0
 10
484.1204
 20
364.8131
 30
0.0000
  0
VERTEX
  8
0
 10
483.1502
 20
365.0902
 30
0.0000
  0
VERTEX
  8
0
 10
482.0059
 20
365.2845
 30
0.0000
  0
VERTEX
  8
0
 10
480.8326
 20
365.3498
 30
0.0000
  0
VERTEX
  8
0
 10
479.6594
 20
365.2845
 30
0.0000
  0
VERTEX
  8
0
 10
478.5150
 20
365.0902
 30
0.0000
  0
VERTEX
  8
0
 10
477.5448
 20
364.8131
 30
0.0000
  0
VERTEX
  8
0
 10
476.6387
 20
364.4431
 30
0.0000
  0
VERTEX
  8
0
 10
475.8141
 20
363.9876
 30
0.0000
  0
VERTEX
  8
0
 10
475.5293
 20
363.7965
 30
0.0000
  0
SEQEND
  0
POLYLINE
  6
continous
  8
BYBLOCK
 70
0
 66
1
  0
VERTEX
  8
0
 10
486.1359
 20
356.2965
 30
0.0000
  0
VERTEX
  8
0
 10
486.8224
 20
356.8549
 30
0.0000
  0
VERTEX
  8
0
 10
487.3923
 20
357.4754
 30
0.0000
  0
VERTEX
  8
0
 10
487.8345
 20
358.1459
 30
0.0000
  0
VERTEX
  8
0
 10
488.1404
 20
358.8535
 30
0.0000
  0
VERTEX
  8
0
 10
488.3041
 20
359.5843
 30
0.0000
  0
VERTEX
  8
0
 10
488.3326
 20
360.0465
 30
0.0000
  0
SEQEND
  0
POLYLINE
  6
continous
  8
BYBLOCK
 70
0
 66
1
  0
VERTEX
  8
0
 10
416.7641
 20
320.0465
 30
0.0000
  0
VERTEX
  8
0
 10
416.8371
 20
319.3084
 30
0.0000
  0
VERTEX
  8
0
 10
417.0546
 20
318.5847
 30
0.0000
  0
VERTEX
  8
0
 10
417.4125
 20
317.8894
 30
0.0000
  0
VERTEX
  8
0
 10
417.9037
 20
317.2362
 30
0.0000
  0
VERTEX
  8
0
 10
418.5187
 20
316.6376
 30
0.0000
  0
VERTEX
  8
0
 10
419.2456
 20
316.1054
 30
0.0000
  0
VERTEX
  8
0
 10
420.0701
 20
315.6498
 30
0.0000
  0
VERTEX
  8
0
 10
420.9763
 20
315.2799
 30
0.0000
  0
VERTEX
  8
0
 10
421.9464
 20
315.0027
 30
0.0000
  0
VERTEX
  8
0
 10
423.0908
 20
314.8085
 30
0.0000
  0
VERTEX
  8
0
 10
424.2641
 20
314.7432
 30
0.0000
  0
VERTEX
  8
0
 10
425.4373
 20
314.8085
 30
0.0000
  0
VERTEX
  8
0
 10
426.5817
 20
315.0027
 30
0.0000
  0
VERTEX
  8
0
 10
427.5519
 20
315.2799
 30
0.0000
  0
VERTEX
  8
0
 10
428.4580
 20
315.6498
 30
0.0000
  0
VERTEX
  8
0
 10
429.2825
 20
316.1054
 30
0.0000
  0
VERTEX
  8
0
 10
429.5674
 20
316.2965
 30
0.0000
  0
SEQEND
  0
POLYLINE
  6
continous
  8
BYBLOCK
 70
0
 66
1
  0
VERTEX
  8
0
 10
418.9608
 20
323.7965
 30
0.0000
  0
VERTEX
  8
0
 10
418.2743
 20
323.2381
 30
0.0000
  0
VERTEX
  8
0
 10
417.7044
 20
322.6176
 30
0.0000
  0
VERTEX
  8
0
 10
417.2622
 20
321.9470
 30
0.0000
  0
VERTEX
  8
0
 10
416.9563
 20
321.2395
 30
0.0000
  0
VERTEX
  8
0
 10
416.7926
 20
320.5087
 30
0.0000
  0
VERTEX
  8
0
 10
416.7641
 20
320.0465
 30
0.0000
  0
SEQEND
  0
POLYLINE
  6
continous
  8
BYBLOCK
 70
0
 66
1
  0
VERTEX
  8
0
 10
431.7641
 20
320.0465
 30
0.0000
  0
VERTEX
  8
0
 10
431.6911
 20
320.7846
 30
0.0000
  0
VERTEX
  8
0
 10
431.4735
 20
321.5083
 30
0.0000
  0
VERTEX
  8
0
 10
431.1157
 20
322.2035
 30
0.0000
  0
VERTEX
  8
0
 10
430.6244
 20
322.8568
 30
0.0000
  0
VERTEX
  8
0
 10
430.0094
 20
323.4554
 30
0.0000
  0
VERTEX
  8
0
 10
429.2825
 20
323.9876
 30
0.0000
  0
VERTEX
  8
0
 10
428.4580
 20
324.4431
 30
0.0000
  0
VERTEX
  8
0
 10
427.5519
 20
324.8131
 30
0.0000
  0
VERTEX
  8
0
 10
426.5817
 20
325.0902
 30
0.0000
  0
VERTEX
  8
0
 10
425.4373
 20
325.2845
 30
0.0000
  0
VERTEX
  8
0
 10
424.2641
 20
325.3498
 30
0.0000
  0
VERTEX
  8
0
 10
423.0908
 20
325.2845
 30
0.0000
  0
VERTEX
  8
0
 10
421.9464
 20
325.0902
 30
0.0000
  0
VERTEX
  8
0
 10
420.9763
 20
324.8131
 30
0.0000
  0
VERTEX
  8
0
 10
420.0701
 20
324.4431
 30
0.0000
  0
VERTEX
  8
0
 10
419.2456
 20
323.9876
 30
0.0000
  0
VERTEX
  8
0
 10
418.9608
 20
323.7965
 30
0.0000
  0
SEQEND
  0
POLYLINE
  6
continous
  8
BYBLOCK
 70
0
 66
1
  0
VERTEX
  8
0
 10
429.5674
 20
316.2965
 30
0.0000
  0
VERTEX
  8
0
 10
430.2538
 20
316.8549
 30
0.0000
  0
VERTEX
  8
0
 10
430.8237
 20
317.4754
 30
0.0000
  0
VERTEX
  8
0
 10
431.2659
 20
318.1459
 30
0.0000
  0
VERTEX
  8
0
 10
431.5718
 20
318.8535
 30
0.0000
  0
VERTEX
  8
0
 10
431.7355
 20
319.5843
 30
0.0000
  0
VERTEX
  8
0
 10
431.7641
 20
320.0465
 30
0.0000
  0
SEQEND
  0
POLYLINE
  6
continous
  8
BYBLOCK
 70
0
 66
1
  0
VERTEX
  8
0
 10
360.1955
 20
280.0465
 30
0.0000
  0
VERTEX
  8
0
 10
360.2685
 20
279.3084
 30
0.0000
  0
VERTEX
  8
0
 10
360.4861
 20
278.5847
 30
0.0000
  0
VERTEX
  8
0
 10
360.8439
 20
277.8894
 30
0.0000
  0
VERTEX
  8
0
 10
361.3352
 20
277.2362
 30
0.0000
  0
VERTEX
  8
0
 10
361.9502
 20
276.6376
 30
0.0000
  0
VERTEX
  8
0
 10
362.6770
 20
276.1054
 30
0.0000
  0
VERTEX
  8
0
 10
363.5016
 20
275.6498
 30
0.0000
  0
VERTEX
  8
0
 10
364.4077
 20
275.2799
 30
0.0000
  0
VERTEX
  8
0
 10
365.3779
 20
275.0027
 30
0.0000
  0
VERTEX
  8
0
 10
366.5223
 20
274.8085
 30
0.0000
  0
VERTEX
  8
0
 10
367.6955
 20
274.7432
 30
0.0000
  0
VERTEX
  8
0
 10
368.8688
 20
274.8085
 30
0.0000
  0
VERTEX
  8
0
 10
370.0132
 20
275.0027
 30
0.0000
  0
VERTEX
  8
0
 10
370.9833
 20
275.2799
 30
0.0000
  0
VERTEX
  8
0
 10
371.8895
 20
275.6498
 30
0.0000
  0
VERTEX
  8
0
 10
372.7140
 20
276.1054
 30
0.0000
  0
VERTEX
  8
0
 10
372.9988
 20
276.2965
 30
0.0000
  0
SEQEND
  0
POLYLINE
  6
continous
  8
BYBLOCK
 70
0
 66
1
  0
VERTEX
  8
0
 10
362.3922
 20
283.7965
 30
0.0000
  0
VERTEX
  8
0
 10
361.7058
 20
283.2381
 30
0.0000
  0
VERTEX
  8
0
 10
361.1359
 20
282.6176
 30
0.0000
  0
VERTEX
  8
0
 10
360.6937
 20
281.9470
 30
0.0000
  0
VERTEX
  8
0
 10
360.3878
 20
281.2395
 30
0.0000
  0
VERTEX
  8
0
 10
360.2241
 20
280.5087
 30
0.0000
  0
VERTEX
  8
0
 10
360.1955
 20
280.0465
 30
0.0000
  0
SEQEND
  0
POLYLINE
  6
continous
  8
BYBLOCK
 70
0
 66
1
  0
VERTEX
  8
0
 10
375.1955
 20
280.0465
 30
0.0000
  0
VERTEX
  8
0
 10
375.1225
 20
280.7846
 30
0.0000
  0
VERTEX
  8
0
 10
374.9050
 20
281.5083
 30
0.0000
  0
VERTEX
  8
0
 10
374.5471
 20
282.2035
 30
0.0000
  0
VERTEX
  8
0
 10
374.0559
 20
282.8568
 30
0.0000
  0
VERTEX
  8
0
 10
373.4409
 20
283.4554
 30
0.0000
  0
VERTEX
  8
0
 10
372.7140
 20
283.9876
 30
0.0000
  0
VERTEX
  8
0
 10
371.8895
 20
284.4431
 30
0.0000
  0
VERTEX
  8
0
 10
370.9833
 20
284.8131
 30
0.0000
  0
VERTEX
  8
0
 10
370.0132
 20
285.0902
 30
0.0000
  0
VERTEX
  8
0
 10
368.8688
 20
285.2845
 30
0.0000
  0
VERTEX
  8
0
 10
367.6955
 20
285.3498
 30
0.0000
  0
VERTEX
  8
0
 10
366.5223
 20
285.2845
 30
0.0000
  0
VERTEX
  8
0
 10
365.3779
 20
285.0902
 30
0.0000
  0
VERTEX
  8
0
 10
364.4077
 20
284.8131
 30
0.0000
  0
VERTEX
  8
0
 10
363.5016
 20
284.4431
 30
0.0000
  0
VERTEX
  8
0
 10
362.6770
 20
283.9876
 30
0.0000
  0
VERTEX
  8
0
 10
362.3922
 20
283.7965
 30
0.0000
  0
SEQEND
  0
POLYLINE
  6
continous
  8
BYBLOCK
 70
0
 66
1
  0
VERTEX
  8
0
 10
372.9988
 20
276.2965
 30
0.0000
  0
VERTEX
  8
0
 10
373.6853
 20
276.8549
 30
0.0000
  0
VERTEX
  8
0
 10
374.2552
 20
277.4754
 30
0.0000
  0
VERTEX
  8
0
 10
374.6974
 20
278.1459
 30
0.0000
  0
VERTEX
  8
0
 10
375.0033
 20
278.8535
 30
0.0000
  0
VERTEX
  8
0
 10
375.1670
 20
279.5843
 30
0.0000
  0
VERTEX
  8
0
 10
375.1955
 20
280.0465
 30
0.0000
  0
SEQEND
  0
POLYLINE
  6
continous
  8
BYBLOCK
 70
0
 66
1
  0
VERTEX
  8
0
 10
303.6270
 20
240.0465
 30
0.0000
  0
VERTEX
  8
0
 10
303.7000
 20
239.3084
 30
0.0000
  0
VERTEX
  8
0
 10
303.9175
 20
238.5847
 30
0.0000
  0
VERTEX
  8
0
 10
304.2754
 20
237.8894
 30
0.0000
  0
VERTEX
  8
0
 10
304.7666
 20
237.2362
 30
0.0000
  0
VERTEX
  8
0
 10
305.3817
 20
236.6376
 30
0.0000
  0
VERTEX
  8
0
 10
306.1085
 20
236.1054
 30
0.0000
  0
VERTEX
  8
0
 10
306.9330
 20
235.6498
 30
0.0000
  0
VERTEX
  8
0
 10
307.8392
 20
235.2799
 30
0.0000
  0
VERTEX
  8
0
 10
308.8094
 20
235.0027
 30
0.0000
  0
VERTEX
  8
0
 10
309.9537
 20
234.8085
 30
0.0000
  0
VERTEX
  8
0
 10
311.1270
 20
234.7432
 30
0.0000
  0
VERTEX
  8
0
 10
312.3002
 20
234.8085
 30
0.0000
  0
VERTEX
  8
0
 10
313.4446
 20
235.0027
 30
0.0000
  0
VERTEX
  8
0
 10
314.4148
 20
235.2799
 30
0.0000
  0
VERTEX
  8
0
 10
315.3209
 20
235.6498
 30
0.0000
  0
VERTEX
  8
0
 10
316.1455
 20
236.1054
 30
0.0000
  0
VERTEX
  8
0
 10
316.4303
 20
236.2965
 30
0.0000
  0
SEQEND
  0
POLYLINE
  6
continous
  8
BYBLOCK
 70
0
 66
1
  0
VERTEX
  8
0
 10
305.8237
 20
243.7965
 30
0.0000
  0
VERTEX
  8
0
 10
305.1372
 20
243.2381
 30
0.0000
  0
VERTEX
  8
0
 10
304.5673
 20
242.6176
 30
0.0000
  0
VERTEX
  8
0
 10
304.1251
 20
241.9470
 30
0.0000
  0
VERTEX
  8
0
 10
303.8192
 20
241.2395
 30
0.0000
  0
VERTEX
  8
0
 10
303.6555
 20
240.5087
 30
0.0000
  0
VERTEX
  8
0
 10
303.6270
 20
240.0465
 30
0.0000
  0
SEQEND
  0
POLYLINE
  6
continous
  8
BYBLOCK
 70
0
 66
1
  0
VERTEX
  8
0
 10
318.6270
 20
240.0465
 30
0.0000
  0
VERTEX
  8
0
 10
318.5540
 20
240.7846
 30
0.0000
  0
VERTEX
  8
0
 10
318.3364
 20
241.5083
 30
0.0000
  0
VERTEX
  8
0
 10
317.9786
 20
242.2035
 30
0.0000
  0
VERTEX
  8
0
 10
317.4873
 20
242.8568
 30
0.0000
  0
VERTEX
  8
0
 10
316.8723
 20
243.4554
 30
0.0000
  0
VERTEX
  8
0
 10
316.1455
 20
243.9876
 30
0.0000
  0
VERTEX
  8
0
 10
315.3209
 20
244.4431
 30
0.0000
  0
VERTEX
  8
0
 10
314.4148
 20
244.8131
 30
0.0000
  0
VERTEX
  8
0
 10
313.4446
 20
245.0902
 30
0.0000
  0
VERTEX
  8
0
 10
312.3002
 20
245.2845
 30
0.0000
  0
VERTEX
  8
0
 10
311.1270
 20
245.3498
 30
0.0000
  0
VERTEX
  8
0
 10
309.9537
 20
245.2845
 30
0.0000
  0
VERTEX
  8
0
 10
308.8094
 20
245.0902
 30
0.0000
  0
VERTEX
  8
0
 10
307.8392
 20
244.8131
 30
0.0000
  0
VERTEX
  8
0
 10
306.9330
 20
244.4431
 30
0.0000
  0
VERTEX
  8
0
 10
306.1085
 20
243.9876
 30
0.0000
  0
VERTEX
  8
0
 10
305.8237
 20
243.7965
 30
0.0000
  0
SEQEND
  0
POLYLINE
  6
continous
  8
BYBLOCK
 70
0
 66
1
  0
VERTEX
  8
0
 10
316.4303
 20
236.2965
 30
0.0000
  0
VERTEX
  8
0
 10
317.1168
 20
236.8549
 30
0.0000
  0
VERTEX
  8
0
 10
317.6866
 20
237.4754
 30
0.0000
  0
VERTEX
  8
0
 10
318.1288
 20
238.1459
 30
0.0000
  0
VERTEX
  8
0
 10
318.4348
 20
238.8535
 30
0.0000
  0
VERTEX
  8
0
 10
318.5984
 20
239.5843
 30
0.0000
  0
VERTEX
  8
0
 10
318.6270
 20
240.0465
 30
0.0000
  0
SEQEND
  0
POLYLINE
  6
continous
  8
BYBLOCK
 70
0
 66
1
  0
VERTEX
  8
0
 10
247.0584
 20
200.0465
 30
0.0000
  0
VERTEX
  8
0
 10
247.1314
 20
199.3084
 30
0.0000
  0
VERTEX
  8
0
 10
247.3490
 20
198.5847
 30
0.0000
  0
VERTEX
  8
0
 10
247.7069
 20
197.8894
 30
0.0000
  0
VERTEX
  8
0
 10
248.1981
 20
197.2362
 30
0.0000
  0
VERTEX
  8
0
 10
248.8131
 20
196.6376
 30
0.0000
  0
VERTEX
  8
0
 10
249.5400
 20
196.1054
 30
0.0000
  0
VERTEX
  8
0
 10
250.3645
 20
195.6498
 30
0.0000
  0
VERTEX
  8
0
 10
251.2707
 20
195.2799
 30
0.0000
  0
VERTEX
  8
0
 10
252.2408
 20
195.0027
 30
0.0000
  0
VERTEX
  8
0
 10
253.3852
 20
194.8085
 30
0.0000
  0
VERTEX
  8
0
 10
254.5584
 20
194.7432
 30
0.0000
  0
VERTEX
  8
0
 10
255.7317
 20
194.8085
 30
0.0000
  0
VERTEX
  8
0
 10
256.8761
 20
195.0027
 30
0.0000
  0
VERTEX
  8
0
 10
257.8462
 20
195.2799
 30
0.0000
  0
VERTEX
  8
0
 10
258.7524
 20
195.6498
 30
0.0000
  0
VERTEX
  8
0
 10
259.5769
 20
196.1054
 30
0.0000
  0
VERTEX
  8
0
 10
259.8617
 20
196.2965
 30
0.0000
  0
SEQEND
  0
POLYLINE
  6
continous
  8
BYBLOCK
 70
0
 66
1
  0
VERTEX
  8
0
 10
249.2551
 20
203.7965
 30
0.0000
  0
VERTEX
  8
0
 10
248.5687
 20
203.2381
 30
0.0000
  0
VERTEX
  8
0
 10
247.9988
 20
202.6176
 30
0.0000
  0
VERTEX
  8
0
 10
247.5566
 20
201.9470
 30
0.0000
  0
VERTEX
  8
0
 10
247.2507
 20
201.2395
 30
0.0000
  0
VERTEX
  8
0
 10
247.0870
 20
200.5087
 30
0.0000
  0
VERTEX
  8
0
 10
247.0584
 20
200.0465
 30
0.0000
  0
SEQEND
  0
POLYLINE
  6
continous
  8
BYBLOCK
 70
0
 66
1
  0
VERTEX
  8
0
 10
262.0584
 20
200.0465
 30
0.0000
  0
VERTEX
  8
0
 10
261.9855
 20
200.7846
 30
0.0000
  0
VERTEX
  8
0
 10
261.7679
 20
201.5083
 30
0.0000
  0
VERTEX
  8
0
 10
261.4100
 20
202.2035
 30
0.0000
  0
VERTEX
  8
0
 10
260.9188
 20
202.8568
 30
0.0000
  0
VERTEX
  8
0
 10
260.3038
 20
203.4554
 30
0.0000
  0
VERTEX
  8
0
 10
259.5769
 20
203.9876
 30
0.0000
  0
VERTEX
  8
0
 10
258.7524
 20
204.4431
 30
0.0000
  0
VERTEX
  8
0
 10
257.8462
 20
204.8131
 30
0.0000
  0
VERTEX
  8
0
 10
256.8761
 20
205.0902
 30
0.0000
  0
VERTEX
  8
0
 10
255.7317
 20
205.2845
 30
0.0000
  0
VERTEX
  8
0
 10
254.5584
 20
205.3498
 30
0.0000
  0
VERTEX
  8
0
 10
253.3852
 20
205.2845
 30
0.0000
  0
VERTEX
  8
0
 10
252.2408
 20
205.0902
 30
0.0000
  0
VERTEX
  8
0
 10
251.2707
 20
204.8131
 30
0.0000
  0
VERTEX
  8
0
 10
250.3645
 20
204.4431
 30
0.0000
  0
VERTEX
  8
0
 10
249.5400
 20
203.9876
 30
0.0000
  0
VERTEX
  8
0
 10
249.2551
 20
203.7965
 30
0.0000
  0
SEQEND
  0
POLYLINE
  6
continous
  8
BYBLOCK
 70
0
 66
1
  0
VERTEX
  8
0
 10
259.8617
 20
196.2965
 30
0.0000
  0
VERTEX
  8
0
 10
260.5482
 20
196.8549
 30
0.0000
  0
VERTEX
  8
0
 10
261.1181
 20
197.4754
 30
0.0000
  0
VERTEX
  8
0
 10
261.5603
 20
198.1459
 30
0.0000
  0
VERTEX
  8
0
 10
261.8662
 20
198.8535
 30
0.0000
  0
VERTEX
  8
0
 10
262.0299
 20
199.5843
 30
0.0000
  0
VERTEX
  8
0
 10
262.0584
 20
200.0465
 30
0.0000
  0
SEQEND
  0
POLYLINE
  6
continous
  8
BYBLOCK
 70
0
 66
1
  0
VERTEX
  8
0
 10
190.4899
 20
160.0465
 30
0.0000
  0
VERTEX
  8
0
 10
190.5629
 20
159.3084
 30
0.0000
  0
VERTEX
  8
0
 10
190.7804
 20
158.5847
 30
0.0000
  0
VERTEX
  8
0
 10
191.1383
 20
157.8894
 30
0.0000
  0
VERTEX
  8
0
 10
191.6295
 20
157.2362
 30
0.0000
  0
VERTEX
  8
0
 10
192.2446
 20
156.6376
 30
0.0000
  0
VERTEX
  8
0
 10
192.9714
 20
156.1054
 30
0.0000
  0
VERTEX
  8
0
 10
193.7960
 20
155.6498
 30
0.0000
  0
VERTEX
  8
0
 10
194.7021
 20
155.2799
 30
0.0000
  0
VERTEX
  8
0
 10
195.6723
 20
155.0027
 30
0.0000
  0
VERTEX
  8
0
 10
196.8166
 20
154.8085
 30
0.0000
  0
VERTEX
  8
0
 10
197.9899
 20
154.7432
 30
0.0000
  0
VERTEX
  8
0
 10
199.1632
 20
154.8085
 30
0.0000
  0
VERTEX
  8
0
 10
200.3075
 20
155.0027
 30
0.0000
  0
VERTEX
  8
0
 10
201.2777
 20
155.2799
 30
0.0000
  0
VERTEX
  8
0
 10
202.1838
 20
155.6498
 30
0.0000
  0
VERTEX
  8
0
 10
203.0084
 20
156.1054
 30
0.0000
  0
VERTEX
  8
0
 10
203.2932
 20
156.2965
 30
0.0000
  0
SEQEND
  0
POLYLINE
  6
continous
  8
BYBLOCK
 70
0
 66
1
  0
VERTEX
  8
0
 10
192.6866
 20
163.7965
 30
0.0000
  0
VERTEX
  8
0
 10
192.0001
 20
163.2381
 30
0.0000
  0
VERTEX
  8
0
 10
191.4303
 20
162.6176
 30
0.0000
  0
VERTEX
  8
0
 10
190.9880
 20
161.9470
 30
0.0000
  0
VERTEX
  8
0
 10
190.6821
 20
161.2395
 30
0.0000
  0
VERTEX
  8
0
 10
190.5184
 20
160.5087
 30
0.0000
  0
VERTEX
  8
0
 10
190.4899
 20
160.0465
 30
0.0000
  0
SEQEND
  0
POLYLINE
  6
continous
  8
BYBLOCK
 70
0
 66
1
  0
VERTEX
  8
0
 10
205.4899
 20
160.0465
 30
0.0000
  0
VERTEX
  8
0
 10
205.4169
 20
160.7846
 30
0.0000
  0
VERTEX
  8
0
 10
205.1994
 20
161.5083
 30
0.0000
  0
VERTEX
  8
0
 10
204.8415
 20
162.2035
 30
0.0000
  0
VERTEX
  8
0
 10
204.3503
 20
162.8568
 30
0.0000
  0
VERTEX
  8
0
 10
203.7352
 20
163.4554
 30
0.0000
  0
VERTEX
  8
0
 10
203.0084
 20
163.9876
 30
0.0000
  0
VERTEX
  8
0
 10
202.1838
 20
164.4431
 30
0.0000
  0
VERTEX
  8
0
 10
201.2777
 20
164.8131
 30
0.0000
  0
VERTEX
  8
0
 10
200.3075
 20
165.0902
 30
0.0000
  0
VERTEX
  8
0
 10
199.1632
 20
165.2845
 30
0.0000
  0
VERTEX
  8
0
 10
197.9899
 20
165.3498
 30
0.0000
  0
VERTEX
  8
0
 10
196.8166
 20
165.2845
 30
0.0000
  0
VERTEX
  8
0
 10
195.6723
 20
165.0902
 30
0.0000
  0
VERTEX
  8
0
 10
194.7021
 20
164.8131
 30
0.0000
  0
VERTEX
  8
0
 10
193.7960
 20
164.4431
 30
0.0000
  0
VERTEX
  8
0
 10
192.9714
 20
163.9876
 30
0.0000
  0
VERTEX
  8
0
 10
192.6866
 20
163.7965
 30
0.0000
  0
SEQEND
  0
POLYLINE
  6
continous
  8
BYBLOCK
 70
0
 66
1
  0
VERTEX
  8
0
 10
203.2932
 20
156.2965
 30
0.0000
  0
VERTEX
  8
0
 10
203.9797
 20
156.8549
 30
0.0000
  0
VERTEX
  8
0
 10
204.5495
 20
157.4754
 30
0.0000
  0
VERTEX
  8
0
 10
204.9918
 20
158.1459
 30
0.0000
  0
VERTEX
  8
0
 10
205.2977
 20
158.8535
 30
0.0000
  0
VERTEX
  8
0
 10
205.4614
 20
159.5843
 30
0.0000
  0
VERTEX
  8
0
 10
205.4899
 20
160.0465
 30
0.0000
  0
SEQEND
  0
POLYLINE
  6
continous
  8
BYBLOCK
 70
0
 66
1
  0
VERTEX
  8
0
 10
133.9214
 20
120.0465
 30
0.0000
  0
VERTEX
  8
0
 10
133.9943
 20
119.3084
 30
0.0000
  0
VERTEX
  8
0
 10
134.2119
 20
118.5847
 30
0.0000
  0
VERTEX
  8
0
 10
134.5698
 20
117.8894
 30
0.0000
  0
VERTEX
  8
0
 10
135.0610
 20
117.2362
 30
0.0000
  0
VERTEX
  8
0
 10
135.6760
 20
116.6376
 30
0.0000
  0
VERTEX
  8
0
 10
136.4029
 20
116.1054
 30
0.0000
  0
VERTEX
  8
0
 10
137.2274
 20
115.6498
 30
0.0000
  0
VERTEX
  8
0
 10
138.1336
 20
115.2799
 30
0.0000
  0
VERTEX
  8
0
 10
139.1037
 20
115.0027
 30
0.0000
  0
VERTEX
  8
0
 10
140.2481
 20
114.8085
 30
0.0000
  0
VERTEX
  8
0
 10
141.4214
 20
114.7432
 30
0.0000
  0
VERTEX
  8
0
 10
142.5946
 20
114.8085
 30
0.0000
  0
VERTEX
  8
0
 10
143.7390
 20
115.0027
 30
0.0000
  0
VERTEX
  8
0
 10
144.7091
 20
115.2799
 30
0.0000
  0
VERTEX
  8
0
 10
145.6153
 20
115.6498
 30
0.0000
  0
VERTEX
  8
0
 10
146.4398
 20
116.1054
 30
0.0000
  0
VERTEX
  8
0
 10
146.7247
 20
116.2965
 30
0.0000
  0
SEQEND
  0
POLYLINE
  6
continous
  8
BYBLOCK
 70
0
 66
1
  0
VERTEX
  8
0
 10
136.1181
 20
123.7965
 30
0.0000
  0
VERTEX
  8
0
 10
135.4316
 20
123.2381
 30
0.0000
  0
VERTEX
  8
0
 10
134.8617
 20
122.6176
 30
0.0000
  0
VERTEX
  8
0
 10
134.4195
 20
121.9470
 30
0.0000
  0
VERTEX
  8
0
 10
134.1136
 20
121.2395
 30
0.0000
  0
VERTEX
  8
0
 10
133.9499
 20
120.5087
 30
0.0000
  0
VERTEX
  8
0
 10
133.9214
 20
120.0465
 30
0.0000
  0
SEQEND
  0
POLYLINE
  6
continous
  8
BYBLOCK
 70
0
 66
1
  0
VERTEX
  8
0
 10
148.9214
 20
120.0465
 30
0.0000
  0
VERTEX
  8
0
 10
148.8484
 20
120.7846
 30
0.0000
  0
VERTEX
  8
0
 10
148.6308
 20
121.5083
 30
0.0000
  0
VERTEX
  8
0
 10
148.2729
 20
122.2035
 30
0.0000
  0
VERTEX
  8
0
 10
147.7817
 20
122.8568
 30
0.0000
  0
VERTEX
  8
0
 10
147.1667
 20
123.4554
 30
0.0000
  0
VERTEX
  8
0
 10
146.4398
 20
123.9876
 30
0.0000
  0
VERTEX
  8
0
 10
145.6153
 20
124.4431
 30
0.0000
  0
VERTEX
  8
0
 10
144.7091
 20
124.8131
 30
0.0000
  0
VERTEX
  8
0
 10
143.7390
 20
125.0902
 30
0.0000
  0
VERTEX
  8
0
 10
142.5946
 20
125.2845
 30
0.0000
  0
VERTEX
  8
0
 10
141.4214
 20
125.3498
 30
0.0000
  0
VERTEX
  8
0
 10
140.2481
 20
125.2845
 30
0.0000
  0
VERTEX
  8
0
 10
139.1037
 20
125.0902
 30
0.0000
  0
VERTEX
  8
0
 10
138.1336
 20
124.8131
 30
0.0000
  0
VERTEX
  8
0
 10
137.2274
 20
124.4431
 30
0.0000
  0
VERTEX
  8
0
 10
136.4029
 20
123.9876
 30
0.0000
  0
VERTEX
  8
0
 10
136.1181
 20
123.7965
 30
0.0000
  0
SEQEND
  0
POLYLINE
  6
continous
  8
BYBLOCK
 70
0
 66
1
  0
VERTEX
  8
0
 10
146.7247
 20
116.2965
 30
0.0000
  0
VERTEX
  8
0
 10
147.4111
 20
116.8549
 30
0.0000
  0
VERTEX
  8
0
 10
147.9810
 20
117.4754
 30
0.0000
  0
VERTEX
  8
0
 10
148.4232
 20
118.1459
 30
0.0000
  0
VERTEX
  8
0
 10
148.7291
 20
118.8535
 30
0.0000
  0
VERTEX
  8
0
 10
148.8928
 20
119.5843
 30
0.0000
  0
VERTEX
  8
0
 10
148.9214
 20
120.0465
 30
0.0000
  0
SEQEND
  0
POLYLINE
  6
continous
  8
BYBLOCK
 70
0
 66
1
  0
VERTEX
  8
0
 10
77.3528
 20
80.0465
 30
0.0000
  0
VERTEX
  8
0
 10
77.4258
 20
79.3084
 30
0.0000
  0
VERTEX
  8
0
 10
77.6434
 20
78.5847
 30
0.0000
  0
VERTEX
  8
0
 10
78.0012
 20
77.8894
 30
0.0000
  0
VERTEX
  8
0
 10
78.4925
 20
77.2362
 30
0.0000
  0
VERTEX
  8
0
 10
79.1075
 20
76.6376
 30
0.0000
  0
VERTEX
  8
0
 10
79.8343
 20
76.1054
 30
0.0000
  0
VERTEX
  8
0
 10
80.6589
 20
75.6498
 30
0.0000
  0
VERTEX
  8
0
 10
81.5650
 20
75.2799
 30
0.0000
  0
VERTEX
  8
0
 10
82.5352
 20
75.0027
 30
0.0000
  0
VERTEX
  8
0
 10
83.6796
 20
74.8085
 30
0.0000
  0
VERTEX
  8
0
 10
84.8528
 20
74.7432
 30
0.0000
  0
VERTEX
  8
0
 10
86.0261
 20
74.8085
 30
0.0000
  0
VERTEX
  8
0
 10
87.1704
 20
75.0027
 30
0.0000
  0
VERTEX
  8
0
 10
88.1406
 20
75.2799
 30
0.0000
  0
VERTEX
  8
0
 10
89.0468
 20
75.6498
 30
0.0000
  0
VERTEX
  8
0
 10
89.8713
 20
76.1054
 30
0.0000
  0
VERTEX
  8
0
 10
90.1561
 20
76.2965
 30
0.0000
  0
SEQEND
  0
POLYLINE
  6
continous
  8
BYBLOCK
 70
0
 66
1
  0
VERTEX
  8
0
 10
79.5495
 20
83.7965
 30
0.0000
  0
VERTEX
  8
0
 10
78.8630
 20
83.2381
 30
0.0000
  0
VERTEX
  8
0
 10
78.2932
 20
82.6176
 30
0.0000
  0
VERTEX
  8
0
 10
77.8510
 20
81.9470
 30
0.0000
  0
VERTEX
  8
0
 10
77.5450
 20
81.2395
 30
0.0000
  0
VERTEX
  8
0
 10
77.3814
 20
80.5087
 30
0.0000
  0
VERTEX
  8
0
 10
77.3528
 20
80.0465
 30
0.0000
  0
SEQEND
  0
POLYLINE
  6
continous
  8
BYBLOCK
 70
0
 66
1
  0
VERTEX
  8
0
 10
92.3528
 20
80.0465
 30
0.0000
  0
VERTEX
  8
0
 10
92.2798
 20
80.7846
 30
0.0000
  0
VERTEX
  8
0
 10
92.0623
 20
81.5083
 30
0.0000
  0
VERTEX
  8
0
 10
91.7044
 20
82.2035
 30
0.0000
  0
VERTEX
  8
0
 10
91.2132
 20
82.8568
 30
0.0000
  0
VERTEX
  8
0
 10
90.5981
 20
83.4554
 30
0.0000
  0
VERTEX
  8
0
 10
89.8713
 20
83.9876
 30
0.0000
  0
VERTEX
  8
0
 10
89.0468
 20
84.4431
 30
0.0000
  0
VERTEX
  8
0
 10
88.1406
 20
84.8131
 30
0.0000
  0
VERTEX
  8
0
 10
87.1704
 20
85.0902
 30
0.0000
  0
VERTEX
  8
0
 10
86.0261
 20
85.2845
 30
0.0000
  0
VERTEX
  8
0
 10
84.8528
 20
85.3498
 30
0.0000
  0
VERTEX
  8
0
 10
83.6796
 20
85.2845
 30
0.0000
  0
VERTEX
  8
0
 10
82.5352
 20
85.0902
 30
0.0000
  0
VERTEX
  8
0
 10
81.5650
 20
84.8131
 30
0.0000
  0
VERTEX
  8
0
 10
80.6589
 20
84.4431
 30
0.0000
  0
VERTEX
  8
0
 10
79.8343
 20
83.9876
 30
0.0000
  0
VERTEX
  8
0
 10
79.5495
 20
83.7965
 30
0.0000
  0
SEQEND
  0
POLYLINE
  6
continous
  8
BYBLOCK
 70
0
 66
1
  0
VERTEX
  8
0
 10
90.1561
 20
76.2965
 30
0.0000
  0
VERTEX
  8
0
 10
90.8426
 20
76.8549
 30
0.0000
  0
VERTEX
  8
0
 10
91.4125
 20
77.4754
 30
0.0000
  0
VERTEX
  8
0
 10
91.8547
 20
78.1459
 30
0.0000
  0
VERTEX
  8
0
 10
92.1606
 20
78.8535
 30
0.0000
  0
VERTEX
  8
0
 10
92.3243
 20
79.5843
 30
0.0000
  0
VERTEX
  8
0
 10
92.3528
 20
80.0465
 30
0.0000
  0
SEQEND
  0
LINE
  6
continous
  8
BYBLOCK
 10
10.8223
 20
15.8940
 30
0.0000
 11
-5.8725
 21
27.6990
 31
0.0000
  0
LINE
  6
continous
  8
BYBLOCK
 10
10.8223
 20
15.8940
 30
0.0000
 11
2834.2997
 21
2012.3940
 31
0.0000
  0
LINE
  6
continous
  8
BYBLOCK
 10
-5.8725
 20
27.6990
 30
0.0000
 11
-6.2225
 21
27.5965
 31
0.0000
  0
LINE
  6
continous
  8
BYBLOCK
 10
-6.2225
 20
27.5965
 30
0.0000
 11
2817.2548
 21
2024.0965
 31
0.0000
  0
LINE
  6
continous
  8
BYBLOCK
 10
-5.8725
 20
27.6990
 30
0.0000
 11
2817.6048
 21
2024.1990
 31
0.0000
  0
LINE
  6
continous
  8
BYBLOCK
 10
2817.6048
 20
2024.1990
 30
0.0000
 11
2817.2548
 21
2024.0965
 31
0.0000
  0
LINE
  6
continous
  8
BYBLOCK
 10
2820.1661
 20
2025.3571
 30
0.0000
 11
2817.2548
 21
2024.0965
 31
0.0000
  0
LINE
  6
continous
  8
BYBLOCK
 10
2835.8517
 20
1992.0985
 30
0.0000
 11
2835.8517
 21
1995.1522
 31
0.0000
  0
LINE
  6
continous
  8
BYBLOCK
 10
2837.8902
 20
1994.3379
 30
0.0000
 11
2835.8517
 21
1992.0985
 31
0.0000
  0
LINE
  6
continous
  8
BYBLOCK
 10
2835.8517
 20
1995.1522
 30
0.0000
 11
2834.6497
 21
1996.6962
 31
0.0000
  0
LINE
  6
continous
  8
BYBLOCK
 10
2837.8902
 20
1996.9588
 30
0.0000
 11
2835.8517
 21
1995.1522
 31
0.0000
  0
LINE
  6
continous
  8
BYBLOCK
 10
2834.6497
 20
1996.6962
 30
0.0000
 11
2834.6497
 21
1998.4431
 31
0.0000
  0
LINE
  6
continous
  8
BYBLOCK
 10
2836.6882
 20
1998.5028
 30
0.0000
 11
2834.6497
 21
1996.6962
 31
0.0000
  0
POLYLINE
  6
continous
  8
BYBLOCK
 70
0
 66
1
  0
VERTEX
  8
0
 10
2832.8805
 20
2001.6872
 30
0.0000
  0
VERTEX
  8
0
 10
2832.9269
 20
2001.2371
 30
0.0000
  0
VERTEX
  8
0
 10
2833.0730
 20
2000.7031
 30
0.0000
  0
VERTEX
  8
0
 10
2833.3117
 20
2000.1473
 30
0.0000
  0
VERTEX
  8
0
 10
2833.6583
 20
1999.5564
 30
0.0000
  0
VERTEX
  8
0
 10
2834.0778
 20
1999.0074
 30
0.0000
  0
VERTEX
  8
0
 10
2834.5113
 20
1998.5633
 30
0.0000
  0
VERTEX
  8
0
 10
2834.6497
 20
1998.4431
 30
0.0000
  0
SEQEND
  0
POLYLINE
  6
continous
  8
BYBLOCK
 70
0
 66
1
  0
VERTEX
  8
0
 10
2836.6882
 20
2000.1480
 30
0.0000
  0
VERTEX
  8
0
 10
2834.6497
 20
1998.4431
 30
0.0000
  0
SEQEND
  0
LINE
  6
continous
  8
BYBLOCK
 10
2832.8805
 20
2001.6872
 30
0.0000
 11
2832.3162
 21
2002.4121
 31
0.0000
  0
POLYLINE
  6
continous
  8
BYBLOCK
 70
0
 66
1
  0
VERTEX
  8
0
 10
2834.9343
 20
2003.4742
 30
0.0000
  0
VERTEX
  8
0
 10
2832.8805
 20
2001.6872
 30
0.0000
  0
SEQEND
  0
LINE
  6
continous
  8
BYBLOCK
 10
2832.3162
 20
2002.4121
 30
0.0000
 11
2832.3162
 21
2007.4414
 31
0.0000
  0
LINE
  6
continous
  8
BYBLOCK
 10
2834.3547
 20
2004.2187
 30
0.0000
 11
2832.3162
 21
2002.4121
 31
0.0000
  0
LINE
  6
continous
  8
BYBLOCK
 10
2834.6497
 20
2009.0914
 30
0.0000
 11
2834.6497
 21
2011.7965
 31
0.0000
  0
POLYLINE
  6
continous
  8
BYBLOCK
 70
0
 66
1
  0
VERTEX
  8
0
 10
2836.6882
 20
2011.5036
 30
0.0000
  0
VERTEX
  8
0
 10
2834.6497
 20
2009.0914
 30
0.0000
  0
SEQEND
  0
LINE
  6
continous
  8
BYBLOCK
 10
2836.6882
 20
2013.6743
 30
0.0000
 11
2834.6497
 21
2011.7965
 31
0.0000
  0
LINE
  6
continous
  8
BYBLOCK
 10
2834.6497
 20
2011.7965
 30
0.0000
 11
2834.2997
 21
2012.3940
 31
0.0000
  0
LINE
  6
continous
  8
BYBLOCK
 10
2834.2997
 20
2012.3940
 30
0.0000
 11
2817.6048
 21
2024.1990
 31
0.0000
  0
LINE
  6
continous
  8
BYBLOCK
 10
2820.2605
 20
2025.3848
 30
0.0000
 11
2817.6048
 21
2024.1990
 31
0.0000
  0
LINE
  6
continous
  8
BYBLOCK
 10
2836.5938
 20
2013.8354
 30
0.0000
 11
2834.2997
 21
2012.3940
 31
0.0000
  0
LINE
  6
continous
  8
BYBLOCK
 10
2820.2605
 20
2025.3848
 30
0.0000
 11
2820.1661
 21
2025.3571
 31
0.0000
  0
LINE
  6
continous
  8
BYBLOCK
 10
2837.8902
 20
1994.3379
 30
0.0000
 11
2837.8902
 21
1996.9588
 31
0.0000
  0
LINE
  6
continous
  8
BYBLOCK
 10
2837.8902
 20
1996.9588
 30
0.0000
 11
2836.6882
 21
1998.5028
 31
0.0000
  0
LINE
  6
continous
  8
BYBLOCK
 10
2836.6882
 20
1998.5028
 30
0.0000
 11
2836.6882
 21
2000.1480
 31
0.0000
  0
POLYLINE
  6
continous
  8
BYBLOCK
 70
0
 66
1
  0
VERTEX
  8
0
 10
2836.6882
 20
2000.1480
 30
0.0000
  0
VERTEX
  8
0
 10
2836.1798
 20
2000.7203
 30
0.0000
  0
VERTEX
  8
0
 10
2835.7317
 20
2001.3579
 30
0.0000
  0
VERTEX
  8
0
 10
2835.3663
 20
2002.0288
 30
0.0000
  0
VERTEX
  8
0
 10
2835.1183
 20
2002.6485
 30
0.0000
  0
VERTEX
  8
0
 10
2834.9670
 20
2003.2413
 30
0.0000
  0
VERTEX
  8
0
 10
2834.9343
 20
2003.4742
 30
0.0000
  0
SEQEND
  0
LINE
  6
continous
  8
BYBLOCK
 10
2834.9343
 20
2003.4742
 30
0.0000
 11
2834.3547
 21
2004.2187
 31
0.0000
  0
LINE
  6
continous
  8
BYBLOCK
 10
2834.3547
 20
2004.2187
 30
0.0000
 11
2834.3547
 21
2008.8828
 31
0.0000
  0
LINE
  6
continous
  8
BYBLOCK
 10
2836.6882
 20
2011.5036
 30
0.0000
 11
2836.6882
 21
2013.6743
 31
0.0000
  0
LINE
  6
continous
  8
BYBLOCK
 10
2836.6882
 20
2013.6743
 30
0.0000
 11
2836.5938
 21
2013.8354
 31
0.0000
  0
LINE
  6
continous
  8
BYBLOCK
 10
2836.5938
 20
2013.8354
 30
0.0000
 11
2820.2605
 21
2025.3848
 31
0.0000
  0
POLYLINE
  6
continous
  8
BYBLOCK
 70
0
 66
1
  0
VERTEX
  8
0
 10
22.9810
 20
43.7258
 30
0.0000
  0
VERTEX
  8
0
 10
22.3001
 20
43.1726
 30
0.0000
  0
VERTEX
  8
0
 10
21.7336
 20
42.5583
 30
0.0000
  0
VERTEX
  8
0
 10
21.2924
 20
41.8946
 30
0.0000
  0
VERTEX
  8
0
 10
20.9849
 20
41.1942
 30
0.0000
  0
VERTEX
  8
0
 10
20.8170
 20
40.4705
 30
0.0000
  0
VERTEX
  8
0
 10
20.7845
 20
40.0125
 30
0.0000
  0
SEQEND
  0
POLYLINE
  6
continous
  8
BYBLOCK
 70
0
 66
1
  0
VERTEX
  8
0
 10
35.7841
 20
40.0095
 30
0.0000
  0
VERTEX
  8
0
 10
35.7049
 20
40.7452
 30
0.0000
  0
VERTEX
  8
0
 10
35.4820
 20
41.4661
 30
0.0000
  0
VERTEX
  8
0
 10
35.1198
 20
42.1581
 30
0.0000
  0
VERTEX
  8
0
 10
34.6253
 20
42.8079
 30
0.0000
  0
VERTEX
  8
0
 10
34.0080
 20
43.4028
 30
0.0000
  0
VERTEX
  8
0
 10
33.2799
 20
43.9314
 30
0.0000
  0
VERTEX
  8
0
 10
32.4551
 20
44.3834
 30
0.0000
  0
VERTEX
  8
0
 10
31.5495
 20
44.7501
 30
0.0000
  0
VERTEX
  8
0
 10
30.4561
 20
45.0518
 30
0.0000
  0
VERTEX
  8
0
 10
29.3095
 20
45.2293
 30
0.0000
  0
VERTEX
  8
0
 10
28.1378
 20
45.2781
 30
0.0000
  0
VERTEX
  8
0
 10
26.9697
 20
45.1970
 30
0.0000
  0
VERTEX
  8
0
 10
25.8338
 20
44.9880
 30
0.0000
  0
VERTEX
  8
0
 10
24.8737
 20
44.6990
 30
0.0000
  0
VERTEX
  8
0
 10
23.9796
 20
44.3185
 30
0.0000
  0
VERTEX
  8
0
 10
23.1688
 20
43.8540
 30
0.0000
  0
VERTEX
  8
0
 10
22.9810
 20
43.7258
 30
0.0000
  0
SEQEND
  0
ENDBLK
  8
0
  0
ENDSEC
  0
SECTION
  2
ENTITIES
  0
INSERT
  8
REX_6
  2
_VIEW_CUT_Jan_16_22-29-02
 10
0.0000
 20
0.0000
 30
0.0000
  0
ENDSEC
  0
EOF
