  0
SECTION
  2
HEADER
  9
$ACADVER
  1
AC1015
  9
$ACADMAINTVER
 70
     6
  9
$DWGCODEPAGE
  3
ANSI_1252
  9
$INSBASE
 10
0.0
 20
0.0
 30
0.0
  9
$EXTMIN
 10
0.0
 20
0.0
 30
0.0
  9
$EXTMAX
 10
420.0
 20
297.0
 30
0.0
  9
$LIMMIN
 10
0.0
 20
0.0
  9
$LIMMAX
 10
420.0
 20
297.0
  9
$ORTHOMODE
 70
     0
  9
$REGENMODE
 70
     1
  9
$FILLMODE
 70
     1
  9
$QTEXTMODE
 70
     0
  9
$MIRRTEXT
 70
     1
  9
$LTSCALE
 40
1.0
  9
$ATTMODE
 70
     1
  9
$TEXTSIZE
 40
3.5
  9
$TRACEWID
 40
1.0
  9
$TEXTSTYLE
  7
Standard
  9
$CLAYER
  8
0
  9
$CELTYPE
  6
ByLayer
  9
$CECOLOR
 62
   256
  9
$CELTSCALE
 40
1.0
  9
$DISPSILH
 70
     0
  9
$DIMSCALE
 40
1.0
  9
$DIMASZ
 40
6.0
  9
$DIMEXO
 40
1.0
  9
$DIMDLI
 40
3.75
  9
$DIMRND
 40
0.0
  9
$DIMDLE
 40
0.0
  9
$DIMEXE
 40
1.0
  9
$DIMTP
 40
0.0
  9
$DIMTM
 40
0.0
  9
$DIMTXT
 40
3.5
  9
$DIMCEN
 40
2.5
  9
$DIMTSZ
 40
0.0
  9
$DIMTOL
 70
     0
  9
$DIMLIM
 70
     0
  9
$DIMTIH
 70
     1
  9
$DIMTOH
 70
     1
  9
$DIMSE1
 70
     0
  9
$DIMSE2
 70
     0
  9
$DIMTAD
 70
     1
  9
$DIMZIN
 70
     0
  9
$DIMBLK
  1

  9
$DIMASO
 70
     1
  9
$DIMSHO
 70
     1
  9
$DIMPOST
  1

  9
$DIMAPOST
  1

  9
$DIMALT
 70
     0
  9
$DIMALTD
 70
     3
  9
$DIMALTF
 40
0.0393700787
  9
$DIMLFAC
 40
1.0
  9
$DIMTOFL
 70
     1
  9
$DIMTVP
 40
0.0
  9
$DIMTIX
 70
     0
  9
$DIMSOXD
 70
     0
  9
$DIMSAH
 70
     0
  9
$DIMBLK1
  1

  9
$DIMBLK2
  1

  9
$DIMSTYLE
  2
ISO-25
  9
$DIMCLRD
 70
     0
  9
$DIMCLRE
 70
     0
  9
$DIMCLRT
 70
     0
  9
$DIMTFAC
 40
1.0
  9
$DIMGAP
 40
1.524
  9
$DIMJUST
 70
     0
  9
$DIMSD1
 70
     0
  9
$DIMSD2
 70
     0
  9
$DIMTOLJ
 70
     0
  9
$DIMTZIN
 70
     0
  9
$DIMALTZ
 70
     0
  9
$DIMALTTZ
 70
     0
  9
$DIMUPT
 70
     0
  9
$DIMDEC
 70
     2
  9
$DIMTDEC
 70
     2
  9
$DIMALTU
 70
     2
  9
$DIMALTTD
 70
     3
  9
$DIMTXSTY
  7
Standard
  9
$DIMAUNIT
 70
     0
  9
$DIMADEC
 70
     0
  9
$DIMALTRND
 40
0.0
  9
$DIMAZIN
 70
     0
  9
$DIMDSEP
 70
    44
  9
$DIMATFIT
 70
     3
  9
$DIMFRAC
 70
     0
  9
$DIMLDRBLK
  1

  9
$DIMLUNIT
 70
     2
  9
$DIMLWD
 70
    -2
  9
$DIMLWE
 70
    -2
  9
$DIMTMOVE
 70
     0
  9
$LUNITS
 70
     2
  9
$LUPREC
 70
     2
  9
$SKETCHINC
 40
1.0
  9
$FILLETRAD
 40
10.0
  9
$AUNITS
 70
     0
  9
$AUPREC
 70
     0
  9
$MENU
  1
.
  9
$ELEVATION
 40
0.0
  9
$PELEVATION
 40
0.0
  9
$THICKNESS
 40
0.0
  9
$LIMCHECK
 70
     0
  9
$CHAMFERA
 40
10.0
  9
$CHAMFERB
 40
10.0
  9
$CHAMFERC
 40
20.0
  9
$CHAMFERD
 40
0.0
  9
$SKPOLY
 70
     0
  9
$TDCREATE
 40
2454480.357149699
  9
$TDUCREATE
 40
2454480.565483032
  9
$TDUPDATE
 40
2454480.357149711
  9
$TDUUPDATE
 40
2454480.565483044
  9
$TDINDWG
 40
0.0000000116
  9
$TDUSRTIMER
 40
0.0000000116
  9
$USRTIMER
 70
     1
  9
$ANGBASE
 50
0.0
  9
$ANGDIR
 70
     0
  9
$PDMODE
 70
     0
  9
$PDSIZE
 40
-1.0
  9
$PLINEWID
 40
0.0
  9
$SPLFRAME
 70
     0
  9
$SPLINETYPE
 70
     6
  9
$SPLINESEGS
 70
     8
  9
$HANDSEED
  5
2F9
  9
$SURFTAB1
 70
     6
  9
$SURFTAB2
 70
     6
  9
$SURFTYPE
 70
     6
  9
$SURFU
 70
     6
  9
$SURFV
 70
     6
  9
$UCSBASE
  2

  9
$UCSNAME
  2

  9
$UCSORG
 10
0.0
 20
0.0
 30
0.0
  9
$UCSXDIR
 10
1.0
 20
0.0
 30
0.0
  9
$UCSYDIR
 10
0.0
 20
1.0
 30
0.0
  9
$UCSORTHOREF
  2

  9
$UCSORTHOVIEW
 70
     0
  9
$UCSORGTOP
 10
0.0
 20
0.0
 30
0.0
  9
$UCSORGBOTTOM
 10
0.0
 20
0.0
 30
0.0
  9
$UCSORGLEFT
 10
0.0
 20
0.0
 30
0.0
  9
$UCSORGRIGHT
 10
0.0
 20
0.0
 30
0.0
  9
$UCSORGFRONT
 10
0.0
 20
0.0
 30
0.0
  9
$UCSORGBACK
 10
0.0
 20
0.0
 30
0.0
  9
$PUCSBASE
  2

  9
$PUCSNAME
  2

  9
$PUCSORG
 10
0.0
 20
0.0
 30
0.0
  9
$PUCSXDIR
 10
1.0
 20
0.0
 30
0.0
  9
$PUCSYDIR
 10
0.0
 20
1.0
 30
0.0
  9
$PUCSORTHOREF
  2

  9
$PUCSORTHOVIEW
 70
     0
  9
$PUCSORGTOP
 10
0.0
 20
0.0
 30
0.0
  9
$PUCSORGBOTTOM
 10
0.0
 20
0.0
 30
0.0
  9
$PUCSORGLEFT
 10
0.0
 20
0.0
 30
0.0
  9
$PUCSORGRIGHT
 10
0.0
 20
0.0
 30
0.0
  9
$PUCSORGFRONT
 10
0.0
 20
0.0
 30
0.0
  9
$PUCSORGBACK
 10
0.0
 20
0.0
 30
0.0
  9
$USERI1
 70
     0
  9
$USERI2
 70
     0
  9
$USERI3
 70
     0
  9
$USERI4
 70
     0
  9
$USERI5
 70
     0
  9
$USERR1
 40
0.0
  9
$USERR2
 40
0.0
  9
$USERR3
 40
0.0
  9
$USERR4
 40
0.0
  9
$USERR5
 40
0.0
  9
$WORLDVIEW
 70
     1
  9
$SHADEDGE
 70
     3
  9
$SHADEDIF
 70
    70
  9
$TILEMODE
 70
     1
  9
$MAXACTVP
 70
    64
  9
$PINSBASE
 10
0.0
 20
0.0
 30
0.0
  9
$PLIMCHECK
 70
     0
  9
$PEXTMIN
 10
1.0000000000E+20
 20
1.0000000000E+20
 30
1.0000000000E+20
  9
$PEXTMAX
 10
-1.0000000000E+20
 20
-1.0000000000E+20
 30
-1.0000000000E+20
  9
$PLIMMIN
 10
0.0
 20
0.0
  9
$PLIMMAX
 10
420.0
 20
297.0
  9
$UNITMODE
 70
     0
  9
$VISRETAIN
 70
     1
  9
$PLINEGEN
 70
     0
  9
$PSLTSCALE
 70
     1
  9
$TREEDEPTH
 70
  3020
  9
$CMLSTYLE
  2
Standard
  9
$CMLJUST
 70
     0
  9
$CMLSCALE
 40
20.0
  9
$PROXYGRAPHICS
 70
     1
  9
$MEASUREMENT
 70
     1
  9
$CELWEIGHT
370
    -1
  9
$ENDCAPS
280
     0
  9
$JOINSTYLE
280
     0
  9
$LWDISPLAY
290
     1
  9
$INSUNITS
 70
     4
  9
$HYPERLINKBASE
  1

  9
$STYLESHEET
  1

  9
$XEDIT
290
     1
  9
$CEPSNTYPE
380
     0
  9
$PSTYLEMODE
290
     1
  9
$FINGERPRINTGUID
  2
{42B5F703-194A-4100-A742-36285445B9D4}
  9
$VERSIONGUID
  2
{FAEB1C32-E019-11D5-929B-00C0DF256EC4}
  9
$EXTNAMES
290
     1
  9
$PSVPSCALE
 40
0.0
  9
$OLESTARTUP
290
     0
  0
ENDSEC
  0
SECTION
  2
CLASSES
  0
CLASS
  1
ACDBDICTIONARYWDFLT
  2
AcDbDictionaryWithDefault
  3
ObjectDBX Classes
 90
        0
280
     0
281
     0
  0
CLASS
  1
VISUALSTYLE
  2
AcDbVisualStyle
  3
ObjectDBX Classes
 90
     4095
280
     0
281
     0
  0
CLASS
  1
SCALE
  2
AcDbScale
  3
ObjectDBX Classes
 90
     1153
280
     0
281
     0
  0
CLASS
  1
DICTIONARYVAR
  2
AcDbDictionaryVar
  3
ObjectDBX Classes
 90
        0
280
     0
281
     0
  0
CLASS
  1
ACDBPLACEHOLDER
  2
AcDbPlaceHolder
  3
ObjectDBX Classes
 90
        0
280
     0
281
     0
  0
CLASS
  1
LAYOUT
  2
AcDbLayout
  3
ObjectDBX Classes
 90
        0
280
     0
281
     0
  0
ENDSEC
  0
SECTION
  2
TABLES
  0
TABLE
  2
VPORT
  5
8
330
0
100
AcDbSymbolTable
 70
     1
  0
VPORT
  5
29
330
8
100
AcDbSymbolTableRecord
100
AcDbViewportTableRecord
  2
*Active
 70
     0
 10
0.0
 20
0.0
 11
1.0
 21
1.0
 12
210.0
 22
148.5
 13
0.0
 23
0.0
 14
10.0
 24
10.0
 15
10.0
 25
10.0
 16
0.0
 26
0.0
 36
1.0
 17
0.0
 27
0.0
 37
0.0
 40
297.0
 41
1.4141414141
 42
50.0
 43
0.0
 44
0.0
 50
0.0
 51
0.0
 71
     0
 72
  2000
 73
     1
 74
     3
 75
     0
 76
     0
 77
     0
 78
     0
281
     0
 65
     1
110
0.0
120
0.0
130
0.0
111
1.0
121
0.0
131
0.0
112
0.0
122
1.0
132
0.0
 79
     0
146
0.0
  0
ENDTAB
  0
TABLE
  2
LTYPE
  5
5
330
0
100
AcDbSymbolTable
 70
     6
  0
LTYPE
  5
14
330
5
100
AcDbSymbolTableRecord
100
AcDbLinetypeTableRecord
  2
ByBlock
 70
     0
  3

 72
    65
 73
     0
 40
0.0
  0
LTYPE
  5
15
330
5
100
AcDbSymbolTableRecord
100
AcDbLinetypeTableRecord
  2
ByLayer
 70
     0
  3

 72
    65
 73
     0
 40
0.0
  0
LTYPE
  5
16
330
5
100
AcDbSymbolTableRecord
100
AcDbLinetypeTableRecord
  2
Continuous
 70
     0
  3
Solid line
 72
    65
 73
     0
 40
0.0
  0
LTYPE
  5
5D
330
5
100
AcDbSymbolTableRecord
100
AcDbLinetypeTableRecord
  2
HIDDEN
 70
     0
  3
Hidden __ __ __ __ __ __ __ __ __ __ __ __ __ __
 72
    65
 73
     2
 40
1.905
 49
1.27
 74
     0
 49
-0.635
 74
     0
  0
LTYPE
  5
5E
330
5
100
AcDbSymbolTableRecord
100
AcDbLinetypeTableRecord
  2
PHANTOM
 70
     0
  3
Phantom ______  __  __  ______  __  __  ______
 72
    65
 73
     6
 40
12.7
 49
6.35
 74
     0
 49
-1.27
 74
     0
 49
1.27
 74
     0
 49
-1.27
 74
     0
 49
1.27
 74
     0
 49
-1.27
 74
     0
  0
LTYPE
  5
5F
330
5
100
AcDbSymbolTableRecord
100
AcDbLinetypeTableRecord
  2
CENTER
 70
     0
  3
Center ____ _ ____ _ ____ _ ____ _ ____ _ ____
 72
    65
 73
     4
 40
10.16
 49
6.35
 74
     0
 49
-1.27
 74
     0
 49
1.27
 74
     0
 49
-1.27
 74
     0
  0
LTYPE
  5
60
330
5
100
AcDbSymbolTableRecord
100
AcDbLinetypeTableRecord
  2
CENTERX2
 70
     0
  3
Center (2x) ________  __  ________  __  _____
 72
    65
 73
     4
 40
20.32
 49
12.7
 74
     0
 49
-2.54
 74
     0
 49
2.54
 74
     0
 49
-2.54
 74
     0
  0
LTYPE
  5
61
330
5
100
AcDbSymbolTableRecord
100
AcDbLinetypeTableRecord
  2
DOT2
 70
     0
  3
Dot (.5x) ........................................
 72
    65
 73
     2
 40
0.635
 49
0.0
 74
     0
 49
-0.635
 74
     0
  0
ENDTAB
  0
TABLE
  2
LAYER
  5
2
330
0
100
AcDbSymbolTable
 70
     1
  0
LAYER
  5
10
330
2
100
AcDbSymbolTableRecord
100
AcDbLayerTableRecord
  2
0
 70
     0
 62
     7
  6
Continuous
370
    -3
390
F
  0
ENDTAB
  0
TABLE
  2
STYLE
  5
3
330
0
100
AcDbSymbolTable
 70
     1
  0
STYLE
  5
11
330
3
100
AcDbSymbolTableRecord
100
AcDbTextStyleTableRecord
  2
Standard
 70
     0
 40
0.0
 41
1.0
 50
0.0
 71
     0
 42
2.5
  3
txt
  4

  0
ENDTAB
  0
TABLE
  2
VIEW
  5
6
330
0
100
AcDbSymbolTable
 70
     0
  0
ENDTAB
  0
TABLE
  2
UCS
  5
7
330
0
100
AcDbSymbolTable
 70
     0
  0
ENDTAB
  0
TABLE
  2
APPID
  5
9
330
0
100
AcDbSymbolTable
 70
     1
  0
APPID
  5
12
330
9
100
AcDbSymbolTableRecord
100
AcDbRegAppTableRecord
  2
ACAD
 70
     0
  0
ENDTAB
  0
TABLE
  2
DIMSTYLE
  5
A
330
0
100
AcDbSymbolTable
 70
     1
100
AcDbDimStyleTable
  0
DIMSTYLE
105
27
330
A
100
AcDbSymbolTableRecord
100
AcDbDimStyleTableRecord
  2
ISO-25
 70
     0
 41
2.5
 42
0.625
 43
3.75
 44
1.25
 73
     0
 74
     0
 77
     1
 78
     8
140
2.5
141
2.5
143
0.0393700787
147
0.625
171
     3
172
     1
271
     2
272
     2
274
     3
278
    44
283
     0
284
     8
340
11
  0
ENDTAB
  0
TABLE
  2
BLOCK_RECORD
  5
1
330
0
100
AcDbSymbolTable
 70
    16
  0
BLOCK_RECORD
  5
1F
330
1
100
AcDbSymbolTableRecord
100
AcDbBlockTableRecord
  2
*Model_Space
340
22
  0
BLOCK_RECORD
  5
1B
330
1
100
AcDbSymbolTableRecord
100
AcDbBlockTableRecord
  2
*Paper_Space
340
1E
  0
BLOCK_RECORD
  5
23
330
1
100
AcDbSymbolTableRecord
100
AcDbBlockTableRecord
  2
*Paper_Space0
340
26
  0
BLOCK_RECORD
  5
A9
330
1
100
AcDbSymbolTableRecord
100
AcDbBlockTableRecord
  2
SW_CENTERMARKSYMBOL_0
340
0
102
{BLKREFS
331
B4
102
}
  0
BLOCK_RECORD
  5
B5
330
1
100
AcDbSymbolTableRecord
100
AcDbBlockTableRecord
  2
SW_CENTERMARKSYMBOL_1
340
0
102
{BLKREFS
331
C0
102
}
  0
BLOCK_RECORD
  5
C1
330
1
100
AcDbSymbolTableRecord
100
AcDbBlockTableRecord
  2
SW_CENTERMARKSYMBOL_2
340
0
102
{BLKREFS
331
CC
102
}
  0
BLOCK_RECORD
  5
119
330
1
100
AcDbSymbolTableRecord
100
AcDbBlockTableRecord
  2
SW_CENTERMARKSYMBOL_3
340
0
102
{BLKREFS
331
124
102
}
  0
BLOCK_RECORD
  5
125
330
1
100
AcDbSymbolTableRecord
100
AcDbBlockTableRecord
  2
SW_CENTERMARKSYMBOL_4
340
0
102
{BLKREFS
331
130
102
}
  0
BLOCK_RECORD
  5
1AE
330
1
100
AcDbSymbolTableRecord
100
AcDbBlockTableRecord
  2
SW_CENTERMARKSYMBOL_5
340
0
102
{BLKREFS
331
1B9
102
}
  0
BLOCK_RECORD
  5
1BA
330
1
100
AcDbSymbolTableRecord
100
AcDbBlockTableRecord
  2
SW_CENTERMARKSYMBOL_6
340
0
102
{BLKREFS
331
1C5
102
}
  0
BLOCK_RECORD
  5
1C6
330
1
100
AcDbSymbolTableRecord
100
AcDbBlockTableRecord
  2
SW_CENTERMARKSYMBOL_7
340
0
102
{BLKREFS
331
1D1
102
}
  0
BLOCK_RECORD
  5
1D2
330
1
100
AcDbSymbolTableRecord
100
AcDbBlockTableRecord
  2
SW_CENTERMARKSYMBOL_8
340
0
102
{BLKREFS
331
1DD
102
}
  0
BLOCK_RECORD
  5
1DE
330
1
100
AcDbSymbolTableRecord
100
AcDbBlockTableRecord
  2
SW_CENTERMARKSYMBOL_9
340
0
102
{BLKREFS
331
1E9
102
}
  0
BLOCK_RECORD
  5
1EA
330
1
100
AcDbSymbolTableRecord
100
AcDbBlockTableRecord
  2
SW_CENTERMARKSYMBOL_10
340
0
102
{BLKREFS
331
1F5
102
}
  0
BLOCK_RECORD
  5
1F6
330
1
100
AcDbSymbolTableRecord
100
AcDbBlockTableRecord
  2
SW_CENTERMARKSYMBOL_11
340
0
102
{BLKREFS
331
201
102
}
  0
BLOCK_RECORD
  5
202
330
1
100
AcDbSymbolTableRecord
100
AcDbBlockTableRecord
  2
SW_CENTERMARKSYMBOL_12
340
0
102
{BLKREFS
331
20D
102
}
  0
BLOCK_RECORD
  5
20E
330
1
100
AcDbSymbolTableRecord
100
AcDbBlockTableRecord
  2
SW_CENTERMARKSYMBOL_13
340
0
102
{BLKREFS
331
219
102
}
  0
BLOCK_RECORD
  5
21A
330
1
100
AcDbSymbolTableRecord
100
AcDbBlockTableRecord
  2
SW_CENTERMARKSYMBOL_14
340
0
102
{BLKREFS
331
225
102
}
  0
ENDTAB
  0
ENDSEC
  0
SECTION
  2
BLOCKS
  0
BLOCK
  5
20
330
1F
100
AcDbEntity
  8
0
100
AcDbBlockBegin
  2
*Model_Space
 70
     0
 10
0.0
 20
0.0
 30
0.0
  3
*Model_Space
  1

  0
ENDBLK
  5
21
330
1F
100
AcDbEntity
  8
0
100
AcDbBlockEnd
  0
BLOCK
  5
1C
330
1B
100
AcDbEntity
 67
     1
  8
0
100
AcDbBlockBegin
  2
*Paper_Space
 70
     0
 10
0.0
 20
0.0
 30
0.0
  3
*Paper_Space
  1

  0
ENDBLK
  5
1D
330
1B
100
AcDbEntity
 67
     1
  8
0
100
AcDbBlockEnd
  0
BLOCK
  5
24
330
23
100
AcDbEntity
  8
0
100
AcDbBlockBegin
  2
*Paper_Space0
 70
     0
 10
0.0
 20
0.0
 30
0.0
  3
*Paper_Space0
  1

  0
ENDBLK
  5
25
330
23
100
AcDbEntity
  8
0
100
AcDbBlockEnd
  0
BLOCK
  5
AA
330
A9
100
AcDbEntity
  8
0
100
AcDbBlockBegin
  2
SW_CENTERMARKSYMBOL_0
 70
     0
 10
0.0
 20
0.0
 30
0.0
  3
SW_CENTERMARKSYMBOL_0
  1

  0
LINE
  5
AC
330
A9
100
AcDbEntity
  8
0
  6
Continuous
 62
     0
370
     0
100
AcDbLine
 10
0.0
 20
0.0
 30
0.0
 11
0.0
 21
2.5
 31
0.0
  0
LINE
  5
AD
330
A9
100
AcDbEntity
  8
0
  6
Continuous
 62
     0
370
     0
100
AcDbLine
 10
0.0
 20
0.0
 30
0.0
 11
-2.5
 21
0.0
 31
0.0
  0
LINE
  5
AE
330
A9
100
AcDbEntity
  8
0
  6
Continuous
 62
     0
370
     0
100
AcDbLine
 10
0.0
 20
0.0
 30
0.0
 11
0.0
 21
-2.5
 31
0.0
  0
LINE
  5
AF
330
A9
100
AcDbEntity
  8
0
  6
Continuous
 62
     0
370
     0
100
AcDbLine
 10
0.0
 20
0.0
 30
0.0
 11
2.5
 21
0.0
 31
0.0
  0
LINE
  5
B0
330
A9
100
AcDbEntity
  8
0
  6
Continuous
 62
     0
370
     0
100
AcDbLine
 10
0.0
 20
2.5
 30
0.0
 11
0.0
 21
3.75
 31
0.0
  0
LINE
  5
B1
330
A9
100
AcDbEntity
  8
0
  6
Continuous
 62
     0
370
     0
100
AcDbLine
 10
-2.5
 20
0.0
 30
0.0
 11
-3.75
 21
0.0
 31
0.0
  0
LINE
  5
B2
330
A9
100
AcDbEntity
  8
0
  6
Continuous
 62
     0
370
     0
100
AcDbLine
 10
0.0
 20
-2.5
 30
0.0
 11
0.0
 21
-3.75
 31
0.0
  0
LINE
  5
B3
330
A9
100
AcDbEntity
  8
0
  6
Continuous
 62
     0
370
     0
100
AcDbLine
 10
2.5
 20
0.0
 30
0.0
 11
3.75
 21
0.0
 31
0.0
  0
ENDBLK
  5
AB
330
A9
100
AcDbEntity
  8
0
100
AcDbBlockEnd
  0
BLOCK
  5
B6
330
B5
100
AcDbEntity
  8
0
100
AcDbBlockBegin
  2
SW_CENTERMARKSYMBOL_1
 70
     0
 10
0.0
 20
0.0
 30
0.0
  3
SW_CENTERMARKSYMBOL_1
  1

  0
LINE
  5
B8
330
B5
100
AcDbEntity
  8
0
  6
Continuous
 62
     0
370
     0
100
AcDbLine
 10
0.0
 20
0.0
 30
0.0
 11
0.0
 21
2.5
 31
0.0
  0
LINE
  5
B9
330
B5
100
AcDbEntity
  8
0
  6
Continuous
 62
     0
370
     0
100
AcDbLine
 10
0.0
 20
0.0
 30
0.0
 11
-2.5
 21
0.0
 31
0.0
  0
LINE
  5
BA
330
B5
100
AcDbEntity
  8
0
  6
Continuous
 62
     0
370
     0
100
AcDbLine
 10
0.0
 20
0.0
 30
0.0
 11
0.0
 21
-2.5
 31
0.0
  0
LINE
  5
BB
330
B5
100
AcDbEntity
  8
0
  6
Continuous
 62
     0
370
     0
100
AcDbLine
 10
0.0
 20
0.0
 30
0.0
 11
2.5
 21
0.0
 31
0.0
  0
LINE
  5
BC
330
B5
100
AcDbEntity
  8
0
  6
Continuous
 62
     0
370
     0
100
AcDbLine
 10
0.0
 20
2.5
 30
0.0
 11
0.0
 21
3.75
 31
0.0
  0
LINE
  5
BD
330
B5
100
AcDbEntity
  8
0
  6
Continuous
 62
     0
370
     0
100
AcDbLine
 10
-2.5
 20
0.0
 30
0.0
 11
-3.75
 21
0.0
 31
0.0
  0
LINE
  5
BE
330
B5
100
AcDbEntity
  8
0
  6
Continuous
 62
     0
370
     0
100
AcDbLine
 10
0.0
 20
-2.5
 30
0.0
 11
0.0
 21
-3.75
 31
0.0
  0
LINE
  5
BF
330
B5
100
AcDbEntity
  8
0
  6
Continuous
 62
     0
370
     0
100
AcDbLine
 10
2.5
 20
0.0
 30
0.0
 11
3.75
 21
0.0
 31
0.0
  0
ENDBLK
  5
B7
330
B5
100
AcDbEntity
  8
0
100
AcDbBlockEnd
  0
BLOCK
  5
C2
330
C1
100
AcDbEntity
  8
0
100
AcDbBlockBegin
  2
SW_CENTERMARKSYMBOL_2
 70
     0
 10
0.0
 20
0.0
 30
0.0
  3
SW_CENTERMARKSYMBOL_2
  1

  0
LINE
  5
C4
330
C1
100
AcDbEntity
  8
0
  6
Continuous
 62
     0
370
     0
100
AcDbLine
 10
0.0
 20
0.0
 30
0.0
 11
0.0
 21
2.5
 31
0.0
  0
LINE
  5
C5
330
C1
100
AcDbEntity
  8
0
  6
Continuous
 62
     0
370
     0
100
AcDbLine
 10
0.0
 20
0.0
 30
0.0
 11
-2.5
 21
0.0
 31
0.0
  0
LINE
  5
C6
330
C1
100
AcDbEntity
  8
0
  6
Continuous
 62
     0
370
     0
100
AcDbLine
 10
0.0
 20
0.0
 30
0.0
 11
0.0
 21
-2.5
 31
0.0
  0
LINE
  5
C7
330
C1
100
AcDbEntity
  8
0
  6
Continuous
 62
     0
370
     0
100
AcDbLine
 10
0.0
 20
0.0
 30
0.0
 11
2.5
 21
0.0
 31
0.0
  0
LINE
  5
C8
330
C1
100
AcDbEntity
  8
0
  6
Continuous
 62
     0
370
     0
100
AcDbLine
 10
0.0
 20
2.5
 30
0.0
 11
0.0
 21
5.0
 31
0.0
  0
LINE
  5
C9
330
C1
100
AcDbEntity
  8
0
  6
Continuous
 62
     0
370
     0
100
AcDbLine
 10
-2.5
 20
0.0
 30
0.0
 11
-5.0
 21
0.0
 31
0.0
  0
LINE
  5
CA
330
C1
100
AcDbEntity
  8
0
  6
Continuous
 62
     0
370
     0
100
AcDbLine
 10
0.0
 20
-2.5
 30
0.0
 11
0.0
 21
-5.0
 31
0.0
  0
LINE
  5
CB
330
C1
100
AcDbEntity
  8
0
  6
Continuous
 62
     0
370
     0
100
AcDbLine
 10
2.5
 20
0.0
 30
0.0
 11
5.0
 21
0.0
 31
0.0
  0
ENDBLK
  5
C3
330
C1
100
AcDbEntity
  8
0
100
AcDbBlockEnd
  0
BLOCK
  5
11A
330
119
100
AcDbEntity
  8
0
100
AcDbBlockBegin
  2
SW_CENTERMARKSYMBOL_3
 70
     0
 10
0.0
 20
0.0
 30
0.0
  3
SW_CENTERMARKSYMBOL_3
  1

  0
LINE
  5
11C
330
119
100
AcDbEntity
  8
0
  6
Continuous
 62
     0
370
     0
100
AcDbLine
 10
0.0
 20
0.0
 30
0.0
 11
0.0
 21
2.5
 31
0.0
  0
LINE
  5
11D
330
119
100
AcDbEntity
  8
0
  6
Continuous
 62
     0
370
     0
100
AcDbLine
 10
0.0
 20
0.0
 30
0.0
 11
-2.5
 21
0.0
 31
0.0
  0
LINE
  5
11E
330
119
100
AcDbEntity
  8
0
  6
Continuous
 62
     0
370
     0
100
AcDbLine
 10
0.0
 20
0.0
 30
0.0
 11
0.0
 21
-2.5
 31
0.0
  0
LINE
  5
11F
330
119
100
AcDbEntity
  8
0
  6
Continuous
 62
     0
370
     0
100
AcDbLine
 10
0.0
 20
0.0
 30
0.0
 11
2.5
 21
0.0
 31
0.0
  0
LINE
  5
120
330
119
100
AcDbEntity
  8
0
  6
Continuous
 62
     0
370
     0
100
AcDbLine
 10
0.0
 20
2.5
 30
0.0
 11
0.0
 21
5.0
 31
0.0
  0
LINE
  5
121
330
119
100
AcDbEntity
  8
0
  6
Continuous
 62
     0
370
     0
100
AcDbLine
 10
-2.5
 20
0.0
 30
0.0
 11
-5.0
 21
0.0
 31
0.0
  0
LINE
  5
122
330
119
100
AcDbEntity
  8
0
  6
Continuous
 62
     0
370
     0
100
AcDbLine
 10
0.0
 20
-2.5
 30
0.0
 11
0.0
 21
-5.0
 31
0.0
  0
LINE
  5
123
330
119
100
AcDbEntity
  8
0
  6
Continuous
 62
     0
370
     0
100
AcDbLine
 10
2.5
 20
0.0
 30
0.0
 11
5.0
 21
0.0
 31
0.0
  0
ENDBLK
  5
11B
330
119
100
AcDbEntity
  8
0
100
AcDbBlockEnd
  0
BLOCK
  5
126
330
125
100
AcDbEntity
  8
0
100
AcDbBlockBegin
  2
SW_CENTERMARKSYMBOL_4
 70
     0
 10
0.0
 20
0.0
 30
0.0
  3
SW_CENTERMARKSYMBOL_4
  1

  0
LINE
  5
128
330
125
100
AcDbEntity
  8
0
  6
Continuous
 62
     0
370
     0
100
AcDbLine
 10
0.0
 20
0.0
 30
0.0
 11
0.0
 21
2.5
 31
0.0
  0
LINE
  5
129
330
125
100
AcDbEntity
  8
0
  6
Continuous
 62
     0
370
     0
100
AcDbLine
 10
0.0
 20
0.0
 30
0.0
 11
-2.5
 21
0.0
 31
0.0
  0
LINE
  5
12A
330
125
100
AcDbEntity
  8
0
  6
Continuous
 62
     0
370
     0
100
AcDbLine
 10
0.0
 20
0.0
 30
0.0
 11
0.0
 21
-2.5
 31
0.0
  0
LINE
  5
12B
330
125
100
AcDbEntity
  8
0
  6
Continuous
 62
     0
370
     0
100
AcDbLine
 10
0.0
 20
0.0
 30
0.0
 11
2.5
 21
0.0
 31
0.0
  0
LINE
  5
12C
330
125
100
AcDbEntity
  8
0
  6
Continuous
 62
     0
370
     0
100
AcDbLine
 10
0.0
 20
2.5
 30
0.0
 11
0.0
 21
5.0
 31
0.0
  0
LINE
  5
12D
330
125
100
AcDbEntity
  8
0
  6
Continuous
 62
     0
370
     0
100
AcDbLine
 10
-2.5
 20
0.0
 30
0.0
 11
-5.0
 21
0.0
 31
0.0
  0
LINE
  5
12E
330
125
100
AcDbEntity
  8
0
  6
Continuous
 62
     0
370
     0
100
AcDbLine
 10
0.0
 20
-2.5
 30
0.0
 11
0.0
 21
-5.0
 31
0.0
  0
LINE
  5
12F
330
125
100
AcDbEntity
  8
0
  6
Continuous
 62
     0
370
     0
100
AcDbLine
 10
2.5
 20
0.0
 30
0.0
 11
5.0
 21
0.0
 31
0.0
  0
ENDBLK
  5
127
330
125
100
AcDbEntity
  8
0
100
AcDbBlockEnd
  0
BLOCK
  5
1AF
330
1AE
100
AcDbEntity
  8
0
100
AcDbBlockBegin
  2
SW_CENTERMARKSYMBOL_5
 70
     0
 10
0.0
 20
0.0
 30
0.0
  3
SW_CENTERMARKSYMBOL_5
  1

  0
LINE
  5
1B1
330
1AE
100
AcDbEntity
  8
0
  6
Continuous
 62
     0
370
     0
100
AcDbLine
 10
0.0
 20
0.0
 30
0.0
 11
0.0
 21
2.5
 31
0.0
  0
LINE
  5
1B2
330
1AE
100
AcDbEntity
  8
0
  6
Continuous
 62
     0
370
     0
100
AcDbLine
 10
0.0
 20
0.0
 30
0.0
 11
-2.5
 21
0.0
 31
0.0
  0
LINE
  5
1B3
330
1AE
100
AcDbEntity
  8
0
  6
Continuous
 62
     0
370
     0
100
AcDbLine
 10
0.0
 20
0.0
 30
0.0
 11
0.0
 21
-2.5
 31
0.0
  0
LINE
  5
1B4
330
1AE
100
AcDbEntity
  8
0
  6
Continuous
 62
     0
370
     0
100
AcDbLine
 10
0.0
 20
0.0
 30
0.0
 11
2.5
 21
0.0
 31
0.0
  0
LINE
  5
1B5
330
1AE
100
AcDbEntity
  8
0
  6
Continuous
 62
     0
370
     0
100
AcDbLine
 10
0.0
 20
5.0
 30
0.0
 11
0.0
 21
6.75
 31
0.0
  0
LINE
  5
1B6
330
1AE
100
AcDbEntity
  8
0
  6
Continuous
 62
     0
370
     0
100
AcDbLine
 10
-5.0
 20
0.0
 30
0.0
 11
-6.75
 21
0.0
 31
0.0
  0
LINE
  5
1B7
330
1AE
100
AcDbEntity
  8
0
  6
Continuous
 62
     0
370
     0
100
AcDbLine
 10
0.0
 20
-5.0
 30
0.0
 11
0.0
 21
-6.75
 31
0.0
  0
LINE
  5
1B8
330
1AE
100
AcDbEntity
  8
0
  6
Continuous
 62
     0
370
     0
100
AcDbLine
 10
5.0
 20
0.0
 30
0.0
 11
6.75
 21
0.0
 31
0.0
  0
ENDBLK
  5
1B0
330
1AE
100
AcDbEntity
  8
0
100
AcDbBlockEnd
  0
BLOCK
  5
1BB
330
1BA
100
AcDbEntity
  8
0
100
AcDbBlockBegin
  2
SW_CENTERMARKSYMBOL_6
 70
     0
 10
0.0
 20
0.0
 30
0.0
  3
SW_CENTERMARKSYMBOL_6
  1

  0
LINE
  5
1BD
330
1BA
100
AcDbEntity
  8
0
  6
Continuous
 62
     0
370
     0
100
AcDbLine
 10
0.0
 20
0.0
 30
0.0
 11
0.0
 21
2.5
 31
0.0
  0
LINE
  5
1BE
330
1BA
100
AcDbEntity
  8
0
  6
Continuous
 62
     0
370
     0
100
AcDbLine
 10
0.0
 20
0.0
 30
0.0
 11
-2.5
 21
0.0
 31
0.0
  0
LINE
  5
1BF
330
1BA
100
AcDbEntity
  8
0
  6
Continuous
 62
     0
370
     0
100
AcDbLine
 10
0.0
 20
0.0
 30
0.0
 11
0.0
 21
-2.5
 31
0.0
  0
LINE
  5
1C0
330
1BA
100
AcDbEntity
  8
0
  6
Continuous
 62
     0
370
     0
100
AcDbLine
 10
0.0
 20
0.0
 30
0.0
 11
2.5
 21
0.0
 31
0.0
  0
LINE
  5
1C1
330
1BA
100
AcDbEntity
  8
0
  6
Continuous
 62
     0
370
     0
100
AcDbLine
 10
0.0
 20
5.0
 30
0.0
 11
0.0
 21
6.75
 31
0.0
  0
LINE
  5
1C2
330
1BA
100
AcDbEntity
  8
0
  6
Continuous
 62
     0
370
     0
100
AcDbLine
 10
-5.0
 20
0.0
 30
0.0
 11
-6.75
 21
0.0
 31
0.0
  0
LINE
  5
1C3
330
1BA
100
AcDbEntity
  8
0
  6
Continuous
 62
     0
370
     0
100
AcDbLine
 10
0.0
 20
-5.0
 30
0.0
 11
0.0
 21
-6.75
 31
0.0
  0
LINE
  5
1C4
330
1BA
100
AcDbEntity
  8
0
  6
Continuous
 62
     0
370
     0
100
AcDbLine
 10
5.0
 20
0.0
 30
0.0
 11
6.75
 21
0.0
 31
0.0
  0
ENDBLK
  5
1BC
330
1BA
100
AcDbEntity
  8
0
100
AcDbBlockEnd
  0
BLOCK
  5
1C7
330
1C6
100
AcDbEntity
  8
0
100
AcDbBlockBegin
  2
SW_CENTERMARKSYMBOL_7
 70
     0
 10
0.0
 20
0.0
 30
0.0
  3
SW_CENTERMARKSYMBOL_7
  1

  0
LINE
  5
1C9
330
1C6
100
AcDbEntity
  8
0
  6
Continuous
 62
     0
370
     0
100
AcDbLine
 10
0.0
 20
0.0
 30
0.0
 11
0.0
 21
2.5
 31
0.0
  0
LINE
  5
1CA
330
1C6
100
AcDbEntity
  8
0
  6
Continuous
 62
     0
370
     0
100
AcDbLine
 10
0.0
 20
0.0
 30
0.0
 11
-2.5
 21
0.0
 31
0.0
  0
LINE
  5
1CB
330
1C6
100
AcDbEntity
  8
0
  6
Continuous
 62
     0
370
     0
100
AcDbLine
 10
0.0
 20
0.0
 30
0.0
 11
0.0
 21
-2.5
 31
0.0
  0
LINE
  5
1CC
330
1C6
100
AcDbEntity
  8
0
  6
Continuous
 62
     0
370
     0
100
AcDbLine
 10
0.0
 20
0.0
 30
0.0
 11
2.5
 21
0.0
 31
0.0
  0
LINE
  5
1CD
330
1C6
100
AcDbEntity
  8
0
  6
Continuous
 62
     0
370
     0
100
AcDbLine
 10
0.0
 20
5.0
 30
0.0
 11
0.0
 21
6.75
 31
0.0
  0
LINE
  5
1CE
330
1C6
100
AcDbEntity
  8
0
  6
Continuous
 62
     0
370
     0
100
AcDbLine
 10
-5.0
 20
0.0
 30
0.0
 11
-6.75
 21
0.0
 31
0.0
  0
LINE
  5
1CF
330
1C6
100
AcDbEntity
  8
0
  6
Continuous
 62
     0
370
     0
100
AcDbLine
 10
0.0
 20
-5.0
 30
0.0
 11
0.0
 21
-6.75
 31
0.0
  0
LINE
  5
1D0
330
1C6
100
AcDbEntity
  8
0
  6
Continuous
 62
     0
370
     0
100
AcDbLine
 10
5.0
 20
0.0
 30
0.0
 11
6.75
 21
0.0
 31
0.0
  0
ENDBLK
  5
1C8
330
1C6
100
AcDbEntity
  8
0
100
AcDbBlockEnd
  0
BLOCK
  5
1D3
330
1D2
100
AcDbEntity
  8
0
100
AcDbBlockBegin
  2
SW_CENTERMARKSYMBOL_8
 70
     0
 10
0.0
 20
0.0
 30
0.0
  3
SW_CENTERMARKSYMBOL_8
  1

  0
LINE
  5
1D5
330
1D2
100
AcDbEntity
  8
0
  6
Continuous
 62
     0
370
     0
100
AcDbLine
 10
0.0
 20
0.0
 30
0.0
 11
0.0
 21
2.5
 31
0.0
  0
LINE
  5
1D6
330
1D2
100
AcDbEntity
  8
0
  6
Continuous
 62
     0
370
     0
100
AcDbLine
 10
0.0
 20
0.0
 30
0.0
 11
-2.5
 21
0.0
 31
0.0
  0
LINE
  5
1D7
330
1D2
100
AcDbEntity
  8
0
  6
Continuous
 62
     0
370
     0
100
AcDbLine
 10
0.0
 20
0.0
 30
0.0
 11
0.0
 21
-2.5
 31
0.0
  0
LINE
  5
1D8
330
1D2
100
AcDbEntity
  8
0
  6
Continuous
 62
     0
370
     0
100
AcDbLine
 10
0.0
 20
0.0
 30
0.0
 11
2.5
 21
0.0
 31
0.0
  0
LINE
  5
1D9
330
1D2
100
AcDbEntity
  8
0
  6
Continuous
 62
     0
370
     0
100
AcDbLine
 10
0.0
 20
5.0
 30
0.0
 11
0.0
 21
6.75
 31
0.0
  0
LINE
  5
1DA
330
1D2
100
AcDbEntity
  8
0
  6
Continuous
 62
     0
370
     0
100
AcDbLine
 10
-5.0
 20
0.0
 30
0.0
 11
-6.75
 21
0.0
 31
0.0
  0
LINE
  5
1DB
330
1D2
100
AcDbEntity
  8
0
  6
Continuous
 62
     0
370
     0
100
AcDbLine
 10
0.0
 20
-5.0
 30
0.0
 11
0.0
 21
-6.75
 31
0.0
  0
LINE
  5
1DC
330
1D2
100
AcDbEntity
  8
0
  6
Continuous
 62
     0
370
     0
100
AcDbLine
 10
5.0
 20
0.0
 30
0.0
 11
6.75
 21
0.0
 31
0.0
  0
ENDBLK
  5
1D4
330
1D2
100
AcDbEntity
  8
0
100
AcDbBlockEnd
  0
BLOCK
  5
1DF
330
1DE
100
AcDbEntity
  8
0
100
AcDbBlockBegin
  2
SW_CENTERMARKSYMBOL_9
 70
     0
 10
0.0
 20
0.0
 30
0.0
  3
SW_CENTERMARKSYMBOL_9
  1

  0
LINE
  5
1E1
330
1DE
100
AcDbEntity
  8
0
  6
Continuous
 62
     0
370
     0
100
AcDbLine
 10
0.0
 20
0.0
 30
0.0
 11
0.0
 21
2.5
 31
0.0
  0
LINE
  5
1E2
330
1DE
100
AcDbEntity
  8
0
  6
Continuous
 62
     0
370
     0
100
AcDbLine
 10
0.0
 20
0.0
 30
0.0
 11
-2.5
 21
0.0
 31
0.0
  0
LINE
  5
1E3
330
1DE
100
AcDbEntity
  8
0
  6
Continuous
 62
     0
370
     0
100
AcDbLine
 10
0.0
 20
0.0
 30
0.0
 11
0.0
 21
-2.5
 31
0.0
  0
LINE
  5
1E4
330
1DE
100
AcDbEntity
  8
0
  6
Continuous
 62
     0
370
     0
100
AcDbLine
 10
0.0
 20
0.0
 30
0.0
 11
2.5
 21
0.0
 31
0.0
  0
LINE
  5
1E5
330
1DE
100
AcDbEntity
  8
0
  6
Continuous
 62
     0
370
     0
100
AcDbLine
 10
0.0
 20
5.0
 30
0.0
 11
0.0
 21
6.75
 31
0.0
  0
LINE
  5
1E6
330
1DE
100
AcDbEntity
  8
0
  6
Continuous
 62
     0
370
     0
100
AcDbLine
 10
-5.0
 20
0.0
 30
0.0
 11
-6.75
 21
0.0
 31
0.0
  0
LINE
  5
1E7
330
1DE
100
AcDbEntity
  8
0
  6
Continuous
 62
     0
370
     0
100
AcDbLine
 10
0.0
 20
-5.0
 30
0.0
 11
0.0
 21
-6.75
 31
0.0
  0
LINE
  5
1E8
330
1DE
100
AcDbEntity
  8
0
  6
Continuous
 62
     0
370
     0
100
AcDbLine
 10
5.0
 20
0.0
 30
0.0
 11
6.75
 21
0.0
 31
0.0
  0
ENDBLK
  5
1E0
330
1DE
100
AcDbEntity
  8
0
100
AcDbBlockEnd
  0
BLOCK
  5
1EB
330
1EA
100
AcDbEntity
  8
0
100
AcDbBlockBegin
  2
SW_CENTERMARKSYMBOL_10
 70
     0
 10
0.0
 20
0.0
 30
0.0
  3
SW_CENTERMARKSYMBOL_10
  1

  0
LINE
  5
1ED
330
1EA
100
AcDbEntity
  8
0
  6
Continuous
 62
     0
370
     0
100
AcDbLine
 10
0.0
 20
0.0
 30
0.0
 11
0.0
 21
2.5
 31
0.0
  0
LINE
  5
1EE
330
1EA
100
AcDbEntity
  8
0
  6
Continuous
 62
     0
370
     0
100
AcDbLine
 10
0.0
 20
0.0
 30
0.0
 11
-2.5
 21
0.0
 31
0.0
  0
LINE
  5
1EF
330
1EA
100
AcDbEntity
  8
0
  6
Continuous
 62
     0
370
     0
100
AcDbLine
 10
0.0
 20
0.0
 30
0.0
 11
0.0
 21
-2.5
 31
0.0
  0
LINE
  5
1F0
330
1EA
100
AcDbEntity
  8
0
  6
Continuous
 62
     0
370
     0
100
AcDbLine
 10
0.0
 20
0.0
 30
0.0
 11
2.5
 21
0.0
 31
0.0
  0
LINE
  5
1F1
330
1EA
100
AcDbEntity
  8
0
  6
Continuous
 62
     0
370
     0
100
AcDbLine
 10
0.0
 20
5.0
 30
0.0
 11
0.0
 21
6.75
 31
0.0
  0
LINE
  5
1F2
330
1EA
100
AcDbEntity
  8
0
  6
Continuous
 62
     0
370
     0
100
AcDbLine
 10
-5.0
 20
0.0
 30
0.0
 11
-6.75
 21
0.0
 31
0.0
  0
LINE
  5
1F3
330
1EA
100
AcDbEntity
  8
0
  6
Continuous
 62
     0
370
     0
100
AcDbLine
 10
0.0
 20
-5.0
 30
0.0
 11
0.0
 21
-6.75
 31
0.0
  0
LINE
  5
1F4
330
1EA
100
AcDbEntity
  8
0
  6
Continuous
 62
     0
370
     0
100
AcDbLine
 10
5.0
 20
0.0
 30
0.0
 11
6.75
 21
0.0
 31
0.0
  0
ENDBLK
  5
1EC
330
1EA
100
AcDbEntity
  8
0
100
AcDbBlockEnd
  0
BLOCK
  5
1F7
330
1F6
100
AcDbEntity
  8
0
100
AcDbBlockBegin
  2
SW_CENTERMARKSYMBOL_11
 70
     0
 10
0.0
 20
0.0
 30
0.0
  3
SW_CENTERMARKSYMBOL_11
  1

  0
LINE
  5
1F9
330
1F6
100
AcDbEntity
  8
0
  6
Continuous
 62
     0
370
     0
100
AcDbLine
 10
0.0
 20
0.0
 30
0.0
 11
0.0
 21
2.5
 31
0.0
  0
LINE
  5
1FA
330
1F6
100
AcDbEntity
  8
0
  6
Continuous
 62
     0
370
     0
100
AcDbLine
 10
0.0
 20
0.0
 30
0.0
 11
-2.5
 21
0.0
 31
0.0
  0
LINE
  5
1FB
330
1F6
100
AcDbEntity
  8
0
  6
Continuous
 62
     0
370
     0
100
AcDbLine
 10
0.0
 20
0.0
 30
0.0
 11
0.0
 21
-2.5
 31
0.0
  0
LINE
  5
1FC
330
1F6
100
AcDbEntity
  8
0
  6
Continuous
 62
     0
370
     0
100
AcDbLine
 10
0.0
 20
0.0
 30
0.0
 11
2.5
 21
0.0
 31
0.0
  0
LINE
  5
1FD
330
1F6
100
AcDbEntity
  8
0
  6
Continuous
 62
     0
370
     0
100
AcDbLine
 10
0.0
 20
2.5
 30
0.0
 11
0.0
 21
5.0
 31
0.0
  0
LINE
  5
1FE
330
1F6
100
AcDbEntity
  8
0
  6
Continuous
 62
     0
370
     0
100
AcDbLine
 10
-2.5
 20
0.0
 30
0.0
 11
-5.0
 21
0.0
 31
0.0
  0
LINE
  5
1FF
330
1F6
100
AcDbEntity
  8
0
  6
Continuous
 62
     0
370
     0
100
AcDbLine
 10
0.0
 20
-2.5
 30
0.0
 11
0.0
 21
-5.0
 31
0.0
  0
LINE
  5
200
330
1F6
100
AcDbEntity
  8
0
  6
Continuous
 62
     0
370
     0
100
AcDbLine
 10
2.5
 20
0.0
 30
0.0
 11
5.0
 21
0.0
 31
0.0
  0
ENDBLK
  5
1F8
330
1F6
100
AcDbEntity
  8
0
100
AcDbBlockEnd
  0
BLOCK
  5
203
330
202
100
AcDbEntity
  8
0
100
AcDbBlockBegin
  2
SW_CENTERMARKSYMBOL_12
 70
     0
 10
0.0
 20
0.0
 30
0.0
  3
SW_CENTERMARKSYMBOL_12
  1

  0
LINE
  5
205
330
202
100
AcDbEntity
  8
0
  6
Continuous
 62
     0
370
     0
100
AcDbLine
 10
0.0
 20
0.0
 30
0.0
 11
0.0
 21
2.5
 31
0.0
  0
LINE
  5
206
330
202
100
AcDbEntity
  8
0
  6
Continuous
 62
     0
370
     0
100
AcDbLine
 10
0.0
 20
0.0
 30
0.0
 11
-2.5
 21
0.0
 31
0.0
  0
LINE
  5
207
330
202
100
AcDbEntity
  8
0
  6
Continuous
 62
     0
370
     0
100
AcDbLine
 10
0.0
 20
0.0
 30
0.0
 11
0.0
 21
-2.5
 31
0.0
  0
LINE
  5
208
330
202
100
AcDbEntity
  8
0
  6
Continuous
 62
     0
370
     0
100
AcDbLine
 10
0.0
 20
0.0
 30
0.0
 11
2.5
 21
0.0
 31
0.0
  0
LINE
  5
209
330
202
100
AcDbEntity
  8
0
  6
Continuous
 62
     0
370
     0
100
AcDbLine
 10
0.0
 20
2.5
 30
0.0
 11
0.0
 21
2.9
 31
0.0
  0
LINE
  5
20A
330
202
100
AcDbEntity
  8
0
  6
Continuous
 62
     0
370
     0
100
AcDbLine
 10
-2.5
 20
0.0
 30
0.0
 11
-2.9
 21
0.0
 31
0.0
  0
LINE
  5
20B
330
202
100
AcDbEntity
  8
0
  6
Continuous
 62
     0
370
     0
100
AcDbLine
 10
0.0
 20
-2.5
 30
0.0
 11
0.0
 21
-2.9
 31
0.0
  0
LINE
  5
20C
330
202
100
AcDbEntity
  8
0
  6
Continuous
 62
     0
370
     0
100
AcDbLine
 10
2.5
 20
0.0
 30
0.0
 11
2.9
 21
0.0
 31
0.0
  0
ENDBLK
  5
204
330
202
100
AcDbEntity
  8
0
100
AcDbBlockEnd
  0
BLOCK
  5
20F
330
20E
100
AcDbEntity
  8
0
100
AcDbBlockBegin
  2
SW_CENTERMARKSYMBOL_13
 70
     0
 10
0.0
 20
0.0
 30
0.0
  3
SW_CENTERMARKSYMBOL_13
  1

  0
LINE
  5
211
330
20E
100
AcDbEntity
  8
0
  6
Continuous
 62
     0
370
     0
100
AcDbLine
 10
0.0
 20
0.0
 30
0.0
 11
0.0
 21
2.5
 31
0.0
  0
LINE
  5
212
330
20E
100
AcDbEntity
  8
0
  6
Continuous
 62
     0
370
     0
100
AcDbLine
 10
0.0
 20
0.0
 30
0.0
 11
-2.5
 21
0.0
 31
0.0
  0
LINE
  5
213
330
20E
100
AcDbEntity
  8
0
  6
Continuous
 62
     0
370
     0
100
AcDbLine
 10
0.0
 20
0.0
 30
0.0
 11
0.0
 21
-2.5
 31
0.0
  0
LINE
  5
214
330
20E
100
AcDbEntity
  8
0
  6
Continuous
 62
     0
370
     0
100
AcDbLine
 10
0.0
 20
0.0
 30
0.0
 11
2.5
 21
0.0
 31
0.0
  0
LINE
  5
215
330
20E
100
AcDbEntity
  8
0
  6
Continuous
 62
     0
370
     0
100
AcDbLine
 10
0.0
 20
2.5
 30
0.0
 11
0.0
 21
5.0
 31
0.0
  0
LINE
  5
216
330
20E
100
AcDbEntity
  8
0
  6
Continuous
 62
     0
370
     0
100
AcDbLine
 10
-2.5
 20
0.0
 30
0.0
 11
-5.0
 21
0.0
 31
0.0
  0
LINE
  5
217
330
20E
100
AcDbEntity
  8
0
  6
Continuous
 62
     0
370
     0
100
AcDbLine
 10
0.0
 20
-2.5
 30
0.0
 11
0.0
 21
-5.0
 31
0.0
  0
LINE
  5
218
330
20E
100
AcDbEntity
  8
0
  6
Continuous
 62
     0
370
     0
100
AcDbLine
 10
2.5
 20
0.0
 30
0.0
 11
5.0
 21
0.0
 31
0.0
  0
ENDBLK
  5
210
330
20E
100
AcDbEntity
  8
0
100
AcDbBlockEnd
  0
BLOCK
  5
21B
330
21A
100
AcDbEntity
  8
0
100
AcDbBlockBegin
  2
SW_CENTERMARKSYMBOL_14
 70
     0
 10
0.0
 20
0.0
 30
0.0
  3
SW_CENTERMARKSYMBOL_14
  1

  0
LINE
  5
21D
330
21A
100
AcDbEntity
  8
0
  6
Continuous
 62
     0
370
     0
100
AcDbLine
 10
0.0
 20
0.0
 30
0.0
 11
0.0
 21
2.5
 31
0.0
  0
LINE
  5
21E
330
21A
100
AcDbEntity
  8
0
  6
Continuous
 62
     0
370
     0
100
AcDbLine
 10
0.0
 20
0.0
 30
0.0
 11
-2.5
 21
0.0
 31
0.0
  0
LINE
  5
21F
330
21A
100
AcDbEntity
  8
0
  6
Continuous
 62
     0
370
     0
100
AcDbLine
 10
0.0
 20
0.0
 30
0.0
 11
0.0
 21
-2.5
 31
0.0
  0
LINE
  5
220
330
21A
100
AcDbEntity
  8
0
  6
Continuous
 62
     0
370
     0
100
AcDbLine
 10
0.0
 20
0.0
 30
0.0
 11
2.5
 21
0.0
 31
0.0
  0
LINE
  5
221
330
21A
100
AcDbEntity
  8
0
  6
Continuous
 62
     0
370
     0
100
AcDbLine
 10
0.0
 20
2.5
 30
0.0
 11
0.0
 21
2.9
 31
0.0
  0
LINE
  5
222
330
21A
100
AcDbEntity
  8
0
  6
Continuous
 62
     0
370
     0
100
AcDbLine
 10
-2.5
 20
0.0
 30
0.0
 11
-2.9
 21
0.0
 31
0.0
  0
LINE
  5
223
330
21A
100
AcDbEntity
  8
0
  6
Continuous
 62
     0
370
     0
100
AcDbLine
 10
0.0
 20
-2.5
 30
0.0
 11
0.0
 21
-2.9
 31
0.0
  0
LINE
  5
224
330
21A
100
AcDbEntity
  8
0
  6
Continuous
 62
     0
370
     0
100
AcDbLine
 10
2.5
 20
0.0
 30
0.0
 11
2.9
 21
0.0
 31
0.0
  0
ENDBLK
  5
21C
330
21A
100
AcDbEntity
  8
0
100
AcDbBlockEnd
  0
ENDSEC
  0
SECTION
  2
ENTITIES
  0
ARC
  5
62
330
1F
100
AcDbEntity
  8
0
  6
Continuous
 62
     7
370
     0
100
AcDbCircle
 10
138.1830112801
 20
60.7983987152
 30
0.0
 40
3.240000000003135
100
AcDbArc
 50
180.989662125
 51
260.2983062418
  0
LINE
  5
63
330
1F
100
AcDbEntity
  8
0
  6
Continuous
 62
     7
370
     0
100
AcDbLine
 10
134.943494598
 20
60.7424374233
 30
0.0
 11
133.8870112801
 21
61.3523987152
 31
0.0
  0
LINE
  5
64
330
1F
100
AcDbEntity
  8
0
  6
Continuous
 62
     7
370
     0
100
AcDbLine
 10
133.8870112801
 20
61.3523987152
 30
0.0
 11
133.8870112801
 21
71.1523987152
 31
0.0
  0
LINE
  5
65
330
1F
100
AcDbEntity
  8
0
  6
Continuous
 62
     7
370
     0
100
AcDbLine
 10
133.8870112801
 20
71.1523987152
 30
0.0
 11
134.943494598
 21
71.7623600072
 31
0.0
  0
ARC
  5
66
330
1F
100
AcDbEntity
  8
0
  6
Continuous
 62
     7
370
     0
100
AcDbCircle
 10
138.1830112801
 20
71.7063987152
 30
0.0
 40
3.239999999998126
100
AcDbArc
 50
99.7016937581
 51
179.010337875
  0
LINE
  5
67
330
1F
100
AcDbEntity
  8
0
  6
Continuous
 62
     7
370
     0
100
AcDbLine
 10
137.6370112801
 20
74.9000618158
 30
0.0
 11
137.6370112801
 21
77.3123987152
 31
0.0
  0
LINE
  5
68
330
1F
100
AcDbEntity
  8
0
  6
Continuous
 62
     7
370
     0
100
AcDbLine
 10
137.6370112801
 20
77.3123987152
 30
0.0
 11
137.2319602544
 21
77.717449741
 31
0.0
  0
LINE
  5
69
330
1F
100
AcDbEntity
  8
0
  6
Continuous
 62
     7
370
     0
100
AcDbLine
 10
137.2319602544
 20
77.717449741
 30
0.0
 11
137.8978003253
 21
80.2023987152
 31
0.0
  0
LINE
  5
6A
330
1F
100
AcDbEntity
  8
0
  6
Continuous
 62
     7
370
     0
100
AcDbLine
 10
137.8978003253
 20
80.2023987152
 30
0.0
 11
106.3762222349
 21
80.2023987152
 31
0.0
  0
LINE
  5
6B
330
1F
100
AcDbEntity
  8
0
  6
Continuous
 62
     7
370
     0
100
AcDbLine
 10
106.3762222349
 20
80.2023987152
 30
0.0
 11
107.0420623058
 21
77.717449741
 31
0.0
  0
LINE
  5
6C
330
1F
100
AcDbEntity
  8
0
  6
Continuous
 62
     7
370
     0
100
AcDbLine
 10
107.0420623058
 20
77.717449741
 30
0.0
 11
106.6370112801
 21
77.3123987152
 31
0.0
  0
LINE
  5
6D
330
1F
100
AcDbEntity
  8
0
  6
Continuous
 62
     7
370
     0
100
AcDbLine
 10
106.6370112801
 20
77.3123987152
 30
0.0
 11
106.6370112801
 21
74.9000618158
 31
0.0
  0
ARC
  5
6E
330
1F
100
AcDbEntity
  8
0
  6
Continuous
 62
     7
370
     0
100
AcDbCircle
 10
106.0910112801
 20
71.7063987152
 30
0.0
 40
3.239999999998123
100
AcDbArc
 50
0.989662125
 51
80.2983062419
  0
LINE
  5
6F
330
1F
100
AcDbEntity
  8
0
  6
Continuous
 62
     7
370
     0
100
AcDbLine
 10
109.3305279622
 20
71.7623600072
 30
0.0
 11
110.3870112801
 21
71.1523987152
 31
0.0
  0
LINE
  5
70
330
1F
100
AcDbEntity
  8
0
  6
Continuous
 62
     7
370
     0
100
AcDbLine
 10
110.3870112801
 20
71.1523987152
 30
0.0
 11
110.3870112801
 21
61.3523987152
 31
0.0
  0
LINE
  5
71
330
1F
100
AcDbEntity
  8
0
  6
Continuous
 62
     7
370
     0
100
AcDbLine
 10
110.3870112801
 20
61.3523987152
 30
0.0
 11
109.3305279622
 21
60.7424374233
 31
0.0
  0
ARC
  5
72
330
1F
100
AcDbEntity
  8
0
  6
Continuous
 62
     7
370
     0
100
AcDbCircle
 10
106.0910112801
 20
60.7983987152
 30
0.0
 40
3.240000000003146
100
AcDbArc
 50
279.7016937582
 51
359.010337875
  0
LINE
  5
73
330
1F
100
AcDbEntity
  8
0
  6
Continuous
 62
     7
370
     0
100
AcDbLine
 10
106.6370112801
 20
57.6047356147
 30
0.0
 11
106.6370112801
 21
55.4523987152
 31
0.0
  0
LINE
  5
74
330
1F
100
AcDbEntity
  8
0
  6
Continuous
 62
     7
370
     0
100
AcDbLine
 10
91.1570112801
 20
55.4523987152
 30
0.0
 11
106.6370112801
 21
55.4523987152
 31
0.0
  0
LINE
  5
75
330
1F
100
AcDbEntity
  8
0
  6
Continuous
 62
     7
370
     0
100
AcDbLine
 10
87.9370112801
 20
58.6723987152
 30
0.0
 11
91.1570112801
 21
55.4523987152
 31
0.0
  0
LINE
  5
76
330
1F
100
AcDbEntity
  8
0
  6
Continuous
 62
     7
370
     0
100
AcDbLine
 10
87.9370112801
 20
93.9523987152
 30
0.0
 11
87.9370112801
 21
58.6723987152
 31
0.0
  0
ARC
  5
77
330
1F
100
AcDbEntity
  8
0
  6
Continuous
 62
     7
370
     0
100
AcDbCircle
 10
88.9370112801
 20
93.9523987152
 30
0.0
 40
1.000000000000014
100
AcDbArc
 50
90.0
 51
180.0
  0
LINE
  5
78
330
1F
100
AcDbEntity
  8
0
  6
Continuous
 62
     7
370
     0
100
AcDbLine
 10
113.0870112801
 20
94.9523987152
 30
0.0
 11
88.9370112801
 21
94.9523987152
 31
0.0
  0
LINE
  5
79
330
1F
100
AcDbEntity
  8
0
  6
Continuous
 62
     7
370
     0
100
AcDbLine
 10
113.3370112801
 20
95.2023987152
 30
0.0
 11
113.0870112801
 21
94.9523987152
 31
0.0
  0
LINE
  5
7A
330
1F
100
AcDbEntity
  8
0
  6
Continuous
 62
     7
370
     0
100
AcDbLine
 10
130.9370112801
 20
95.2023987152
 30
0.0
 11
113.3370112801
 21
95.2023987152
 31
0.0
  0
LINE
  5
7B
330
1F
100
AcDbEntity
  8
0
  6
Continuous
 62
     7
370
     0
100
AcDbLine
 10
131.1870112801
 20
94.9523987152
 30
0.0
 11
130.9370112801
 21
95.2023987152
 31
0.0
  0
LINE
  5
7C
330
1F
100
AcDbEntity
  8
0
  6
Continuous
 62
     7
370
     0
100
AcDbLine
 10
155.3370112801
 20
94.9523987152
 30
0.0
 11
131.1870112801
 21
94.9523987152
 31
0.0
  0
ARC
  5
7D
330
1F
100
AcDbEntity
  8
0
  6
Continuous
 62
     7
370
     0
100
AcDbCircle
 10
155.3370112801
 20
93.9523987152
 30
0.0
 40
1.0
100
AcDbArc
 50
0.0
 51
90.0
  0
LINE
  5
7E
330
1F
100
AcDbEntity
  8
0
  6
Continuous
 62
     7
370
     0
100
AcDbLine
 10
156.3370112801
 20
58.6723987152
 30
0.0
 11
156.3370112801
 21
93.9523987152
 31
0.0
  0
LINE
  5
7F
330
1F
100
AcDbEntity
  8
0
  6
Continuous
 62
     7
370
     0
100
AcDbLine
 10
153.1170112801
 20
55.4523987152
 30
0.0
 11
156.3370112801
 21
58.6723987152
 31
0.0
  0
LINE
  5
80
330
1F
100
AcDbEntity
  8
0
  6
Continuous
 62
     7
370
     0
100
AcDbLine
 10
137.6370112801
 20
55.4523987152
 30
0.0
 11
153.1170112801
 21
55.4523987152
 31
0.0
  0
LINE
  5
81
330
1F
100
AcDbEntity
  8
0
  6
Continuous
 62
     7
370
     0
100
AcDbLine
 10
137.6370112801
 20
55.4523987152
 30
0.0
 11
137.6370112801
 21
57.6047356147
 31
0.0
  0
CIRCLE
  5
82
330
1F
100
AcDbEntity
  8
0
  6
Continuous
 62
     7
370
     0
100
AcDbCircle
 10
93.1370112801
 20
78.4523987152
 30
0.0
 40
1.950000000000003
  0
CIRCLE
  5
83
330
1F
100
AcDbEntity
  8
0
  6
Continuous
 62
     7
370
     0
100
AcDbCircle
 10
122.1370112801
 20
88.9023987152
 30
0.0
 40
3.200000000000003
  0
CIRCLE
  5
84
330
1F
100
AcDbEntity
  8
0
  6
Continuous
 62
     7
370
     0
100
AcDbCircle
 10
151.1370112801
 20
78.4523987152
 30
0.0
 40
1.949999999999989
  0
CIRCLE
  5
85
330
1F
100
AcDbEntity
  8
0
  6
Continuous
 62
     7
370
     0
100
AcDbCircle
 10
151.1370112801
 20
78.4523987152
 30
0.0
 40
1.25
  0
CIRCLE
  5
86
330
1F
100
AcDbEntity
  8
0
  6
Continuous
 62
     7
370
     0
100
AcDbCircle
 10
122.1370112801
 20
88.9023987152
 30
0.0
 40
2.5
  0
CIRCLE
  5
87
330
1F
100
AcDbEntity
  8
0
  6
Continuous
 62
     7
370
     0
100
AcDbCircle
 10
93.1370112801
 20
78.4523987152
 30
0.0
 40
1.249999999999986
  0
LINE
  5
88
330
1F
100
AcDbEntity
  8
0
  6
Continuous
 62
     7
370
     0
100
AcDbLine
 10
91.1370112801
 20
55.4023987152
 30
0.0
 11
106.6370112801
 21
55.4023987152
 31
0.0
  0
LINE
  5
89
330
1F
100
AcDbEntity
  8
0
  6
Continuous
 62
     7
370
     0
100
AcDbLine
 10
89.6370112801
 20
56.9723987152
 30
0.0
 11
89.6370112801
 21
56.9023987152
 31
0.0
  0
LINE
  5
8A
330
1F
100
AcDbEntity
  8
0
  6
Continuous
 62
     7
370
     0
100
AcDbLine
 10
72.6370112801
 20
83.8023987152
 30
0.0
 11
87.9370112801
 21
83.8023987152
 31
0.0
  0
LINE
  5
8B
330
1F
100
AcDbEntity
  8
0
  6
Continuous
 62
     7
370
     0
100
AcDbLine
 10
172.1370112801
 20
94.3023987152
 30
0.0
 11
170.6370112801
 21
95.8023987152
 31
0.0
  0
LINE
  5
8C
330
1F
100
AcDbEntity
  8
0
  6
Continuous
 62
     7
370
     0
100
AcDbLine
 10
172.1370112801
 20
83.8023987152
 30
0.0
 11
172.1370112801
 21
94.3023987152
 31
0.0
  0
LINE
  5
8D
330
1F
100
AcDbEntity
  8
0
  6
Continuous
 62
     7
370
     0
100
AcDbLine
 10
156.3370112801
 20
83.8023987152
 30
0.0
 11
172.1370112801
 21
83.8023987152
 31
0.0
  0
LINE
  5
8E
330
1F
100
AcDbEntity
  8
0
  6
Continuous
 62
     7
370
     0
100
AcDbLine
 10
154.6370112801
 20
56.9023987152
 30
0.0
 11
154.6370112801
 21
56.9723987152
 31
0.0
  0
LINE
  5
8F
330
1F
100
AcDbEntity
  8
0
  6
Continuous
 62
     7
370
     0
100
AcDbLine
 10
153.1370112801
 20
55.4023987152
 30
0.0
 11
154.6370112801
 21
56.9023987152
 31
0.0
  0
LINE
  5
90
330
1F
100
AcDbEntity
  8
0
  6
Continuous
 62
     7
370
     0
100
AcDbLine
 10
72.6370112801
 20
87.8023987152
 30
0.0
 11
72.6370112801
 21
83.8023987152
 31
0.0
  0
LINE
  5
91
330
1F
100
AcDbEntity
  8
0
  6
Continuous
 62
     7
370
     0
100
AcDbLine
 10
72.1370112801
 20
88.3023987152
 30
0.0
 11
72.6370112801
 21
87.8023987152
 31
0.0
  0
LINE
  5
92
330
1F
100
AcDbEntity
  8
0
  6
Continuous
 62
     7
370
     0
100
AcDbLine
 10
72.1370112801
 20
94.3023987152
 30
0.0
 11
72.1370112801
 21
88.3023987152
 31
0.0
  0
LINE
  5
93
330
1F
100
AcDbEntity
  8
0
  6
Continuous
 62
     7
370
     0
100
AcDbLine
 10
73.6370112801
 20
95.8023987152
 30
0.0
 11
72.1370112801
 21
94.3023987152
 31
0.0
  0
LINE
  5
94
330
1F
100
AcDbEntity
  8
0
  6
Continuous
 62
     7
370
     0
100
AcDbLine
 10
89.6370112801
 20
56.9023987152
 30
0.0
 11
91.1370112801
 21
55.4023987152
 31
0.0
  0
LINE
  5
95
330
1F
100
AcDbEntity
  8
0
  6
Continuous
 62
     7
370
     0
100
AcDbLine
 10
90.1370112801
 20
95.3023987152
 30
0.0
 11
89.6370112801
 21
95.8023987152
 31
0.0
  0
LINE
  5
96
330
1F
100
AcDbEntity
  8
0
  6
Continuous
 62
     7
370
     0
100
AcDbLine
 10
113.1370112801
 20
95.3023987152
 30
0.0
 11
90.1370112801
 21
95.3023987152
 31
0.0
  0
LINE
  5
97
330
1F
100
AcDbEntity
  8
0
  6
Continuous
 62
     7
370
     0
100
AcDbLine
 10
130.6370112801
 20
95.8023987152
 30
0.0
 11
113.6370112801
 21
95.8023987152
 31
0.0
  0
LINE
  5
98
330
1F
100
AcDbEntity
  8
0
  6
Continuous
 62
     7
370
     0
100
AcDbLine
 10
131.1370112801
 20
95.3023987152
 30
0.0
 11
130.6370112801
 21
95.8023987152
 31
0.0
  0
LINE
  5
99
330
1F
100
AcDbEntity
  8
0
  6
Continuous
 62
     7
370
     0
100
AcDbLine
 10
154.1370112801
 20
95.3023987152
 30
0.0
 11
131.1370112801
 21
95.3023987152
 31
0.0
  0
LINE
  5
9A
330
1F
100
AcDbEntity
  8
0
  6
Continuous
 62
     7
370
     0
100
AcDbLine
 10
154.6370112801
 20
95.8023987152
 30
0.0
 11
154.1370112801
 21
95.3023987152
 31
0.0
  0
LINE
  5
9B
330
1F
100
AcDbEntity
  8
0
  6
Continuous
 62
     7
370
     0
100
AcDbLine
 10
170.6370112801
 20
95.8023987152
 30
0.0
 11
154.6370112801
 21
95.8023987152
 31
0.0
  0
LINE
  5
9C
330
1F
100
AcDbEntity
  8
0
  6
Continuous
 62
     7
370
     0
100
AcDbLine
 10
137.6370112801
 20
55.4023987152
 30
0.0
 11
153.1370112801
 21
55.4023987152
 31
0.0
  0
LINE
  5
9D
330
1F
100
AcDbEntity
  8
0
  6
Continuous
 62
     7
370
     0
100
AcDbLine
 10
89.6370112801
 20
95.8023987152
 30
0.0
 11
73.6370112801
 21
95.8023987152
 31
0.0
  0
LINE
  5
9E
330
1F
100
AcDbEntity
  8
0
  6
Continuous
 62
     7
370
     0
100
AcDbLine
 10
106.6370112801
 20
55.4023987152
 30
0.0
 11
106.6370112801
 21
55.4523987152
 31
0.0
  0
LINE
  5
9F
330
1F
100
AcDbEntity
  8
0
  6
Continuous
 62
     7
370
     0
100
AcDbLine
 10
137.6370112801
 20
55.4523987152
 30
0.0
 11
137.6370112801
 21
55.4023987152
 31
0.0
  0
LINE
  5
A0
330
1F
100
AcDbEntity
  8
0
  6
Continuous
 62
     7
370
     0
100
AcDbLine
 10
113.6370112801
 20
95.8023987152
 30
0.0
 11
113.1370112801
 21
95.3023987152
 31
0.0
  0
LINE
  5
A1
330
1F
100
AcDbEntity
  8
0
  6
Continuous
 62
     7
370
     0
100
AcDbLine
 10
81.1370112801
 20
65.4023987152
 30
0.0
 11
81.1370112801
 21
83.8023987152
 31
0.0
  0
LINE
  5
A2
330
1F
100
AcDbEntity
  8
0
  6
Continuous
 62
     7
370
     0
100
AcDbLine
 10
89.6370112801
 20
56.9023987152
 30
0.0
 11
81.1370112801
 21
65.4023987152
 31
0.0
  0
LINE
  5
A3
330
1F
100
AcDbEntity
  8
0
  6
Continuous
 62
     7
370
     0
100
AcDbLine
 10
163.1370112801
 20
65.4023987152
 30
0.0
 11
163.1370112801
 21
83.8023987152
 31
0.0
  0
LINE
  5
A4
330
1F
100
AcDbEntity
  8
0
  6
Continuous
 62
     7
370
     0
100
AcDbLine
 10
163.1370112801
 20
65.4023987152
 30
0.0
 11
154.6370112801
 21
56.9023987152
 31
0.0
  0
LINE
  5
A5
330
1F
100
AcDbEntity
  8
0
  6
Continuous
 62
     7
370
     0
100
AcDbLine
 10
172.1370112801
 20
74.4023987152
 30
0.0
 11
172.1370112801
 21
83.8023987152
 31
0.0
  0
LINE
  5
A6
330
1F
100
AcDbEntity
  8
0
  6
Continuous
 62
     7
370
     0
100
AcDbLine
 10
172.1370112801
 20
74.4023987152
 30
0.0
 11
163.1370112801
 21
65.4023987152
 31
0.0
  0
LINE
  5
A7
330
1F
100
AcDbEntity
  8
0
  6
Continuous
 62
     7
370
     0
100
AcDbLine
 10
72.6370112801
 20
73.9023987152
 30
0.0
 11
72.6370112801
 21
83.8023987152
 31
0.0
  0
LINE
  5
A8
330
1F
100
AcDbEntity
  8
0
  6
Continuous
 62
     7
370
     0
100
AcDbLine
 10
81.1370112801
 20
65.4023987152
 30
0.0
 11
72.6370112801
 21
73.9023987152
 31
0.0
  0
INSERT
  5
B4
330
1F
100
AcDbEntity
  8
0
  6
Continuous
 62
     7
370
     0
100
AcDbBlockReference
  2
SW_CENTERMARKSYMBOL_0
 10
93.1370112801
 20
78.4523987152
 30
0.0
  0
INSERT
  5
C0
330
1F
100
AcDbEntity
  8
0
  6
Continuous
 62
     7
370
     0
100
AcDbBlockReference
  2
SW_CENTERMARKSYMBOL_1
 10
151.1370112801
 20
78.4523987152
 30
0.0
  0
INSERT
  5
CC
330
1F
100
AcDbEntity
  8
0
  6
Continuous
 62
     7
370
     0
100
AcDbBlockReference
  2
SW_CENTERMARKSYMBOL_2
 10
122.1370112801
 20
88.9023987152
 30
0.0
  0
ARC
  5
CD
330
1F
100
AcDbEntity
  8
0
  6
Continuous
 62
     7
370
     0
100
AcDbCircle
 10
151.1370112801
 20
78.4523987152
 30
0.0
 40
1.500000000000011
100
AcDbArc
 50
255.0
 51
195.0
  0
ARC
  5
CE
330
1F
100
AcDbEntity
  8
0
  6
Continuous
 62
     7
370
     0
100
AcDbCircle
 10
151.1370112801
 20
78.4523987152
 30
0.0
 40
1.500000000000011
100
AcDbArc
 50
255.0
 51
195.0
  0
ARC
  5
CF
330
1F
100
AcDbEntity
  8
0
  6
Continuous
 62
     7
370
     0
100
AcDbCircle
 10
93.1370112801
 20
78.4523987152
 30
0.0
 40
1.500000000000011
100
AcDbArc
 50
255.0
 51
195.0
  0
ARC
  5
D0
330
1F
100
AcDbEntity
  8
0
  6
Continuous
 62
     7
370
     0
100
AcDbCircle
 10
93.1370112801
 20
78.4523987152
 30
0.0
 40
1.500000000000011
100
AcDbArc
 50
255.0
 51
195.0
  0
ARC
  5
D1
330
1F
100
AcDbEntity
  8
0
  6
Continuous
 62
     7
370
     0
100
AcDbCircle
 10
122.1370112801
 20
88.9023987152
 30
0.0
 40
3.000000000000008
100
AcDbArc
 50
255.0
 51
195.0
  0
ARC
  5
D2
330
1F
100
AcDbEntity
  8
0
  6
Continuous
 62
     7
370
     0
100
AcDbCircle
 10
122.1370112801
 20
88.9023987152
 30
0.0
 40
3.000000000000008
100
AcDbArc
 50
255.0
 51
195.0
  0
LINE
  5
D3
330
1F
100
AcDbEntity
  8
0
  6
Continuous
 62
     7
370
     0
100
AcDbLine
 10
309.5170112801
 20
94.9523987152
 30
0.0
 11
292.7670112801
 21
94.9523987152
 31
0.0
  0
LINE
  5
D4
330
1F
100
AcDbEntity
  8
0
  6
Continuous
 62
     7
370
     0
100
AcDbLine
 10
309.5170112801
 20
93.9523987152
 30
0.0
 11
309.5170112801
 21
94.9523987152
 31
0.0
  0
LINE
  5
D5
330
1F
100
AcDbEntity
  8
0
  6
Continuous
 62
     7
370
     0
100
AcDbLine
 10
309.5170112801
 20
93.9523987152
 30
0.0
 11
292.7670112801
 21
93.9523987152
 31
0.0
  0
LINE
  5
D6
330
1F
100
AcDbEntity
  8
0
  6
Continuous
 62
     7
370
     0
100
AcDbLine
 10
309.5170112801
 20
58.6723987152
 30
0.0
 11
292.7670112801
 21
58.6723987152
 31
0.0
  0
LINE
  5
D7
330
1F
100
AcDbEntity
  8
0
  6
Continuous
 62
     7
370
     0
100
AcDbLine
 10
292.7670112801
 20
58.6723987152
 30
0.0
 11
292.7670112801
 21
83.8023987152
 31
0.0
  0
CIRCLE
  5
D8
330
1F
100
AcDbEntity
  8
0
  6
Continuous
 62
     7
370
     0
100
AcDbCircle
 10
301.2670112801
 20
88.9023987152
 30
0.0
 40
3.199999999999989
  0
LINE
  5
D9
330
1F
100
AcDbEntity
  8
0
  6
Continuous
 62
     7
370
     0
100
AcDbLine
 10
309.5170112801
 20
58.6723987152
 30
0.0
 11
309.5170112801
 21
93.9523987152
 31
0.0
  0
LINE
  5
DA
330
1F
100
AcDbEntity
  8
0
  6
Continuous
 62
     7
370
     0
100
AcDbLine
 10
309.5170112801
 20
55.4523987152
 30
0.0
 11
292.7670112801
 21
55.4523987152
 31
0.0
  0
LINE
  5
DB
330
1F
100
AcDbEntity
  8
0
  6
Continuous
 62
     7
370
     0
100
AcDbLine
 10
292.7670112801
 20
56.9723987152
 30
0.0
 11
292.7670112801
 21
58.6723987152
 31
0.0
  0
LINE
  5
DC
330
1F
100
AcDbEntity
  8
0
  6
Continuous
 62
     7
370
     0
100
AcDbLine
 10
309.5170112801
 20
55.4523987152
 30
0.0
 11
309.5170112801
 21
58.6723987152
 31
0.0
  0
CIRCLE
  5
DD
330
1F
100
AcDbEntity
  8
0
  6
Continuous
 62
     7
370
     0
100
AcDbCircle
 10
301.2670112801
 20
88.9023987152
 30
0.0
 40
2.5
  0
LINE
  5
DE
330
1F
100
AcDbEntity
  8
0
  6
Continuous
 62
     7
370
     0
100
AcDbLine
 10
309.5170112801
 20
95.2023987152
 30
0.0
 11
292.7670112801
 21
95.2023987152
 31
0.0
  0
LINE
  5
DF
330
1F
100
AcDbEntity
  8
0
  6
Continuous
 62
     7
370
     0
100
AcDbLine
 10
309.5170112801
 20
94.9523987152
 30
0.0
 11
309.5170112801
 21
95.2023987152
 31
0.0
  0
LINE
  5
E0
330
1F
100
AcDbEntity
  8
0
  6
Continuous
 62
     7
370
     0
100
AcDbLine
 10
309.5170112801
 20
71.1523987152
 30
0.0
 11
309.5170112801
 21
61.3523987152
 31
0.0
  0
LINE
  5
E1
330
1F
100
AcDbEntity
  8
0
  6
Continuous
 62
     7
370
     0
100
AcDbLine
 10
309.5170112801
 20
71.7623600072
 30
0.0
 11
309.5170112801
 21
71.1523987152
 31
0.0
  0
LINE
  5
E2
330
1F
100
AcDbEntity
  8
0
  6
Continuous
 62
     7
370
     0
100
AcDbLine
 10
309.5170112801
 20
61.3523987152
 30
0.0
 11
309.5170112801
 21
60.7424374233
 31
0.0
  0
LINE
  5
E3
330
1F
100
AcDbEntity
  8
0
  6
Continuous
 62
     7
370
     0
100
AcDbLine
 10
309.5170112801
 20
74.9000618158
 30
0.0
 11
309.5170112801
 21
71.7623600072
 31
0.0
  0
LINE
  5
E4
330
1F
100
AcDbEntity
  8
0
  6
Continuous
 62
     7
370
     0
100
AcDbLine
 10
309.5170112801
 20
80.2023987152
 30
0.0
 11
309.5170112801
 21
77.717449741
 31
0.0
  0
LINE
  5
E5
330
1F
100
AcDbEntity
  8
0
  6
Continuous
 62
     7
370
     0
100
AcDbLine
 10
309.5170112801
 20
77.717449741
 30
0.0
 11
309.5170112801
 21
77.3123987152
 31
0.0
  0
LINE
  5
E6
330
1F
100
AcDbEntity
  8
0
  6
Continuous
 62
     7
370
     0
100
AcDbLine
 10
309.5170112801
 20
57.6047356147
 30
0.0
 11
309.5170112801
 21
55.4523987152
 31
0.0
  0
LINE
  5
E7
330
1F
100
AcDbEntity
  8
0
  6
Continuous
 62
     7
370
     0
100
AcDbLine
 10
309.5170112801
 20
77.3123987152
 30
0.0
 11
309.5170112801
 21
74.9000618158
 31
0.0
  0
LINE
  5
E8
330
1F
100
AcDbEntity
  8
0
  6
Continuous
 62
     7
370
     0
100
AcDbLine
 10
199.0170112801
 20
58.6723987152
 30
0.0
 11
215.7670112801
 21
58.6723987152
 31
0.0
  0
LINE
  5
E9
330
1F
100
AcDbEntity
  8
0
  6
Continuous
 62
     7
370
     0
100
AcDbLine
 10
199.0170112801
 20
58.6723987152
 30
0.0
 11
199.0170112801
 21
93.9523987152
 31
0.0
  0
LINE
  5
EA
330
1F
100
AcDbEntity
  8
0
  6
Continuous
 62
     7
370
     0
100
AcDbLine
 10
199.0170112801
 20
93.9523987152
 30
0.0
 11
215.7670112801
 21
93.9523987152
 31
0.0
  0
CIRCLE
  5
EB
330
1F
100
AcDbEntity
  8
0
  6
Continuous
 62
     7
370
     0
100
AcDbCircle
 10
207.2670112801
 20
88.9023987152
 30
0.0
 40
3.199999999999989
  0
LINE
  5
EC
330
1F
100
AcDbEntity
  8
0
  6
Continuous
 62
     7
370
     0
100
AcDbLine
 10
215.7670112801
 20
58.6723987152
 30
0.0
 11
215.7670112801
 21
83.8023987152
 31
0.0
  0
LINE
  5
ED
330
1F
100
AcDbEntity
  8
0
  6
Continuous
 62
     7
370
     0
100
AcDbLine
 10
199.0170112801
 20
55.4523987152
 30
0.0
 11
215.7670112801
 21
55.4523987152
 31
0.0
  0
LINE
  5
EE
330
1F
100
AcDbEntity
  8
0
  6
Continuous
 62
     7
370
     0
100
AcDbLine
 10
199.0170112801
 20
55.4523987152
 30
0.0
 11
199.0170112801
 21
58.6723987152
 31
0.0
  0
LINE
  5
EF
330
1F
100
AcDbEntity
  8
0
  6
Continuous
 62
     7
370
     0
100
AcDbLine
 10
215.7670112801
 20
56.9723987152
 30
0.0
 11
215.7670112801
 21
58.6723987152
 31
0.0
  0
LINE
  5
F0
330
1F
100
AcDbEntity
  8
0
  6
Continuous
 62
     7
370
     0
100
AcDbLine
 10
199.0170112801
 20
93.9523987152
 30
0.0
 11
199.0170112801
 21
94.9523987152
 31
0.0
  0
LINE
  5
F1
330
1F
100
AcDbEntity
  8
0
  6
Continuous
 62
     7
370
     0
100
AcDbLine
 10
199.0170112801
 20
94.9523987152
 30
0.0
 11
215.7670112801
 21
94.9523987152
 31
0.0
  0
CIRCLE
  5
F2
330
1F
100
AcDbEntity
  8
0
  6
Continuous
 62
     7
370
     0
100
AcDbCircle
 10
207.2670112801
 20
88.9023987152
 30
0.0
 40
2.5
  0
LINE
  5
F3
330
1F
100
AcDbEntity
  8
0
  6
Continuous
 62
     7
370
     0
100
AcDbLine
 10
199.0170112801
 20
95.2023987152
 30
0.0
 11
215.7670112801
 21
95.2023987152
 31
0.0
  0
LINE
  5
F4
330
1F
100
AcDbEntity
  8
0
  6
Continuous
 62
     7
370
     0
100
AcDbLine
 10
199.0170112801
 20
94.9523987152
 30
0.0
 11
199.0170112801
 21
95.2023987152
 31
0.0
  0
LINE
  5
F5
330
1F
100
AcDbEntity
  8
0
  6
Continuous
 62
     7
370
     0
100
AcDbLine
 10
199.0170112801
 20
71.7623600072
 30
0.0
 11
199.0170112801
 21
71.1523987152
 31
0.0
  0
LINE
  5
F6
330
1F
100
AcDbEntity
  8
0
  6
Continuous
 62
     7
370
     0
100
AcDbLine
 10
199.0170112801
 20
61.3523987152
 30
0.0
 11
199.0170112801
 21
60.7424374233
 31
0.0
  0
LINE
  5
F7
330
1F
100
AcDbEntity
  8
0
  6
Continuous
 62
     7
370
     0
100
AcDbLine
 10
199.0170112801
 20
71.1523987152
 30
0.0
 11
199.0170112801
 21
61.3523987152
 31
0.0
  0
LINE
  5
F8
330
1F
100
AcDbEntity
  8
0
  6
Continuous
 62
     7
370
     0
100
AcDbLine
 10
199.0170112801
 20
74.9000618158
 30
0.0
 11
199.0170112801
 21
71.7623600072
 31
0.0
  0
LINE
  5
F9
330
1F
100
AcDbEntity
  8
0
  6
Continuous
 62
     7
370
     0
100
AcDbLine
 10
199.0170112801
 20
80.2023987152
 30
0.0
 11
199.0170112801
 21
77.717449741
 31
0.0
  0
LINE
  5
FA
330
1F
100
AcDbEntity
  8
0
  6
Continuous
 62
     7
370
     0
100
AcDbLine
 10
199.0170112801
 20
77.717449741
 30
0.0
 11
199.0170112801
 21
77.3123987152
 31
0.0
  0
LINE
  5
FB
330
1F
100
AcDbEntity
  8
0
  6
Continuous
 62
     7
370
     0
100
AcDbLine
 10
199.0170112801
 20
57.6047356147
 30
0.0
 11
199.0170112801
 21
55.4523987152
 31
0.0
  0
LINE
  5
FC
330
1F
100
AcDbEntity
  8
0
  6
Continuous
 62
     7
370
     0
100
AcDbLine
 10
199.0170112801
 20
77.3123987152
 30
0.0
 11
199.0170112801
 21
74.9000618158
 31
0.0
  0
LINE
  5
FD
330
1F
100
AcDbEntity
  8
0
  6
Continuous
 62
     7
370
     0
100
AcDbLine
 10
215.7670112801
 20
55.4023987152
 30
0.0
 11
292.7670112801
 21
55.4023987152
 31
0.0
  0
LINE
  5
FE
330
1F
100
AcDbEntity
  8
0
  6
Continuous
 62
     7
370
     0
100
AcDbLine
 10
215.7670112801
 20
55.4023987152
 30
0.0
 11
215.7670112801
 21
56.9023987152
 31
0.0
  0
LINE
  5
FF
330
1F
100
AcDbEntity
  8
0
  6
Continuous
 62
     7
370
     0
100
AcDbLine
 10
223.2670112801
 20
56.9023987152
 30
0.0
 11
215.7670112801
 21
56.9023987152
 31
0.0
  0
ARC
  5
100
330
1F
100
AcDbEntity
  8
0
  6
Continuous
 62
     7
370
     0
100
AcDbCircle
 10
223.2670112801
 20
65.4023987152
 30
0.0
 40
8.5
100
AcDbArc
 50
270.0
 51
0.0
  0
LINE
  5
101
330
1F
100
AcDbEntity
  8
0
  6
Continuous
 62
     7
370
     0
100
AcDbLine
 10
231.7670112801
 20
74.4023987152
 30
0.0
 11
231.7670112801
 21
65.4023987152
 31
0.0
  0
LINE
  5
102
330
1F
100
AcDbEntity
  8
0
  6
Continuous
 62
     7
370
     0
100
AcDbLine
 10
231.7670112801
 20
74.4023987152
 30
0.0
 11
276.7670112801
 21
74.4023987152
 31
0.0
  0
LINE
  5
103
330
1F
100
AcDbEntity
  8
0
  6
Continuous
 62
     7
370
     0
100
AcDbLine
 10
276.7670112801
 20
65.4023987152
 30
0.0
 11
276.7670112801
 21
74.4023987152
 31
0.0
  0
ARC
  5
104
330
1F
100
AcDbEntity
  8
0
  6
Continuous
 62
     7
370
     0
100
AcDbCircle
 10
285.2670112801
 20
65.4023987152
 30
0.0
 40
8.5
100
AcDbArc
 50
180.0
 51
270.0
  0
LINE
  5
105
330
1F
100
AcDbEntity
  8
0
  6
Continuous
 62
     7
370
     0
100
AcDbLine
 10
292.7670112801
 20
56.9023987152
 30
0.0
 11
285.2670112801
 21
56.9023987152
 31
0.0
  0
LINE
  5
106
330
1F
100
AcDbEntity
  8
0
  6
Continuous
 62
     7
370
     0
100
AcDbLine
 10
292.7670112801
 20
55.4023987152
 30
0.0
 11
292.7670112801
 21
56.9023987152
 31
0.0
  0
LINE
  5
107
330
1F
100
AcDbEntity
  8
0
  6
Continuous
 62
     7
370
     0
100
AcDbLine
 10
231.7670112801
 20
74.4023987152
 30
0.0
 11
231.7670112801
 21
83.8023987152
 31
0.0
  0
LINE
  5
108
330
1F
100
AcDbEntity
  8
0
  6
Continuous
 62
     7
370
     0
100
AcDbLine
 10
215.7670112801
 20
83.8023987152
 30
0.0
 11
231.7670112801
 21
83.8023987152
 31
0.0
  0
LINE
  5
109
330
1F
100
AcDbEntity
  8
0
  6
Continuous
 62
     7
370
     0
100
AcDbLine
 10
215.7670112801
 20
83.8023987152
 30
0.0
 11
215.7670112801
 21
94.3023987152
 31
0.0
  0
LINE
  5
10A
330
1F
100
AcDbEntity
  8
0
  6
Continuous
 62
     7
370
     0
100
AcDbLine
 10
215.7670112801
 20
94.3023987152
 30
0.0
 11
292.7670112801
 21
94.3023987152
 31
0.0
  0
LINE
  5
10B
330
1F
100
AcDbEntity
  8
0
  6
Continuous
 62
     7
370
     0
100
AcDbLine
 10
292.7670112801
 20
83.8023987152
 30
0.0
 11
292.7670112801
 21
94.3023987152
 31
0.0
  0
LINE
  5
10C
330
1F
100
AcDbEntity
  8
0
  6
Continuous
 62
     7
370
     0
100
AcDbLine
 10
276.7670112801
 20
83.8023987152
 30
0.0
 11
292.7670112801
 21
83.8023987152
 31
0.0
  0
LINE
  5
10D
330
1F
100
AcDbEntity
  8
0
  6
Continuous
 62
     7
370
     0
100
AcDbLine
 10
276.7670112801
 20
74.4023987152
 30
0.0
 11
276.7670112801
 21
83.8023987152
 31
0.0
  0
LINE
  5
10E
330
1F
100
AcDbEntity
  8
0
  6
Continuous
 62
     7
370
     0
100
AcDbLine
 10
215.7670112801
 20
94.3023987152
 30
0.0
 11
215.7670112801
 21
95.8023987152
 31
0.0
  0
LINE
  5
10F
330
1F
100
AcDbEntity
  8
0
  6
Continuous
 62
     7
370
     0
100
AcDbLine
 10
215.7670112801
 20
95.8023987152
 30
0.0
 11
292.7670112801
 21
95.8023987152
 31
0.0
  0
LINE
  5
110
330
1F
100
AcDbEntity
  8
0
  6
Continuous
 62
     7
370
     0
100
AcDbLine
 10
292.7670112801
 20
94.3023987152
 30
0.0
 11
292.7670112801
 21
95.8023987152
 31
0.0
  0
LINE
  5
111
330
1F
100
AcDbEntity
  8
0
  6
Continuous
 62
     7
370
     0
100
AcDbLine
 10
285.2670112801
 20
56.9023987152
 30
0.0
 11
285.2670112801
 21
83.8023987152
 31
0.0
  0
LINE
  5
112
330
1F
100
AcDbEntity
  8
0
  6
Continuous
 62
     7
370
     0
100
AcDbLine
 10
223.2670112801
 20
56.9023987152
 30
0.0
 11
223.2670112801
 21
83.8023987152
 31
0.0
  0
LINE
  5
113
330
1F
100
AcDbEntity
  8
0
  6
Continuous
 62
     7
370
     0
100
AcDbLine
 10
292.7670112801
 20
56.9023987152
 30
0.0
 11
292.7670112801
 21
56.9723987152
 31
0.0
  0
LINE
  5
114
330
1F
100
AcDbEntity
  8
0
  6
Continuous
 62
     7
370
     0
100
AcDbLine
 10
215.7670112801
 20
56.9023987152
 30
0.0
 11
215.7670112801
 21
56.9723987152
 31
0.0
  0
LINE
  5
115
330
1F
100
AcDbEntity
  8
0
  6
Continuous
 62
     7
370
     0
100
AcDbLine
 10
215.7670112801
 20
95.3023987152
 30
0.0
 11
215.7670112801
 21
95.8023987152
 31
0.0
  0
LINE
  5
116
330
1F
100
AcDbEntity
  8
0
  6
Continuous
 62
     7
370
     0
100
AcDbLine
 10
292.7670112801
 20
95.3023987152
 30
0.0
 11
292.7670112801
 21
95.8023987152
 31
0.0
  0
LINE
  5
117
330
1F
100
AcDbEntity
  8
0
  6
Continuous
 62
     7
370
     0
100
AcDbLine
 10
215.7670112801
 20
95.3023987152
 30
0.0
 11
215.7670112801
 21
95.8023987152
 31
0.0
  0
LINE
  5
118
330
1F
100
AcDbEntity
  8
0
  6
Continuous
 62
     7
370
     0
100
AcDbLine
 10
292.7670112801
 20
95.3023987152
 30
0.0
 11
292.7670112801
 21
95.8023987152
 31
0.0
  0
INSERT
  5
124
330
1F
100
AcDbEntity
  8
0
  6
Continuous
 62
     7
370
     0
100
AcDbBlockReference
  2
SW_CENTERMARKSYMBOL_3
 10
301.2670112801
 20
88.9023987152
 30
0.0
  0
INSERT
  5
130
330
1F
100
AcDbEntity
  8
0
  6
Continuous
 62
     7
370
     0
100
AcDbBlockReference
  2
SW_CENTERMARKSYMBOL_4
 10
207.2670112801
 20
88.9023987152
 30
0.0
  0
LINE
  5
131
330
1F
100
AcDbEntity
  8
0
  6
HIDDEN
 62
     7
370
     0
100
AcDbLine
 10
199.4670112801
 20
79.9523987152
 30
0.0
 11
204.0170112801
 21
79.9523987152
 31
0.0
  0
LINE
  5
132
330
1F
100
AcDbEntity
  8
0
  6
HIDDEN
 62
     7
370
     0
100
AcDbLine
 10
199.4670112801
 20
76.9523987152
 30
0.0
 11
204.0170112801
 21
76.9523987152
 31
0.0
  0
LINE
  5
133
330
1F
100
AcDbEntity
  8
0
  6
HIDDEN
 62
     7
370
     0
100
AcDbLine
 10
204.0170112801
 20
76.9523987152
 30
0.0
 11
204.0170112801
 21
79.9523987152
 31
0.0
  0
LINE
  5
134
330
1F
100
AcDbEntity
  8
0
  6
HIDDEN
 62
     7
370
     0
100
AcDbLine
 10
309.0670112801
 20
76.9523987152
 30
0.0
 11
304.5170112801
 21
76.9523987152
 31
0.0
  0
LINE
  5
135
330
1F
100
AcDbEntity
  8
0
  6
HIDDEN
 62
     7
370
     0
100
AcDbLine
 10
309.0670112801
 20
79.9523987152
 30
0.0
 11
304.5170112801
 21
79.9523987152
 31
0.0
  0
LINE
  5
136
330
1F
100
AcDbEntity
  8
0
  6
HIDDEN
 62
     7
370
     0
100
AcDbLine
 10
304.5170112801
 20
79.9523987152
 30
0.0
 11
304.5170112801
 21
76.9523987152
 31
0.0
  0
LINE
  5
137
330
1F
100
AcDbEntity
  8
0
  6
HIDDEN
 62
     7
370
     0
100
AcDbLine
 10
199.4670112801
 20
79.9523987152
 30
0.0
 11
204.0170112801
 21
79.9523987152
 31
0.0
  0
LINE
  5
138
330
1F
100
AcDbEntity
  8
0
  6
HIDDEN
 62
     7
370
     0
100
AcDbLine
 10
199.4670112801
 20
76.9523987152
 30
0.0
 11
204.0170112801
 21
76.9523987152
 31
0.0
  0
LINE
  5
139
330
1F
100
AcDbEntity
  8
0
  6
HIDDEN
 62
     7
370
     0
100
AcDbLine
 10
204.0170112801
 20
76.9523987152
 30
0.0
 11
204.0170112801
 21
79.9523987152
 31
0.0
  0
LINE
  5
13A
330
1F
100
AcDbEntity
  8
0
  6
HIDDEN
 62
     7
370
     0
100
AcDbLine
 10
309.0670112801
 20
76.9523987152
 30
0.0
 11
304.5170112801
 21
76.9523987152
 31
0.0
  0
LINE
  5
13B
330
1F
100
AcDbEntity
  8
0
  6
HIDDEN
 62
     7
370
     0
100
AcDbLine
 10
309.0670112801
 20
79.9523987152
 30
0.0
 11
304.5170112801
 21
79.9523987152
 31
0.0
  0
LINE
  5
13C
330
1F
100
AcDbEntity
  8
0
  6
HIDDEN
 62
     7
370
     0
100
AcDbLine
 10
304.5170112801
 20
79.9523987152
 30
0.0
 11
304.5170112801
 21
76.9523987152
 31
0.0
  0
LINE
  5
13D
330
1F
100
AcDbEntity
  8
0
  6
HIDDEN
 62
     7
370
     0
100
AcDbLine
 10
199.2170112801
 20
91.9023987152
 30
0.0
 11
204.0170112801
 21
91.9023987152
 31
0.0
  0
LINE
  5
13E
330
1F
100
AcDbEntity
  8
0
  6
HIDDEN
 62
     7
370
     0
100
AcDbLine
 10
199.2170112801
 20
85.9023987152
 30
0.0
 11
204.0170112801
 21
85.9023987152
 31
0.0
  0
LINE
  5
13F
330
1F
100
AcDbEntity
  8
0
  6
HIDDEN
 62
     7
370
     0
100
AcDbLine
 10
204.0170112801
 20
85.9023987152
 30
0.0
 11
204.0170112801
 21
91.9023987152
 31
0.0
  0
LINE
  5
140
330
1F
100
AcDbEntity
  8
0
  6
HIDDEN
 62
     7
370
     0
100
AcDbLine
 10
309.3170112801
 20
85.9023987152
 30
0.0
 11
304.5170112801
 21
85.9023987152
 31
0.0
  0
LINE
  5
141
330
1F
100
AcDbEntity
  8
0
  6
HIDDEN
 62
     7
370
     0
100
AcDbLine
 10
309.3170112801
 20
91.9023987152
 30
0.0
 11
304.5170112801
 21
91.9023987152
 31
0.0
  0
LINE
  5
142
330
1F
100
AcDbEntity
  8
0
  6
HIDDEN
 62
     7
370
     0
100
AcDbLine
 10
304.5170112801
 20
91.9023987152
 30
0.0
 11
304.5170112801
 21
85.9023987152
 31
0.0
  0
ARC
  5
143
330
1F
100
AcDbEntity
  8
0
  6
HIDDEN
 62
     7
370
     0
100
AcDbCircle
 10
207.2670112801
 20
88.9023987152
 30
0.0
 40
3.000000000000022
100
AcDbArc
 50
255.0
 51
195.0
  0
ARC
  5
144
330
1F
100
AcDbEntity
  8
0
  6
HIDDEN
 62
     7
370
     0
100
AcDbCircle
 10
301.2670112801
 20
88.9023987152
 30
0.0
 40
3.000000000000022
100
AcDbArc
 50
255.0
 51
195.0
  0
ARC
  5
145
330
1F
100
AcDbEntity
  8
0
  6
Continuous
 62
     7
370
     0
100
AcDbCircle
 10
207.2670112801
 20
88.9023987152
 30
0.0
 40
2.999999999999994
100
AcDbArc
 50
255.0
 51
195.0
  0
ARC
  5
146
330
1F
100
AcDbEntity
  8
0
  6
Continuous
 62
     7
370
     0
100
AcDbCircle
 10
301.2670112801
 20
88.9023987152
 30
0.0
 40
3.000000000000022
100
AcDbArc
 50
255.0
 51
195.0
  0
LINE
  5
147
330
1F
100
AcDbEntity
  8
0
  6
HIDDEN
 62
     7
370
     0
100
AcDbLine
 10
309.0675112801
 20
76.9518987152
 30
0.0
 11
304.5170112801
 21
76.9518987152
 31
0.0
  0
LINE
  5
148
330
1F
100
AcDbEntity
  8
0
  6
HIDDEN
 62
     7
370
     0
100
AcDbLine
 10
309.0675112801
 20
79.9528987152
 30
0.0
 11
304.5170112801
 21
79.9528987152
 31
0.0
  0
LINE
  5
149
330
1F
100
AcDbEntity
  8
0
  6
HIDDEN
 62
     7
370
     0
100
AcDbLine
 10
304.5170112801
 20
79.9528987152
 30
0.0
 11
304.5170112801
 21
76.9518987152
 31
0.0
  0
LINE
  5
14A
330
1F
100
AcDbEntity
  8
0
  6
HIDDEN
 62
     7
370
     0
100
AcDbLine
 10
309.0675112801
 20
76.9518987152
 30
0.0
 11
304.5170112801
 21
76.9518987152
 31
0.0
  0
LINE
  5
14B
330
1F
100
AcDbEntity
  8
0
  6
HIDDEN
 62
     7
370
     0
100
AcDbLine
 10
309.0675112801
 20
79.9528987152
 30
0.0
 11
304.5170112801
 21
79.9528987152
 31
0.0
  0
LINE
  5
14C
330
1F
100
AcDbEntity
  8
0
  6
HIDDEN
 62
     7
370
     0
100
AcDbLine
 10
304.5170112801
 20
79.9528987152
 30
0.0
 11
304.5170112801
 21
76.9518987152
 31
0.0
  0
LINE
  5
14D
330
1F
100
AcDbEntity
  8
0
  6
HIDDEN
 62
     7
370
     0
100
AcDbLine
 10
309.3170112801
 20
85.9023987152
 30
0.0
 11
304.5170112801
 21
85.9023987152
 31
0.0
  0
LINE
  5
14E
330
1F
100
AcDbEntity
  8
0
  6
HIDDEN
 62
     7
370
     0
100
AcDbLine
 10
309.3170112801
 20
91.9023987152
 30
0.0
 11
304.5170112801
 21
91.9023987152
 31
0.0
  0
LINE
  5
14F
330
1F
100
AcDbEntity
  8
0
  6
HIDDEN
 62
     7
370
     0
100
AcDbLine
 10
304.5170112801
 20
91.9023987152
 30
0.0
 11
304.5170112801
 21
85.9023987152
 31
0.0
  0
ARC
  5
150
330
1F
100
AcDbEntity
  8
0
  6
HIDDEN
 62
     7
370
     0
100
AcDbCircle
 10
301.2670112801
 20
88.9023987152
 30
0.0
 40
3.000000000000022
100
AcDbArc
 50
255.0
 51
195.0
  0
ARC
  5
151
330
1F
100
AcDbEntity
  8
0
  6
Continuous
 62
     7
370
     0
100
AcDbCircle
 10
301.2670112801
 20
88.9023987152
 30
0.0
 40
3.000000000000022
100
AcDbArc
 50
255.0
 51
195.0
  0
LINE
  5
152
330
1F
100
AcDbEntity
  8
0
  6
Continuous
 62
     7
370
     0
100
AcDbLine
 10
113.3370112801
 20
233.1823987152
 30
0.0
 11
113.3370112801
 21
216.4323987152
 31
0.0
  0
LINE
  5
153
330
1F
100
AcDbEntity
  8
0
  6
Continuous
 62
     7
370
     0
100
AcDbLine
 10
130.9370112801
 20
233.1823987152
 30
0.0
 11
113.3370112801
 21
233.1823987152
 31
0.0
  0
LINE
  5
154
330
1F
100
AcDbEntity
  8
0
  6
Continuous
 62
     7
370
     0
100
AcDbLine
 10
130.9370112801
 20
233.1823987152
 30
0.0
 11
130.9370112801
 21
216.4323987152
 31
0.0
  0
CIRCLE
  5
155
330
1F
100
AcDbEntity
  8
0
  6
Continuous
 62
     7
370
     0
100
AcDbCircle
 10
122.1370112801
 20
223.4323987152
 30
0.0
 40
2.500000000000014
  0
LINE
  5
156
330
1F
100
AcDbEntity
  8
0
  6
Continuous
 62
     7
370
     0
100
AcDbLine
 10
131.1870112801
 20
233.1823987152
 30
0.0
 11
130.9370112801
 21
233.1823987152
 31
0.0
  0
LINE
  5
157
330
1F
100
AcDbEntity
  8
0
  6
Continuous
 62
     7
370
     0
100
AcDbLine
 10
131.1870112801
 20
233.1823987152
 30
0.0
 11
131.1870112801
 21
216.4323987152
 31
0.0
  0
LINE
  5
158
330
1F
100
AcDbEntity
  8
0
  6
Continuous
 62
     7
370
     0
100
AcDbLine
 10
113.0870112801
 20
233.1823987152
 30
0.0
 11
113.0870112801
 21
216.4323987152
 31
0.0
  0
LINE
  5
159
330
1F
100
AcDbEntity
  8
0
  6
Continuous
 62
     7
370
     0
100
AcDbLine
 10
113.3370112801
 20
233.1823987152
 30
0.0
 11
113.0870112801
 21
233.1823987152
 31
0.0
  0
LINE
  5
15A
330
1F
100
AcDbEntity
  8
0
  6
Continuous
 62
     7
370
     0
100
AcDbLine
 10
155.3370112801
 20
233.1823987152
 30
0.0
 11
155.3370112801
 21
216.4323987152
 31
0.0
  0
LINE
  5
15B
330
1F
100
AcDbEntity
  8
0
  6
Continuous
 62
     7
370
     0
100
AcDbLine
 10
156.3370112801
 20
233.1823987152
 30
0.0
 11
156.3370112801
 21
216.4323987152
 31
0.0
  0
LINE
  5
15C
330
1F
100
AcDbEntity
  8
0
  6
Continuous
 62
     7
370
     0
100
AcDbLine
 10
156.3370112801
 20
233.1823987152
 30
0.0
 11
155.3370112801
 21
233.1823987152
 31
0.0
  0
LINE
  5
15D
330
1F
100
AcDbEntity
  8
0
  6
Continuous
 62
     7
370
     0
100
AcDbLine
 10
155.3370112801
 20
233.1823987152
 30
0.0
 11
131.1870112801
 21
233.1823987152
 31
0.0
  0
LINE
  5
15E
330
1F
100
AcDbEntity
  8
0
  6
Continuous
 62
     7
370
     0
100
AcDbLine
 10
88.9370112801
 20
233.1823987152
 30
0.0
 11
88.9370112801
 21
216.4323987152
 31
0.0
  0
LINE
  5
15F
330
1F
100
AcDbEntity
  8
0
  6
Continuous
 62
     7
370
     0
100
AcDbLine
 10
113.0870112801
 20
233.1823987152
 30
0.0
 11
88.9370112801
 21
233.1823987152
 31
0.0
  0
LINE
  5
160
330
1F
100
AcDbEntity
  8
0
  6
Continuous
 62
     7
370
     0
100
AcDbLine
 10
87.9370112801
 20
233.1823987152
 30
0.0
 11
87.9370112801
 21
216.4323987152
 31
0.0
  0
LINE
  5
161
330
1F
100
AcDbEntity
  8
0
  6
Continuous
 62
     7
370
     0
100
AcDbLine
 10
88.9370112801
 20
233.1823987152
 30
0.0
 11
87.9370112801
 21
233.1823987152
 31
0.0
  0
CIRCLE
  5
162
330
1F
100
AcDbEntity
  8
0
  6
Continuous
 62
     7
370
     0
100
AcDbCircle
 10
122.1370112801
 20
222.6323987152
 30
0.0
 40
0.4000000000000057
  0
LINE
  5
163
330
1F
100
AcDbEntity
  8
0
  6
Continuous
 62
     7
370
     0
100
AcDbLine
 10
137.2319602544
 20
233.1823987152
 30
0.0
 11
137.8978003253
 21
233.1823987152
 31
0.0
  0
LINE
  5
164
330
1F
100
AcDbEntity
  8
0
  6
Continuous
 62
     7
370
     0
100
AcDbLine
 10
106.3762222349
 20
233.1823987152
 30
0.0
 11
107.0420623058
 21
233.1823987152
 31
0.0
  0
LINE
  5
165
330
1F
100
AcDbEntity
  8
0
  6
Continuous
 62
     7
370
     0
100
AcDbLine
 10
134.943494598
 20
233.1823987152
 30
0.0
 11
137.6370112801
 21
233.1823987152
 31
0.0
  0
LINE
  5
166
330
1F
100
AcDbEntity
  8
0
  6
Continuous
 62
     7
370
     0
100
AcDbLine
 10
106.6370112801
 20
233.1823987152
 30
0.0
 11
109.3305279622
 21
233.1823987152
 31
0.0
  0
LINE
  5
167
330
1F
100
AcDbEntity
  8
0
  6
Continuous
 62
     7
370
     0
100
AcDbLine
 10
109.3305279622
 20
233.1823987152
 30
0.0
 11
110.3870112801
 21
233.1823987152
 31
0.0
  0
LINE
  5
168
330
1F
100
AcDbEntity
  8
0
  6
Continuous
 62
     7
370
     0
100
AcDbLine
 10
133.8870112801
 20
233.1823987152
 30
0.0
 11
134.943494598
 21
233.1823987152
 31
0.0
  0
LINE
  5
169
330
1F
100
AcDbEntity
  8
0
  6
Continuous
 62
     7
370
     0
100
AcDbLine
 10
131.1870112801
 20
122.6823987152
 30
0.0
 11
131.1870112801
 21
139.4323987152
 31
0.0
  0
LINE
  5
16A
330
1F
100
AcDbEntity
  8
0
  6
Continuous
 62
     7
370
     0
100
AcDbLine
 10
131.1870112801
 20
122.6823987152
 30
0.0
 11
130.9370112801
 21
122.6823987152
 31
0.0
  0
LINE
  5
16B
330
1F
100
AcDbEntity
  8
0
  6
Continuous
 62
     7
370
     0
100
AcDbLine
 10
130.9370112801
 20
122.6823987152
 30
0.0
 11
130.9370112801
 21
139.4323987152
 31
0.0
  0
CIRCLE
  5
16C
330
1F
100
AcDbEntity
  8
0
  6
Continuous
 62
     7
370
     0
100
AcDbCircle
 10
122.1370112801
 20
132.4323987152
 30
0.0
 40
2.499999999999986
  0
LINE
  5
16D
330
1F
100
AcDbEntity
  8
0
  6
Continuous
 62
     7
370
     0
100
AcDbLine
 10
130.9370112801
 20
122.6823987152
 30
0.0
 11
113.3370112801
 21
122.6823987152
 31
0.0
  0
LINE
  5
16E
330
1F
100
AcDbEntity
  8
0
  6
Continuous
 62
     7
370
     0
100
AcDbLine
 10
113.3370112801
 20
122.6823987152
 30
0.0
 11
113.3370112801
 21
139.4323987152
 31
0.0
  0
LINE
  5
16F
330
1F
100
AcDbEntity
  8
0
  6
Continuous
 62
     7
370
     0
100
AcDbLine
 10
113.3370112801
 20
122.6823987152
 30
0.0
 11
113.0870112801
 21
122.6823987152
 31
0.0
  0
LINE
  5
170
330
1F
100
AcDbEntity
  8
0
  6
Continuous
 62
     7
370
     0
100
AcDbLine
 10
113.0870112801
 20
122.6823987152
 30
0.0
 11
113.0870112801
 21
139.4323987152
 31
0.0
  0
LINE
  5
171
330
1F
100
AcDbEntity
  8
0
  6
Continuous
 62
     7
370
     0
100
AcDbLine
 10
156.3370112801
 20
122.6823987152
 30
0.0
 11
156.3370112801
 21
139.4323987152
 31
0.0
  0
LINE
  5
172
330
1F
100
AcDbEntity
  8
0
  6
Continuous
 62
     7
370
     0
100
AcDbLine
 10
155.3370112801
 20
122.6823987152
 30
0.0
 11
155.3370112801
 21
139.4323987152
 31
0.0
  0
LINE
  5
173
330
1F
100
AcDbEntity
  8
0
  6
Continuous
 62
     7
370
     0
100
AcDbLine
 10
156.3370112801
 20
122.6823987152
 30
0.0
 11
155.3370112801
 21
122.6823987152
 31
0.0
  0
LINE
  5
174
330
1F
100
AcDbEntity
  8
0
  6
Continuous
 62
     7
370
     0
100
AcDbLine
 10
155.3370112801
 20
122.6823987152
 30
0.0
 11
131.1870112801
 21
122.6823987152
 31
0.0
  0
LINE
  5
175
330
1F
100
AcDbEntity
  8
0
  6
Continuous
 62
     7
370
     0
100
AcDbLine
 10
88.9370112801
 20
122.6823987152
 30
0.0
 11
88.9370112801
 21
139.4323987152
 31
0.0
  0
LINE
  5
176
330
1F
100
AcDbEntity
  8
0
  6
Continuous
 62
     7
370
     0
100
AcDbLine
 10
113.0870112801
 20
122.6823987152
 30
0.0
 11
88.9370112801
 21
122.6823987152
 31
0.0
  0
LINE
  5
177
330
1F
100
AcDbEntity
  8
0
  6
Continuous
 62
     7
370
     0
100
AcDbLine
 10
87.9370112801
 20
122.6823987152
 30
0.0
 11
87.9370112801
 21
139.4323987152
 31
0.0
  0
LINE
  5
178
330
1F
100
AcDbEntity
  8
0
  6
Continuous
 62
     7
370
     0
100
AcDbLine
 10
88.9370112801
 20
122.6823987152
 30
0.0
 11
87.9370112801
 21
122.6823987152
 31
0.0
  0
CIRCLE
  5
179
330
1F
100
AcDbEntity
  8
0
  6
Continuous
 62
     7
370
     0
100
AcDbCircle
 10
122.1370112801
 20
133.2323987152
 30
0.0
 40
0.3999999999999773
  0
LINE
  5
17A
330
1F
100
AcDbEntity
  8
0
  6
Continuous
 62
     7
370
     0
100
AcDbLine
 10
106.3762222349
 20
122.6823987152
 30
0.0
 11
107.0420623058
 21
122.6823987152
 31
0.0
  0
LINE
  5
17B
330
1F
100
AcDbEntity
  8
0
  6
Continuous
 62
     7
370
     0
100
AcDbLine
 10
137.2319602544
 20
122.6823987152
 30
0.0
 11
137.8978003253
 21
122.6823987152
 31
0.0
  0
LINE
  5
17C
330
1F
100
AcDbEntity
  8
0
  6
Continuous
 62
     7
370
     0
100
AcDbLine
 10
106.6370112801
 20
122.6823987152
 30
0.0
 11
109.3305279622
 21
122.6823987152
 31
0.0
  0
LINE
  5
17D
330
1F
100
AcDbEntity
  8
0
  6
Continuous
 62
     7
370
     0
100
AcDbLine
 10
134.943494598
 20
122.6823987152
 30
0.0
 11
137.6370112801
 21
122.6823987152
 31
0.0
  0
LINE
  5
17E
330
1F
100
AcDbEntity
  8
0
  6
Continuous
 62
     7
370
     0
100
AcDbLine
 10
109.3305279622
 20
122.6823987152
 30
0.0
 11
110.3870112801
 21
122.6823987152
 31
0.0
  0
LINE
  5
17F
330
1F
100
AcDbEntity
  8
0
  6
Continuous
 62
     7
370
     0
100
AcDbLine
 10
133.8870112801
 20
122.6823987152
 30
0.0
 11
134.943494598
 21
122.6823987152
 31
0.0
  0
LINE
  5
180
330
1F
100
AcDbEntity
  8
0
  6
Continuous
 62
     7
370
     0
100
AcDbLine
 10
90.1370112801
 20
139.4323987152
 30
0.0
 11
90.1370112801
 21
216.4323987152
 31
0.0
  0
LINE
  5
181
330
1F
100
AcDbEntity
  8
0
  6
Continuous
 62
     7
370
     0
100
AcDbLine
 10
90.1370112801
 20
139.4323987152
 30
0.0
 11
89.6370112801
 21
139.4323987152
 31
0.0
  0
LINE
  5
182
330
1F
100
AcDbEntity
  8
0
  6
Continuous
 62
     7
370
     0
100
AcDbLine
 10
89.6370112801
 20
139.4323987152
 30
0.0
 11
89.6370112801
 21
216.4323987152
 31
0.0
  0
LINE
  5
183
330
1F
100
AcDbEntity
  8
0
  6
Continuous
 62
     7
370
     0
100
AcDbLine
 10
90.1370112801
 20
216.4323987152
 30
0.0
 11
89.6370112801
 21
216.4323987152
 31
0.0
  0
LINE
  5
184
330
1F
100
AcDbEntity
  8
0
  6
Continuous
 62
     7
370
     0
100
AcDbLine
 10
170.6370112801
 20
139.4323987152
 30
0.0
 11
170.6370112801
 21
216.4323987152
 31
0.0
  0
LINE
  5
185
330
1F
100
AcDbEntity
  8
0
  6
Continuous
 62
     7
370
     0
100
AcDbLine
 10
170.6370112801
 20
139.4323987152
 30
0.0
 11
154.6370112801
 21
139.4323987152
 31
0.0
  0
LINE
  5
186
330
1F
100
AcDbEntity
  8
0
  6
Continuous
 62
     7
370
     0
100
AcDbLine
 10
154.6370112801
 20
139.4323987152
 30
0.0
 11
154.6370112801
 21
216.4323987152
 31
0.0
  0
CIRCLE
  5
187
330
1F
100
AcDbEntity
  8
0
  6
Continuous
 62
     7
370
     0
100
AcDbCircle
 10
163.1370112801
 20
208.9323987152
 30
0.0
 40
4.949999999999989
  0
CIRCLE
  5
188
330
1F
100
AcDbEntity
  8
0
  6
Continuous
 62
     7
370
     0
100
AcDbCircle
 10
163.1370112801
 20
146.9323987152
 30
0.0
 40
4.949999999999989
  0
LINE
  5
189
330
1F
100
AcDbEntity
  8
0
  6
Continuous
 62
     7
370
     0
100
AcDbLine
 10
170.6370112801
 20
216.4323987152
 30
0.0
 11
154.6370112801
 21
216.4323987152
 31
0.0
  0
LINE
  5
18A
330
1F
100
AcDbEntity
  8
0
  6
Continuous
 62
     7
370
     0
100
AcDbLine
 10
89.6370112801
 20
139.4323987152
 30
0.0
 11
73.6370112801
 21
139.4323987152
 31
0.0
  0
LINE
  5
18B
330
1F
100
AcDbEntity
  8
0
  6
Continuous
 62
     7
370
     0
100
AcDbLine
 10
73.6370112801
 20
139.4323987152
 30
0.0
 11
73.6370112801
 21
216.4323987152
 31
0.0
  0
CIRCLE
  5
18C
330
1F
100
AcDbEntity
  8
0
  6
Continuous
 62
     7
370
     0
100
AcDbCircle
 10
81.1370112801
 20
208.9323987152
 30
0.0
 40
4.949999999999974
  0
CIRCLE
  5
18D
330
1F
100
AcDbEntity
  8
0
  6
Continuous
 62
     7
370
     0
100
AcDbCircle
 10
81.1370112801
 20
146.9323987152
 30
0.0
 40
4.949999999999974
  0
LINE
  5
18E
330
1F
100
AcDbEntity
  8
0
  6
Continuous
 62
     7
370
     0
100
AcDbLine
 10
89.6370112801
 20
216.4323987152
 30
0.0
 11
73.6370112801
 21
216.4323987152
 31
0.0
  0
LINE
  5
18F
330
1F
100
AcDbEntity
  8
0
  6
Continuous
 62
     7
370
     0
100
AcDbLine
 10
154.6370112801
 20
139.4323987152
 30
0.0
 11
154.1370112801
 21
139.4323987152
 31
0.0
  0
LINE
  5
190
330
1F
100
AcDbEntity
  8
0
  6
Continuous
 62
     7
370
     0
100
AcDbLine
 10
154.1370112801
 20
139.4323987152
 30
0.0
 11
154.1370112801
 21
216.4323987152
 31
0.0
  0
LINE
  5
191
330
1F
100
AcDbEntity
  8
0
  6
Continuous
 62
     7
370
     0
100
AcDbLine
 10
154.6370112801
 20
216.4323987152
 30
0.0
 11
154.1370112801
 21
216.4323987152
 31
0.0
  0
LINE
  5
192
330
1F
100
AcDbEntity
  8
0
  6
Continuous
 62
     7
370
     0
100
AcDbLine
 10
113.6370112801
 20
139.4323987152
 30
0.0
 11
113.6370112801
 21
216.4323987152
 31
0.0
  0
LINE
  5
193
330
1F
100
AcDbEntity
  8
0
  6
Continuous
 62
     7
370
     0
100
AcDbLine
 10
113.6370112801
 20
139.4323987152
 30
0.0
 11
113.1370112801
 21
139.4323987152
 31
0.0
  0
LINE
  5
194
330
1F
100
AcDbEntity
  8
0
  6
Continuous
 62
     7
370
     0
100
AcDbLine
 10
113.1370112801
 20
139.4323987152
 30
0.0
 11
113.1370112801
 21
216.4323987152
 31
0.0
  0
LINE
  5
195
330
1F
100
AcDbEntity
  8
0
  6
Continuous
 62
     7
370
     0
100
AcDbLine
 10
113.6370112801
 20
216.4323987152
 30
0.0
 11
113.1370112801
 21
216.4323987152
 31
0.0
  0
LINE
  5
196
330
1F
100
AcDbEntity
  8
0
  6
Continuous
 62
     7
370
     0
100
AcDbLine
 10
130.6370112801
 20
139.4323987152
 30
0.0
 11
130.6370112801
 21
216.4323987152
 31
0.0
  0
LINE
  5
197
330
1F
100
AcDbEntity
  8
0
  6
Continuous
 62
     7
370
     0
100
AcDbLine
 10
130.6370112801
 20
139.4323987152
 30
0.0
 11
113.6370112801
 21
139.4323987152
 31
0.0
  0
CIRCLE
  5
198
330
1F
100
AcDbEntity
  8
0
  6
Continuous
 62
     7
370
     0
100
AcDbCircle
 10
122.1370112801
 20
151.9323987152
 30
0.0
 40
4.950000000000443
  0
CIRCLE
  5
199
330
1F
100
AcDbEntity
  8
0
  6
Continuous
 62
     7
370
     0
100
AcDbCircle
 10
122.1370112801
 20
203.9323987152
 30
0.0
 40
4.950000000000415
  0
LINE
  5
19A
330
1F
100
AcDbEntity
  8
0
  6
Continuous
 62
     7
370
     0
100
AcDbLine
 10
130.6370112801
 20
216.4323987152
 30
0.0
 11
113.6370112801
 21
216.4323987152
 31
0.0
  0
LINE
  5
19B
330
1F
100
AcDbEntity
  8
0
  6
Continuous
 62
     7
370
     0
100
AcDbLine
 10
172.1370112801
 20
139.4323987152
 30
0.0
 11
172.1370112801
 21
216.4323987152
 31
0.0
  0
LINE
  5
19C
330
1F
100
AcDbEntity
  8
0
  6
Continuous
 62
     7
370
     0
100
AcDbLine
 10
172.1370112801
 20
139.4323987152
 30
0.0
 11
170.6370112801
 21
139.4323987152
 31
0.0
  0
LINE
  5
19D
330
1F
100
AcDbEntity
  8
0
  6
Continuous
 62
     7
370
     0
100
AcDbLine
 10
172.1370112801
 20
216.4323987152
 30
0.0
 11
170.6370112801
 21
216.4323987152
 31
0.0
  0
LINE
  5
19E
330
1F
100
AcDbEntity
  8
0
  6
Continuous
 62
     7
370
     0
100
AcDbLine
 10
73.6370112801
 20
139.4323987152
 30
0.0
 11
72.1370112801
 21
139.4323987152
 31
0.0
  0
LINE
  5
19F
330
1F
100
AcDbEntity
  8
0
  6
Continuous
 62
     7
370
     0
100
AcDbLine
 10
72.1370112801
 20
139.4323987152
 30
0.0
 11
72.1370112801
 21
216.4323987152
 31
0.0
  0
LINE
  5
1A0
330
1F
100
AcDbEntity
  8
0
  6
Continuous
 62
     7
370
     0
100
AcDbLine
 10
73.6370112801
 20
216.4323987152
 30
0.0
 11
72.1370112801
 21
216.4323987152
 31
0.0
  0
LINE
  5
1A1
330
1F
100
AcDbEntity
  8
0
  6
Continuous
 62
     7
370
     0
100
AcDbLine
 10
131.1370112801
 20
139.4323987152
 30
0.0
 11
131.1370112801
 21
216.4323987152
 31
0.0
  0
LINE
  5
1A2
330
1F
100
AcDbEntity
  8
0
  6
Continuous
 62
     7
370
     0
100
AcDbLine
 10
131.1370112801
 20
139.4323987152
 30
0.0
 11
130.6370112801
 21
139.4323987152
 31
0.0
  0
LINE
  5
1A3
330
1F
100
AcDbEntity
  8
0
  6
Continuous
 62
     7
370
     0
100
AcDbLine
 10
131.1370112801
 20
216.4323987152
 30
0.0
 11
130.6370112801
 21
216.4323987152
 31
0.0
  0
CIRCLE
  5
1A4
330
1F
100
AcDbEntity
  8
0
  6
Continuous
 62
     7
370
     0
100
AcDbCircle
 10
81.1370112801
 20
208.9323987152
 30
0.0
 40
4.25
  0
CIRCLE
  5
1A5
330
1F
100
AcDbEntity
  8
0
  6
Continuous
 62
     7
370
     0
100
AcDbCircle
 10
163.1370112801
 20
208.9323987152
 30
0.0
 40
4.25
  0
CIRCLE
  5
1A6
330
1F
100
AcDbEntity
  8
0
  6
Continuous
 62
     7
370
     0
100
AcDbCircle
 10
122.1370112801
 20
203.9323987152
 30
0.0
 40
4.25
  0
CIRCLE
  5
1A7
330
1F
100
AcDbEntity
  8
0
  6
Continuous
 62
     7
370
     0
100
AcDbCircle
 10
122.1370112801
 20
151.9323987152
 30
0.0
 40
4.250000000000028
  0
CIRCLE
  5
1A8
330
1F
100
AcDbEntity
  8
0
  6
Continuous
 62
     7
370
     0
100
AcDbCircle
 10
81.1370112801
 20
146.9323987152
 30
0.0
 40
4.25
  0
CIRCLE
  5
1A9
330
1F
100
AcDbEntity
  8
0
  6
Continuous
 62
     7
370
     0
100
AcDbCircle
 10
163.1370112801
 20
146.9323987152
 30
0.0
 40
4.25
  0
LINE
  5
1AA
330
1F
100
AcDbEntity
  8
0
  6
Continuous
 62
     7
370
     0
100
AcDbLine
 10
154.1370112801
 20
139.4323987152
 30
0.0
 11
131.1370112801
 21
139.4323987152
 31
0.0
  0
LINE
  5
1AB
330
1F
100
AcDbEntity
  8
0
  6
Continuous
 62
     7
370
     0
100
AcDbLine
 10
154.1370112801
 20
216.4323987152
 30
0.0
 11
131.1370112801
 21
216.4323987152
 31
0.0
  0
LINE
  5
1AC
330
1F
100
AcDbEntity
  8
0
  6
Continuous
 62
     7
370
     0
100
AcDbLine
 10
113.1370112801
 20
139.4323987152
 30
0.0
 11
90.1370112801
 21
139.4323987152
 31
0.0
  0
LINE
  5
1AD
330
1F
100
AcDbEntity
  8
0
  6
Continuous
 62
     7
370
     0
100
AcDbLine
 10
113.1370112801
 20
216.4323987152
 30
0.0
 11
90.1370112801
 21
216.4323987152
 31
0.0
  0
INSERT
  5
1B9
330
1F
100
AcDbEntity
  8
0
  6
Continuous
 62
     7
370
     0
100
AcDbBlockReference
  2
SW_CENTERMARKSYMBOL_5
 10
81.1370112801
 20
208.9323987152
 30
0.0
  0
INSERT
  5
1C5
330
1F
100
AcDbEntity
  8
0
  6
Continuous
 62
     7
370
     0
100
AcDbBlockReference
  2
SW_CENTERMARKSYMBOL_6
 10
163.1370112801
 20
146.9323987152
 30
0.0
  0
INSERT
  5
1D1
330
1F
100
AcDbEntity
  8
0
  6
Continuous
 62
     7
370
     0
100
AcDbBlockReference
  2
SW_CENTERMARKSYMBOL_7
 10
122.1370112801
 20
203.9323987152
 30
0.0
  0
INSERT
  5
1DD
330
1F
100
AcDbEntity
  8
0
  6
Continuous
 62
     7
370
     0
100
AcDbBlockReference
  2
SW_CENTERMARKSYMBOL_8
 10
122.1370112801
 20
151.9323987152
 30
0.0
  0
INSERT
  5
1E9
330
1F
100
AcDbEntity
  8
0
  6
Continuous
 62
     7
370
     0
100
AcDbBlockReference
  2
SW_CENTERMARKSYMBOL_9
 10
81.1370112801
 20
146.9323987152
 30
0.0
  0
INSERT
  5
1F5
330
1F
100
AcDbEntity
  8
0
  6
Continuous
 62
     7
370
     0
100
AcDbBlockReference
  2
SW_CENTERMARKSYMBOL_10
 10
163.1370112801
 20
208.9323987152
 30
0.0
  0
INSERT
  5
201
330
1F
100
AcDbEntity
  8
0
  6
Continuous
 62
     7
370
     0
100
AcDbBlockReference
  2
SW_CENTERMARKSYMBOL_11
 10
122.1370112801
 20
223.4323987152
 30
0.0
  0
INSERT
  5
20D
330
1F
100
AcDbEntity
  8
0
  6
Continuous
 62
     7
370
     0
100
AcDbBlockReference
  2
SW_CENTERMARKSYMBOL_12
 10
122.1370112801
 20
222.6323987152
 30
0.0
  0
INSERT
  5
219
330
1F
100
AcDbEntity
  8
0
  6
Continuous
 62
     7
370
     0
100
AcDbBlockReference
  2
SW_CENTERMARKSYMBOL_13
 10
122.1370112801
 20
132.4323987152
 30
0.0
  0
INSERT
  5
225
330
1F
100
AcDbEntity
  8
0
  6
Continuous
 62
     7
370
     0
100
AcDbBlockReference
  2
SW_CENTERMARKSYMBOL_14
 10
122.1370112801
 20
133.2323987152
 30
0.0
  0
ARC
  5
226
330
1F
100
AcDbEntity
  8
0
  6
Continuous
 62
     7
370
     0
100
AcDbCircle
 10
122.1370112801
 20
151.9323987152
 30
0.0
 40
5.000000000000007
100
AcDbArc
 50
255.0
 51
195.0
  0
ARC
  5
227
330
1F
100
AcDbEntity
  8
0
  6
Continuous
 62
     7
370
     0
100
AcDbCircle
 10
122.1370112801
 20
203.9323987152
 30
0.0
 40
5.000000000000007
100
AcDbArc
 50
255.0
 51
195.0
  0
ARC
  5
228
330
1F
100
AcDbEntity
  8
0
  6
Continuous
 62
     7
370
     0
100
AcDbCircle
 10
81.1370112801
 20
146.9323987152
 30
0.0
 40
5.000000000000017
100
AcDbArc
 50
255.0
 51
195.0
  0
ARC
  5
229
330
1F
100
AcDbEntity
  8
0
  6
Continuous
 62
     7
370
     0
100
AcDbCircle
 10
163.1370112801
 20
146.9323987152
 30
0.0
 40
5.000000000000013
100
AcDbArc
 50
255.0
 51
195.0
  0
ARC
  5
22A
330
1F
100
AcDbEntity
  8
0
  6
Continuous
 62
     7
370
     0
100
AcDbCircle
 10
163.1370112801
 20
208.9323987152
 30
0.0
 40
5.000000000000013
100
AcDbArc
 50
255.0
 51
195.0
  0
ARC
  5
22B
330
1F
100
AcDbEntity
  8
0
  6
Continuous
 62
     7
370
     0
100
AcDbCircle
 10
81.1370112801
 20
208.9323987152
 30
0.0
 40
5.000000000000017
100
AcDbArc
 50
255.0
 51
195.0
  0
SPLINE
  5
22C
330
1F
100
AcDbEntity
  8
0
  6
Continuous
 62
     7
370
     0
100
AcDbSpline
210
0.0
220
0.0
230
1.0
 70
    24
 71
     1
 72
     4
 73
     2
 74
     0
 42
0.00000001
 43
0.00000001
 40
0.0
 40
0.0
 40
1.0
 40
1.0
 10
288.5317451588455
 20
234.0952215058435
 30
0.0
 10
277.4959448395613
 20
227.7243895884911
 30
0.0
  0
SPLINE
  5
22D
330
1F
100
AcDbEntity
  8
0
  6
Continuous
 62
     7
370
     0
100
AcDbSpline
210
0.0
220
0.0
230
1.0
 70
    24
 71
     1
 72
     4
 73
     2
 74
     0
 42
0.00000001
 43
0.00000001
 40
0.0
 40
0.0
 40
1.0
 40
1.0
 10
245.3325054478355
 20
153.3736896180655
 30
0.0
 10
244.0987174034913
 20
152.6614389407476
 30
0.0
  0
SPLINE
  5
22E
330
1F
100
AcDbEntity
  8
0
  6
Continuous
 62
     7
370
     0
100
AcDbSpline
210
0.0
220
0.0
230
1.0
 70
    24
 71
     1
 72
     4
 73
     2
 74
     0
 42
0.00000001
 43
0.00000001
 40
0.0
 40
0.0
 40
1.0
 40
1.0
 10
222.2404844226065
 20
195.8260912641541
 30
0.0
 10
210.3964458377318
 20
188.9886733276389
 30
0.0
  0
SPLINE
  5
22F
330
1F
100
AcDbEntity
  8
0
  6
Continuous
 62
     7
370
     0
100
AcDbSpline
210
0.0
220
0.0
230
1.0
 70
    24
 71
     1
 72
     4
 73
     2
 74
     0
 42
0.00000001
 43
0.00000001
 40
0.0
 40
0.0
 40
1.0
 40
1.0
 10
224.6459832753939
 20
151.242699698782
 30
0.0
 10
236.4900218602685
 20
158.0801176352972
 30
0.0
  0
SPLINE
  5
230
330
1F
100
AcDbEntity
  8
0
  6
Continuous
 62
     7
370
     0
100
AcDbSpline
210
0.0
220
0.0
230
1.0
 70
    24
 71
     1
 72
     4
 73
     2
 74
     0
 42
0.00000001
 43
0.00000001
 40
0.0
 40
0.0
 40
1.0
 40
1.0
 10
236.4900218602685
 20
158.0801176352972
 30
0.0
 10
239.989308419195
 20
160.1002127668315
 30
0.0
  0
LINE
  5
231
330
1F
100
AcDbEntity
  8
0
  6
Continuous
 62
     7
370
     0
100
AcDbLine
 10
324.8466629923
 20
170.0712414952
 30
0.0
 11
324.8466629923
 21
177.6916639311
 31
0.0
  0
LINE
  5
232
330
1F
100
AcDbEntity
  8
0
  6
Continuous
 62
     7
370
     0
100
AcDbLine
 10
324.705241636
 20
169.989574144
 30
0.0
 11
324.8466629923
 21
170.0712414952
 31
0.0
  0
ARC
  5
233
330
1F
100
AcDbEntity
  8
0
  6
Continuous
 62
     7
370
     0
100
AcDbCircle
 10
335.1554854758
 20
205.6463584228
 30
0.0
 40
1.536804807572346
100
AcDbArc
 50
2.6054784857
 51
57.39452166
  0
LINE
  5
234
330
1F
100
AcDbEntity
  8
0
  6
Continuous
 62
     7
370
     0
100
AcDbLine
 10
336.6907015771
 20
176.9086594317
 30
0.0
 11
336.6907015771
 21
205.716219275
 31
0.0
  0
LINE
  5
235
330
1F
100
AcDbEntity
  8
0
  6
Continuous
 62
     7
370
     0
100
AcDbLine
 10
336.6907015771
 20
176.9086594317
 30
0.0
 11
324.8466629923
 21
170.0712414952
 31
0.0
  0
LWPOLYLINE
  5
236
330
1F
100
AcDbEntity
  8
0
  6
Continuous
 62
     7
370
     0
100
AcDbPolyline
 90
       20
 70
   128
 43
0.0
 10
328.7949218568
 20
198.1101205139
 10
328.8184108047
 20
198.1818195441
 10
329.0879879348
 20
198.8328705916
 10
329.4462742583
 20
199.4534407058
 10
329.875303803
 20
200.0124119098
 10
330.353563236
 20
200.4817550535
 10
330.8570706323
 20
200.8379353118
 10
331.3605780287
 20
201.0630923192
 10
331.8388374617
 20
201.1459357633
 10
332.2678670064
 20
201.0823115278
 10
332.6261533299
 20
200.8754099976
 10
332.89573046
 20
200.5356060793
 10
333.0630806735
 20
200.0799389603
 10
333.1198123321
 20
199.5312576927
 10
333.0630806735
 20
198.9170754462
 10
332.89573046
 20
198.2681898834
 10
332.6261533299
 20
197.6171388359
 10
332.2678670064
 20
196.9965687217
 10
331.8388374617
 20
196.4375975177
 10
331.7888253538
 20
196.3817768139
  0
LINE
  5
237
330
1F
100
AcDbEntity
  8
0
  6
Continuous
 62
     7
370
     0
100
AcDbLine
 10
318.9069660303
 20
216.7990920931
 30
0.0
 11
307.3104550458
 21
210.1045687987
 31
0.0
  0
LINE
  5
238
330
1F
100
AcDbEntity
  8
0
  6
Continuous
 62
     7
370
     0
100
AcDbLine
 10
335.983594796
 20
206.9409641428
 30
0.0
 11
318.9069660303
 21
216.7990920931
 31
0.0
  0
LWPOLYLINE
  5
239
330
1F
100
AcDbEntity
  8
0
  6
Continuous
 62
     7
370
     0
100
AcDbPolyline
 90
       13
 70
   128
 43
0.0
 10
330.9118887309
 20
196.8880215506
 10
331.1147744464
 20
197.0981890971
 10
331.4889129496
 20
197.5883564257
 10
331.7922493926
 20
198.1364809811
 10
332.0057240309
 20
198.7081220816
 10
332.1159234681
 20
199.2673614147
 10
332.1159234681
 20
199.7790599161
 10
332.0057240309
 20
200.2110656873
 10
331.7922493926
 20
200.5362342167
 10
331.4889129496
 20
200.7341339698
 10
331.1147744464
 20
200.7923301773
 10
330.693342381
 20
200.7071661575
 10
330.5939477707
 20
200.668311309
  0
LINE
  5
23A
330
1F
100
AcDbEntity
  8
0
  6
Continuous
 62
     7
370
     0
100
AcDbLine
 10
318.730189335
 20
217.10527831
 30
0.0
 11
306.9922253867
 21
210.3290959578
 31
0.0
  0
LINE
  5
23B
330
1F
100
AcDbEntity
  8
0
  6
Continuous
 62
     7
370
     0
100
AcDbLine
 10
318.9069660303
 20
216.7990920931
 30
0.0
 11
318.730189335
 21
217.10527831
 31
0.0
  0
LINE
  5
23C
330
1F
100
AcDbEntity
  8
0
  6
Continuous
 62
     7
370
     0
100
AcDbLine
 10
306.2851099861
 20
224.2896696941
 30
0.0
 11
294.8654044304
 21
217.6972140011
 31
0.0
  0
LWPOLYLINE
  5
23D
330
1F
100
AcDbEntity
  8
0
  6
Continuous
 62
     7
370
     0
100
AcDbPolyline
 90
       26
 70
   128
 43
0.0
 10
303.845591591
 20
217.7379945967
 10
303.4615034765
 20
217.4521428426
 10
303.2126243298
 20
217.1201298002
 10
303.1145921431
 20
216.76281707
 10
303.1735666391
 20
216.4026559251
 10
303.3858422335
 20
216.0622766147
 10
303.7380808699
 20
215.7630664227
 10
304.2081500994
 20
215.5238258258
 10
304.7665137434
 20
215.3595871908
 10
305.3780877607
 20
215.280670235
 10
306.0044447066
 20
215.2920336009
 10
306.6062282706
 20
215.3929632866
 10
307.1456261781
 20
215.5771175087
 10
307.5887460749
 20
215.8329251801
 10
307.9077451082
 20
216.1443129641
 10
308.0825793955
 20
216.4917152209
 10
308.1022634555
 20
216.8533033891
 10
307.9655604664
 20
217.2063575544
 10
307.6810599797
 20
217.5286940249
 10
307.2666382073
 20
217.8000592149
 10
306.7483347933
 20
218.0034022514
 10
306.1587166475
 20
218.1259463436
 10
305.5348316463
 20
218.1599915955
 10
304.9158807789
 20
218.1033988188
 10
304.3407550046
 20
217.9597239456
 10
303.845591591
 20
217.7379945967
  0
LINE
  5
23E
330
1F
100
AcDbEntity
  8
0
  6
Continuous
 62
     7
370
     0
100
AcDbLine
 10
318.730189335
 20
217.10527831
 30
0.0
 11
306.2851099861
 21
224.2896696941
 31
0.0
  0
LWPOLYLINE
  5
23F
330
1F
100
AcDbEntity
  8
0
  6
Continuous
 62
     7
370
     0
100
AcDbPolyline
 90
        3
 70
   128
 43
0.0
 10
303.845591591
 20
216.9214537848
 10
303.4615034765
 20
216.6356020307
 10
303.2154766775
 20
216.309214051
  0
ARC
  5
240
330
1F
100
AcDbEntity
  8
0
  6
Continuous
 62
     7
370
     0
100
AcDbCircle
 10
305.5654034616
 20
214.145414585
 30
0.0
 40
3.265600482144316
100
AcDbArc
 50
41.4987611598
 51
121.7790439044
  0
LINE
  5
241
330
1F
100
AcDbEntity
  8
0
  6
Continuous
 62
     7
370
     0
100
AcDbLine
 10
334.4138177417
 20
175.5938150775
 30
0.0
 11
324.705241636
 21
169.9891733898
 31
0.0
  0
LINE
  5
242
330
1F
100
AcDbEntity
  8
0
  6
Continuous
 62
     7
370
     0
100
AcDbLine
 10
334.4138177417
 20
175.5938150775
 30
0.0
 11
336.6907015771
 21
176.9086594317
 31
0.0
  0
LWPOLYLINE
  5
243
330
1F
100
AcDbEntity
  8
0
  6
Continuous
 62
     7
370
     0
100
AcDbPolyline
 90
       17
 70
   128
 43
0.0
 10
304.7648304066
 20
215.7376620227
 10
304.678121306
 20
215.6627477776
 10
304.647673119
 20
215.5743804003
 10
304.678121306
 20
215.4860130231
 10
304.7648304066
 20
215.4110987779
 10
304.8945997461
 20
215.3610426797
 10
305.047673119
 20
215.3434653155
 10
305.200746492
 20
215.3610426797
 10
305.3305158315
 20
215.4110987779
 10
305.417224932
 20
215.4860130231
 10
305.447673119
 20
215.5743804003
 10
305.417224932
 20
215.6627477776
 10
305.3305158315
 20
215.7376620227
 10
305.200746492
 20
215.7877181209
 10
305.047673119
 20
215.8052954851
 10
304.8945997461
 20
215.7877181209
 10
304.7648304066
 20
215.7376620227
  0
LINE
  5
244
330
1F
100
AcDbEntity
  8
0
  6
Continuous
 62
     7
370
     0
100
AcDbLine
 10
306.1083045573
 20
224.1876020926
 30
0.0
 11
289.0317045252
 21
234.0457134553
 31
0.0
  0
LWPOLYLINE
  5
245
330
1F
100
AcDbEntity
  8
0
  6
Continuous
 62
     7
370
     0
100
AcDbPolyline
 90
        6
 70
   128
 43
0.0
 10
289.0317045252
 20
234.0457134553
 10
288.8937548355
 20
234.1096605133
 10
288.7611064751
 20
234.1397709162
 10
288.638857046
 20
234.1348875382
 10
288.5317045252
 20
234.0951980447
 10
288.5317451588
 20
234.0952215058
  0
ARC
  5
246
330
1F
100
AcDbEntity
  8
0
  6
Continuous
 62
     7
370
     0
100
AcDbCircle
 10
248.5030004724
 20
142.5390378916
 30
0.0
 40
5.084787018872286
100
AcDbArc
 50
183.5374405982
 51
231.425945819
  0
LINE
  5
247
330
1F
100
AcDbEntity
  8
0
  6
Continuous
 62
     7
370
     0
100
AcDbLine
 10
243.4279015367
 20
142.2253026207
 30
0.0
 11
242.6808550184
 21
143.1546216846
 31
0.0
  0
LINE
  5
248
330
1F
100
AcDbEntity
  8
0
  6
Continuous
 62
     7
370
     0
100
AcDbLine
 10
242.6808550184
 20
143.1546216846
 30
0.0
 11
242.6808550184
 21
151.156721641
 31
0.0
  0
LINE
  5
249
330
1F
100
AcDbEntity
  8
0
  6
Continuous
 62
     7
370
     0
100
AcDbLine
 10
242.6808550184
 20
151.156721641
 30
0.0
 11
243.4279015367
 21
151.2235191542
 31
0.0
  0
LWPOLYLINE
  5
24A
330
1F
100
AcDbEntity
  8
0
  6
Continuous
 62
     7
370
     0
100
AcDbPolyline
 90
        9
 70
   128
 43
0.0
 10
243.4279015367
 20
151.2235191542
 10
243.4689173588
 20
151.6545630047
 10
243.5771148165
 20
152.0318798328
 10
243.7492628192
 20
152.3442018618
 10
243.9802205273
 20
152.5822022481
 10
244.2630908725
 20
152.7387736086
 10
244.5894265243
 20
152.8092402675
 10
244.9494821519
 20
152.7914978857
 10
245.3325054478
 20
152.6860763022
  0
LINE
  5
24B
330
1F
100
AcDbEntity
  8
0
  6
Continuous
 62
     7
370
     0
100
AcDbLine
 10
245.3325054478
 20
152.6860763022
 30
0.0
 11
245.3325054478
 21
154.6558478326
 31
0.0
  0
LINE
  5
24C
330
1F
100
AcDbEntity
  8
0
  6
Continuous
 62
     7
370
     0
100
AcDbLine
 10
245.3325054478
 20
154.6558478326
 30
0.0
 11
245.0460911208
 21
155.1519319975
 31
0.0
  0
LINE
  5
24D
330
1F
100
AcDbEntity
  8
0
  6
Continuous
 62
     7
370
     0
100
AcDbLine
 10
245.0460911208
 20
155.1519319975
 30
0.0
 11
245.5169111501
 21
156.909195633
 31
0.0
  0
LINE
  5
24E
330
1F
100
AcDbEntity
  8
0
  6
Continuous
 62
     7
370
     0
100
AcDbLine
 10
245.5169111501
 20
156.909195633
 30
0.0
 11
223.2277895288
 21
169.7764316582
 31
0.0
  0
LINE
  5
24F
330
1F
100
AcDbEntity
  8
0
  6
Continuous
 62
     7
370
     0
100
AcDbLine
 10
223.2277895288
 20
169.7764316582
 30
0.0
 11
223.6986095581
 21
167.4755707877
 31
0.0
  0
LINE
  5
250
330
1F
100
AcDbEntity
  8
0
  6
Continuous
 62
     7
370
     0
100
AcDbLine
 10
223.6986095581
 20
167.4755707877
 30
0.0
 11
223.4121952311
 21
167.3101735658
 31
0.0
  0
LINE
  5
251
330
1F
100
AcDbEntity
  8
0
  6
Continuous
 62
     7
370
     0
100
AcDbLine
 10
223.4121952311
 20
167.3101735658
 30
0.0
 11
223.4121952311
 21
165.3404020355
 31
0.0
  0
ARC
  5
252
330
1F
100
AcDbEntity
  8
0
  6
Continuous
 62
     7
370
     0
100
AcDbCircle
 10
220.2417002065
 20
161.3651007479
 30
0.0
 40
5.084787018863931
100
AcDbArc
 50
3.5374405982
 51
51.425945819
  0
LINE
  5
253
330
1F
100
AcDbEntity
  8
0
  6
Continuous
 62
     7
370
     0
100
AcDbLine
 10
225.3167991422
 20
161.6788360188
 30
0.0
 11
226.0638456605
 21
160.749516955
 31
0.0
  0
LINE
  5
254
330
1F
100
AcDbEntity
  8
0
  6
Continuous
 62
     7
370
     0
100
AcDbLine
 10
226.0638456605
 20
160.749516955
 30
0.0
 11
226.0638456605
 21
152.7474169985
 31
0.0
  0
LINE
  5
255
330
1F
100
AcDbEntity
  8
0
  6
Continuous
 62
     7
370
     0
100
AcDbLine
 10
226.0638456605
 20
152.7474169985
 30
0.0
 11
225.3167991422
 21
152.6806194853
 31
0.0
  0
LWPOLYLINE
  5
256
330
1F
100
AcDbEntity
  8
0
  6
Continuous
 62
     7
370
     0
100
AcDbPolyline
 90
        9
 70
   128
 43
0.0
 10
225.3167991422
 20
152.6806194853
 10
225.2757833201
 20
152.2495756348
 10
225.1675858624
 20
151.8722588067
 10
224.9954378597
 20
151.5599367778
 10
224.7644801516
 20
151.3219363915
 10
224.4816098064
 20
151.1653650309
 10
224.1552741546
 20
151.094898372
 10
223.795218527
 20
151.1126407538
 10
223.4121952311
 20
151.2180623373
  0
LINE
  5
257
330
1F
100
AcDbEntity
  8
0
  6
Continuous
 62
     7
370
     0
100
AcDbLine
 10
223.4121952311
 20
151.2180623373
 30
0.0
 11
223.4121952311
 21
149.460591418
 31
0.0
  0
LINE
  5
258
330
1F
100
AcDbEntity
  8
0
  6
Continuous
 62
     7
370
     0
100
AcDbLine
 10
212.4661822583
 20
155.7795902035
 30
0.0
 11
223.4121952311
 21
149.460591418
 31
0.0
  0
LINE
  5
259
330
1F
100
AcDbEntity
  8
0
  6
Continuous
 62
     7
370
     0
100
AcDbLine
 10
210.1892984229
 20
159.7232686778
 30
0.0
 11
212.4661822583
 21
155.7795902035
 31
0.0
  0
LINE
  5
25A
330
1F
100
AcDbEntity
  8
0
  6
Continuous
 62
     7
370
     0
100
AcDbLine
 10
210.1892984229
 20
188.5308285212
 30
0.0
 11
210.1892984229
 21
159.7232686778
 31
0.0
  0
ARC
  5
25B
330
1F
100
AcDbEntity
  8
0
  6
Continuous
 62
     7
370
     0
100
AcDbCircle
 10
210.6203727903
 20
188.6007557181
 30
0.0
 40
0.4367091974284882
100
AcDbArc
 50
50.7967147643
 51
189.2140369905
  0
LINE
  5
25C
330
1F
100
AcDbEntity
  8
0
  6
Continuous
 62
     7
370
     0
100
AcDbLine
 10
227.9730339697
 20
179.0810373269
 30
0.0
 11
210.896405204
 21
188.9391652771
 31
0.0
  0
LINE
  5
25D
330
1F
100
AcDbEntity
  8
0
  6
Continuous
 62
     7
370
     0
100
AcDbLine
 10
228.149810665
 20
179.1831215159
 30
0.0
 11
227.9730339697
 21
179.0810373269
 31
0.0
  0
LINE
  5
25E
330
1F
100
AcDbEntity
  8
0
  6
Continuous
 62
     7
370
     0
100
AcDbLine
 10
240.5948900139
 20
171.9987301318
 30
0.0
 11
228.149810665
 21
179.1831215159
 31
0.0
  0
LINE
  5
25F
330
1F
100
AcDbEntity
  8
0
  6
Continuous
 62
     7
370
     0
100
AcDbLine
 10
240.7716667092
 20
171.6925439149
 30
0.0
 11
240.5948900139
 21
171.9987301318
 31
0.0
  0
LINE
  5
260
330
1F
100
AcDbEntity
  8
0
  6
Continuous
 62
     7
370
     0
100
AcDbLine
 10
257.8482954748
 20
161.8344159646
 30
0.0
 11
240.7716667092
 21
171.6925439149
 31
0.0
  0
ARC
  5
261
330
1F
100
AcDbEntity
  8
0
  6
Continuous
 62
     7
370
     0
100
AcDbCircle
 10
257.0201861547
 20
160.5398102446
 30
0.0
 40
1.536804807571882
100
AcDbArc
 50
2.6054784857
 51
57.39452166
  0
LINE
  5
262
330
1F
100
AcDbEntity
  8
0
  6
Continuous
 62
     7
370
     0
100
AcDbLine
 10
258.555402256
 20
131.8021112535
 30
0.0
 11
258.555402256
 21
160.6096710968
 31
0.0
  0
LINE
  5
263
330
1F
100
AcDbEntity
  8
0
  6
Continuous
 62
     7
370
     0
100
AcDbLine
 10
256.2785184206
 20
130.4872668993
 30
0.0
 11
258.555402256
 21
131.8021112535
 31
0.0
  0
LINE
  5
264
330
1F
100
AcDbEntity
  8
0
  6
Continuous
 62
     7
370
     0
100
AcDbLine
 10
245.3325054478
 20
136.8062656848
 30
0.0
 11
256.2785184206
 21
130.4872668993
 31
0.0
  0
LINE
  5
265
330
1F
100
AcDbEntity
  8
0
  6
Continuous
 62
     7
370
     0
100
AcDbLine
 10
245.3325054478
 20
136.8062656848
 30
0.0
 11
245.3325054478
 21
138.5637366041
 31
0.0
  0
LWPOLYLINE
  5
266
330
1F
100
AcDbEntity
  8
0
  6
Continuous
 62
     7
370
     0
100
AcDbPolyline
 90
       23
 70
   128
 43
0.0
 10
215.2451119083
 20
172.9557869372
 10
215.1892584619
 20
172.5394404906
 10
215.0262230367
 20
172.2213109737
 10
214.7692137932
 20
172.0271713478
 10
214.4390520918
 20
171.9727496509
 10
214.0624856701
 20
172.0624548052
 10
213.6700217
 20
172.2890194325
 10
213.2934552783
 20
172.6340886143
 10
212.9632935769
 20
173.0697068976
 10
212.7062843334
 20
173.5605830799
 10
212.5432489082
 20
174.0669492921
 10
212.4873954617
 20
174.5477827552
 10
212.5432489082
 20
174.9641292018
 10
212.7062843334
 20
175.2822587187
 10
212.9632935769
 20
175.4763983446
 10
213.2934552783
 20
175.5308200415
 10
213.6700217
 20
175.4411148873
 10
214.0624856701
 20
175.2145502599
 10
214.4390520918
 20
174.8694810781
 10
214.7692137932
 20
174.4338627948
 10
215.0262230367
 20
173.9429866126
 10
215.1892584619
 20
173.4366204003
 10
215.2451119083
 20
172.9557869372
  0
LWPOLYLINE
  5
267
330
1F
100
AcDbEntity
  8
0
  6
Continuous
 62
     7
370
     0
100
AcDbPolyline
 90
       29
 70
   128
 43
0.0
 10
236.6350920392
 20
169.1404657301
 10
236.5783603806
 20
168.5917844624
 10
236.4110101671
 20
168.1361173434
 10
236.141433037
 20
167.7963134252
 10
235.7831467135
 20
167.5894118949
 10
235.3541171688
 20
167.5257876594
 10
234.8758577358
 20
167.6086311035
 10
234.3723503394
 20
167.8337881109
 10
233.8688429431
 20
168.1899683692
 10
233.3905835101
 20
168.6593115129
 10
232.9615539654
 20
169.2182827169
 10
232.6032676418
 20
169.8388528311
 10
232.3336905118
 20
170.4899038787
 10
232.1663402983
 20
171.1387894415
 10
232.1096086396
 20
171.7529716879
 10
232.1663402983
 20
172.3016529555
 10
232.3336905118
 20
172.7573200745
 10
232.6032676418
 20
173.0971239928
 10
232.9615539654
 20
173.304025523
 10
233.3905835101
 20
173.3676497585
 10
233.8688429431
 20
173.2848063144
 10
234.3723503394
 20
173.059649307
 10
234.8758577358
 20
172.7034690487
 10
235.3541171688
 20
172.2341259051
 10
235.7831467135
 20
171.675154701
 10
236.141433037
 20
171.0545845868
 10
236.4110101671
 20
170.4035335393
 10
236.5783603806
 20
169.7546479765
 10
236.6350920392
 20
169.1404657301
  0
LWPOLYLINE
  5
268
330
1F
100
AcDbEntity
  8
0
  6
Continuous
 62
     7
370
     0
100
AcDbPolyline
 90
       23
 70
   128
 43
0.0
 10
256.2573052172
 20
149.2799516943
 10
256.2014517707
 20
148.8636052478
 10
256.0384163455
 20
148.5454757308
 10
255.781407102
 20
148.3513361049
 10
255.4512454006
 20
148.296914408
 10
255.0746789789
 20
148.3866195623
 10
254.6822150088
 20
148.6131841897
 10
254.3056485871
 20
148.9582533715
 10
253.9754868857
 20
149.3938716548
 10
253.7184776422
 20
149.884747837
 10
253.555442217
 20
150.3911140492
 10
253.4995887705
 20
150.8719475124
 10
253.555442217
 20
151.2882939589
 10
253.7184776422
 20
151.6064234759
 10
253.9754868857
 20
151.8005631018
 10
254.3056485871
 20
151.8549847987
 10
254.6822150088
 20
151.7652796444
 10
255.0746789789
 20
151.538715017
 10
255.4512454006
 20
151.1936458352
 10
255.781407102
 20
150.7580275519
 10
256.0384163455
 20
150.2671513697
 10
256.2014517707
 20
149.7607851575
 10
256.2573052172
 20
149.2799516943
  0
LINE
  5
269
330
1F
100
AcDbEntity
  8
0
  6
Continuous
 62
     7
370
     0
100
AcDbLine
 10
258.555402256
 20
160.6096710968
 30
0.0
 11
270.3994408409
 21
167.4470890333
 31
0.0
  0
LINE
  5
26A
330
1F
100
AcDbEntity
  8
0
  6
Continuous
 62
     7
370
     0
100
AcDbLine
 10
257.8482954748
 20
161.8344159646
 30
0.0
 11
269.6923340597
 21
168.6718339011
 31
0.0
  0
ARC
  5
26B
330
1F
100
AcDbEntity
  8
0
  6
Continuous
 62
     7
370
     0
100
AcDbCircle
 10
268.8642247395
 20
167.3772281811
 30
0.0
 40
1.536804807572143
100
AcDbArc
 50
2.6054784857
 51
57.39452166
  0
LINE
  5
26C
330
1F
100
AcDbEntity
  8
0
  6
Continuous
 62
     7
370
     0
100
AcDbLine
 10
258.555402256
 20
131.8021112535
 30
0.0
 11
270.3994408409
 21
138.63952919
 31
0.0
  0
LINE
  5
26D
330
1F
100
AcDbEntity
  8
0
  6
Continuous
 62
     7
370
     0
100
AcDbLine
 10
270.3994408409
 20
138.63952919
 30
0.0
 11
270.3994408409
 21
167.4470890333
 31
0.0
  0
LWPOLYLINE
  5
26E
330
1F
100
AcDbEntity
  8
0
  6
Continuous
 62
     7
370
     0
100
AcDbPolyline
 90
       29
 70
   128
 43
0.0
 10
262.126291501
 20
158.5475704792
 10
262.1830231596
 20
159.1617527256
 10
262.3503733732
 20
159.8106382884
 10
262.6199505032
 20
160.4616893359
 10
262.9782368267
 20
161.0822594501
 10
263.4072663714
 20
161.6412306542
 10
263.8855258045
 20
162.1105737978
 10
264.3890332008
 20
162.4667540561
 10
264.8925405972
 20
162.6919110635
 10
265.3708000302
 20
162.7747545076
 10
265.7998295749
 20
162.7111302721
 10
266.1581158984
 20
162.5042287419
 10
266.4276930284
 20
162.1644248236
 10
266.595043242
 20
161.7087577046
 10
266.6517749006
 20
161.160076437
 10
266.595043242
 20
160.5458941906
 10
266.4276930284
 20
159.8970086278
 10
266.1581158984
 20
159.2459575802
 10
265.7998295749
 20
158.625387466
 10
265.3708000302
 20
158.066416262
 10
264.8925405972
 20
157.5970731183
 10
264.3890332008
 20
157.24089286
 10
263.8855258045
 20
157.0157358526
 10
263.4072663714
 20
156.9328924085
 10
262.9782368267
 20
156.996516644
 10
262.6199505032
 20
157.2034181743
 10
262.3503733732
 20
157.5432220925
 10
262.1830231596
 20
157.9988892115
 10
262.126291501
 20
158.5475704792
  0
LINE
  5
26F
330
1F
100
AcDbEntity
  8
0
  6
Continuous
 62
     7
370
     0
100
AcDbLine
 10
240.7716667092
 20
171.6925439149
 30
0.0
 11
252.6157052941
 21
178.5299618514
 31
0.0
  0
LINE
  5
270
330
1F
100
AcDbEntity
  8
0
  6
Continuous
 62
     7
370
     0
100
AcDbLine
 10
269.6923340597
 20
168.6718339011
 30
0.0
 11
252.6157052941
 21
178.5299618514
 31
0.0
  0
LWPOLYLINE
  5
271
330
1F
100
AcDbEntity
  8
0
  6
Continuous
 62
     7
370
     0
100
AcDbPolyline
 90
       20
 70
   128
 43
0.0
 10
262.1415994539
 20
158.8598303436
 10
262.1818291505
 20
158.6434537541
 10
262.3449524643
 20
158.2618576042
 10
262.6054118047
 20
157.9982447972
 10
262.9468415533
 20
157.8691790953
 10
263.3477884234
 20
157.8827701712
 10
263.7830594486
 20
158.0381640476
 10
264.2253049495
 20
158.3255967557
 10
264.6467370149
 20
158.7270078415
 10
265.0208755181
 20
159.21717517
 10
265.324211961
 20
159.7652997254
 10
265.5376865994
 20
160.336940826
 10
265.6478860365
 20
160.896180159
 10
265.6478860365
 20
161.4078786605
 10
265.5376865994
 20
161.8398844316
 10
265.324211961
 20
162.165052961
 10
265.0208755181
 20
162.3629527142
 10
264.6467370149
 20
162.4211489217
 10
264.2253049495
 20
162.3359849018
 10
264.125910339
 20
162.2971300532
  0
LWPOLYLINE
  5
272
330
1F
100
AcDbEntity
  8
0
  6
Continuous
 62
     7
370
     0
100
AcDbPolyline
 90
       14
 70
   128
 43
0.0
 10
255.1538586671
 20
151.4771271294
 10
255.1315355456
 20
151.4830427351
 10
254.8407629432
 20
151.4837068643
 10
254.621928863
 20
151.3328367286
 10
254.50458806
 20
151.0508081757
 10
254.50458806
 20
150.6757107246
 10
254.621928863
 20
150.2582033644
 10
254.8407629432
 20
149.8546727777
 10
255.1315355456
 20
149.5196180061
 10
255.454976219
 20
149.2982900534
 10
255.7674025082
 20
149.2205804857
 10
256.0266195116
 20
149.296984411
 10
256.1976185365
 20
149.5171830557
 10
256.229564797
 20
149.6137475573
  0
LINE
  5
273
330
1F
100
AcDbEntity
  8
0
  6
Continuous
 62
     7
370
     0
100
AcDbLine
 10
240.5948900139
 20
171.9987301318
 30
0.0
 11
252.4389285988
 21
178.8361480684
 31
0.0
  0
LINE
  5
274
330
1F
100
AcDbEntity
  8
0
  6
Continuous
 62
     7
370
     0
100
AcDbLine
 10
252.6157052941
 20
178.5299618514
 30
0.0
 11
252.4389285988
 21
178.8361480684
 31
0.0
  0
LWPOLYLINE
  5
275
330
1F
100
AcDbEntity
  8
0
  6
Continuous
 62
     7
370
     0
100
AcDbPolyline
 90
       26
 70
   128
 43
0.0
 10
243.034408409
 20
178.5504052292
 10
242.5392449954
 20
178.3286758803
 10
241.9641192211
 20
178.1850010072
 10
241.3451683537
 20
178.1284082304
 10
240.7212833525
 20
178.1624534823
 10
240.1316652067
 20
178.2849975745
 10
239.6133617927
 20
178.488340611
 10
239.1989400203
 20
178.759705801
 10
238.9144395336
 20
179.0820422716
 10
238.7777365445
 20
179.4350964368
 10
238.7974206045
 20
179.796684605
 10
238.9722548918
 20
180.1440868619
 10
239.2912539251
 20
180.4554746458
 10
239.7343738219
 20
180.7112823172
 10
240.2737717294
 20
180.8954365393
 10
240.8755552934
 20
180.996366225
 10
241.5019122393
 20
181.007729591
 10
242.1134862566
 20
180.9288126351
 10
242.6718499006
 20
180.7645740001
 10
243.1419191301
 20
180.5253334033
 10
243.4941577665
 20
180.2261232113
 10
243.7064333609
 20
179.8857439008
 10
243.7654078569
 20
179.5255827559
 10
243.6673756702
 20
179.1682700258
 10
243.4184965235
 20
178.8362569834
 10
243.034408409
 20
178.5504052292
  0
LINE
  5
276
330
1F
100
AcDbEntity
  8
0
  6
Continuous
 62
     7
370
     0
100
AcDbLine
 10
228.149810665
 20
179.1831215159
 30
0.0
 11
239.9938492499
 21
186.0205394524
 31
0.0
  0
LINE
  5
277
330
1F
100
AcDbEntity
  8
0
  6
Continuous
 62
     7
370
     0
100
AcDbLine
 10
252.4389285988
 20
178.8361480684
 30
0.0
 11
239.9938492499
 21
186.0205394524
 31
0.0
  0
LWPOLYLINE
  5
278
330
1F
100
AcDbEntity
  8
0
  6
Continuous
 62
     7
370
     0
100
AcDbPolyline
 90
       20
 70
   128
 43
0.0
 10
234.6354732012
 20
172.8900253041
 10
234.5360785907
 20
172.9288801527
 10
234.1146465254
 20
173.0140441726
 10
233.7405080222
 20
172.9558479651
 10
233.4371715792
 20
172.7579482119
 10
233.2236969409
 20
172.4327796825
 10
233.1134975037
 20
172.0007739114
 10
233.1134975037
 20
171.4890754099
 10
233.2236969409
 20
170.9298360769
 10
233.4371715792
 20
170.3581949763
 10
233.7405080222
 20
169.8100704209
 10
234.1146465254
 20
169.3199030924
 10
234.5360785907
 20
168.9184920066
 10
234.9783240917
 20
168.6310592985
 10
235.4135951168
 20
168.4756654221
 10
235.814541987
 20
168.4620743462
 10
236.1559717356
 20
168.5911400481
 10
236.4164310759
 20
168.8547528551
 10
236.5795543897
 20
169.236349005
 10
236.6197840863
 20
169.4527255945
  0
LINE
  5
279
330
1F
100
AcDbEntity
  8
0
  6
Continuous
 62
     7
370
     0
100
AcDbLine
 10
256.2785184206
 20
130.4872668993
 30
0.0
 11
268.1225570055
 21
137.3246848358
 31
0.0
  0
LINE
  5
27A
330
1F
100
AcDbEntity
  8
0
  6
Continuous
 62
     7
370
     0
100
AcDbLine
 10
268.1225570055
 20
137.3246848358
 30
0.0
 11
270.3994408409
 21
138.63952919
 31
0.0
  0
ARC
  5
27B
330
1F
100
AcDbEntity
  8
0
  6
Continuous
 62
     7
370
     0
100
AcDbCircle
 10
241.266641456
 20
177.1683889656
 30
0.0
 40
3.118796952164054
100
AcDbArc
 50
39.7494166648
 51
140.2505833352
  0
LWPOLYLINE
  5
27C
330
1F
100
AcDbEntity
  8
0
  6
Continuous
 62
     7
370
     0
100
AcDbPolyline
 90
       17
 70
   128
 43
0.0
 10
242.1151695934
 20
178.9176561795
 10
242.201878694
 20
178.9925704246
 10
242.232326881
 20
179.0809378018
 10
242.201878694
 20
179.1693051791
 10
242.1151695934
 20
179.2442194242
 10
241.9854002539
 20
179.2942755225
 10
241.832326881
 20
179.3118528867
 10
241.679253508
 20
179.2942755225
 10
241.5494841685
 20
179.2442194242
 10
241.462775068
 20
179.1693051791
 10
241.432326881
 20
179.0809378018
 10
241.462775068
 20
178.9925704246
 10
241.5494841685
 20
178.9176561795
 10
241.679253508
 20
178.8676000812
 10
241.832326881
 20
178.850022717
 10
241.9854002539
 20
178.8676000812
 10
242.1151695934
 20
178.9176561795
  0
LINE
  5
27D
330
1F
100
AcDbEntity
  8
0
  6
Continuous
 62
     7
370
     0
100
AcDbLine
 10
210.896405204
 20
188.9391652771
 30
0.0
 11
222.7404437889
 21
195.7765832137
 31
0.0
  0
LINE
  5
27E
330
1F
100
AcDbEntity
  8
0
  6
Continuous
 62
     7
370
     0
100
AcDbLine
 10
239.8170438211
 20
185.9184718509
 30
0.0
 11
222.7404437889
 21
195.7765832137
 31
0.0
  0
LINE
  5
27F
330
1F
100
AcDbEntity
  8
0
  6
Continuous
 62
     7
370
     0
100
AcDbLine
 10
243.4606404786
 20
151.6068822053
 30
0.0
 11
242.6808550184
 21
151.156721641
 31
0.0
  0
LINE
  5
280
330
1F
100
AcDbEntity
  8
0
  6
Continuous
 62
     7
370
     0
100
AcDbLine
 10
225.456019434
 20
168.4901019142
 30
0.0
 11
223.6986095581
 21
167.4755707877
 31
0.0
  0
LINE
  5
281
330
1F
100
AcDbEntity
  8
0
  6
Continuous
 62
     7
370
     0
100
AcDbLine
 10
225.4560659882
 20
168.490075039
 30
0.0
 11
223.4121952311
 21
167.3101735658
 31
0.0
  0
LINE
  5
282
330
1F
100
AcDbEntity
  8
0
  6
Continuous
 62
     7
370
     0
100
AcDbLine
 10
231.2857777943
 20
165.1246540484
 30
0.0
 11
225.3167991422
 21
161.6788360188
 31
0.0
  0
LINE
  5
283
330
1F
100
AcDbEntity
  8
0
  6
Continuous
 62
     7
370
     0
100
AcDbLine
 10
227.162123028
 20
167.5051892738
 30
0.0
 11
223.4121952311
 21
165.3404020355
 31
0.0
  0
LWPOLYLINE
  5
284
330
1F
100
AcDbEntity
  8
0
  6
Continuous
 62
     7
370
     0
100
AcDbPolyline
 90
        6
 70
   128
 43
0.0
 10
222.7404437889
 20
195.7765832137
 10
222.6024940993
 20
195.8405302716
 10
222.4698457389
 20
195.8706406746
 10
222.3475963097
 20
195.8657572965
 10
222.2404437889
 20
195.826067803
 10
222.2404844226
 20
195.8260912642
  0
LINE
  5
285
330
1F
100
AcDbEntity
  8
0
  6
Continuous
 62
     7
370
     0
100
AcDbLine
 10
232.4642021837
 20
164.4443641287
 30
0.0
 11
226.0638456605
 21
160.749516955
 31
0.0
  0
LINE
  5
286
330
1F
100
AcDbEntity
  8
0
  6
Continuous
 62
     7
370
     0
100
AcDbLine
 10
237.9078842454
 20
159.584834935
 30
0.0
 11
226.0638456605
 21
152.7474169985
 31
0.0
  0
LINE
  5
287
330
1F
100
AcDbEntity
  8
0
  6
Continuous
 62
     7
370
     0
100
AcDbLine
 10
237.9078842454
 20
161.301793366
 30
0.0
 11
237.9078842454
 21
159.584834935
 31
0.0
  0
LWPOLYLINE
  5
288
330
1F
100
AcDbEntity
  8
0
  6
Continuous
 62
     7
370
     0
100
AcDbPolyline
 90
       14
 70
   128
 43
0.0
 10
214.1416653582
 20
175.1529623723
 10
214.1193422368
 20
175.1588779779
 10
213.8285696344
 20
175.1595421072
 10
213.6097355542
 20
175.0086719715
 10
213.4923947512
 20
174.7266434186
 10
213.4923947512
 20
174.3515459674
 10
213.6097355542
 20
173.9340386073
 10
213.8285696344
 20
173.5305080205
 10
214.1193422368
 20
173.195453249
 10
214.4427829102
 20
172.9741252962
 10
214.7552091994
 20
172.8964157286
 10
215.0144262028
 20
172.9728196539
 10
215.1854252277
 20
173.1930182985
 10
215.2173714881
 20
173.2895828002
  0
ARC
  5
289
330
1F
100
AcDbEntity
  8
0
  6
Continuous
 62
     7
370
     0
100
AcDbCircle
 10
235.6956653921
 20
159.2810739472
 30
0.0
 40
1.439895225936182
100
AcDbArc
 50
303.4821092928
 51
354.1644382287
  0
LINE
  5
28A
330
1F
100
AcDbEntity
  8
0
  6
Continuous
 62
     7
370
     0
100
AcDbLine
 10
235.2562338159
 20
156.2980093545
 30
0.0
 11
223.4121952311
 21
149.460591418
 31
0.0
  0
LINE
  5
28B
330
1F
100
AcDbEntity
  8
0
  6
Continuous
 62
     7
370
     0
100
AcDbLine
 10
235.2562338159
 20
157.367866958
 30
0.0
 11
235.2562338159
 21
156.2980093545
 31
0.0
  0
LINE
  5
28C
330
1F
100
AcDbEntity
  8
0
  6
Continuous
 62
     7
370
     0
100
AcDbLine
 10
268.0871959197
 20
137.3042713155
 30
0.0
 11
268.1366991411
 21
137.2756937141
 31
0.0
  0
LINE
  5
28D
330
1F
100
AcDbEntity
  8
0
  6
Continuous
 62
     7
370
     0
100
AcDbLine
 10
237.9078842454
 20
159.584834935
 30
0.0
 11
237.9078842454
 21
161.301793366
 31
0.0
  0
ARC
  5
28E
330
1F
100
AcDbEntity
  8
0
  6
Continuous
 62
     7
370
     0
100
AcDbCircle
 10
235.6609349849
 20
159.3020881522
 30
0.0
 40
1.476684458903198
100
AcDbArc
 50
304.156246203
 51
353.4903013185
  0
LINE
  5
28F
330
1F
100
AcDbEntity
  8
0
  6
Continuous
 62
     7
370
     0
100
AcDbLine
 10
235.2562338159
 20
156.2571823139
 30
0.0
 11
235.2562338159
 21
157.367866958
 31
0.0
  0
LINE
  5
290
330
1F
100
AcDbEntity
  8
0
  6
Continuous
 62
     7
370
     0
100
AcDbLine
 10
235.2208727302
 20
156.2775958342
 30
0.0
 11
235.2562338159
 21
156.2571823139
 31
0.0
  0
LINE
  5
291
330
1F
100
AcDbEntity
  8
0
  6
Continuous
 62
     7
370
     0
100
AcDbLine
 10
211.2146032556
 20
193.3258792725
 30
0.0
 11
214.562062105
 21
191.393432412
 31
0.0
  0
LINE
  5
292
330
1F
100
AcDbEntity
  8
0
  6
Continuous
 62
     7
370
     0
100
AcDbLine
 10
211.2146032556
 20
196.59204252
 30
0.0
 11
211.2146032556
 21
193.3258792725
 31
0.0
  0
LINE
  5
293
330
1F
100
AcDbEntity
  8
0
  6
Continuous
 62
     7
370
     0
100
AcDbLine
 10
210.861049865
 20
197.2044149539
 30
0.0
 11
211.2146032556
 21
196.59204252
 31
0.0
  0
LINE
  5
294
330
1F
100
AcDbEntity
  8
0
  6
Continuous
 62
     7
370
     0
100
AcDbLine
 10
210.861049865
 20
202.1036598252
 30
0.0
 11
210.861049865
 21
197.2044149539
 31
0.0
  0
LINE
  5
295
330
1F
100
AcDbEntity
  8
0
  6
Continuous
 62
     7
370
     0
100
AcDbLine
 10
211.9217100368
 20
202.7161649592
 30
0.0
 11
210.861049865
 21
202.1036598252
 31
0.0
  0
LINE
  5
296
330
1F
100
AcDbEntity
  8
0
  6
Continuous
 62
     7
370
     0
100
AcDbLine
 10
223.2354185358
 20
196.1849000646
 30
0.0
 11
211.9217100368
 21
202.7161649592
 31
0.0
  0
LINE
  5
297
330
1F
100
AcDbEntity
  8
0
  6
Continuous
 62
     7
370
     0
100
AcDbLine
 10
223.5889719263
 20
195.5725276307
 30
0.0
 11
223.2354185358
 21
196.1849000646
 31
0.0
  0
LINE
  5
298
330
1F
100
AcDbEntity
  8
0
  6
Continuous
 62
     7
370
     0
100
AcDbLine
 10
239.8524278936
 20
186.1838343448
 30
0.0
 11
223.5889719263
 21
195.5725276307
 31
0.0
  0
LINE
  5
299
330
1F
100
AcDbEntity
  8
0
  6
Continuous
 62
     7
370
     0
100
AcDbLine
 10
240.2059812842
 20
186.3880027228
 30
0.0
 11
239.8524278936
 21
186.1838343448
 31
0.0
  0
LINE
  5
29A
330
1F
100
AcDbEntity
  8
0
  6
Continuous
 62
     7
370
     0
100
AcDbLine
 10
252.2267965644
 20
179.4485337723
 30
0.0
 11
240.2059812842
 21
186.3880027228
 31
0.0
  0
LINE
  5
29B
330
1F
100
AcDbEntity
  8
0
  6
Continuous
 62
     7
370
     0
100
AcDbLine
 10
252.580349955
 20
178.8361613384
 30
0.0
 11
252.2267965644
 21
179.4485337723
 31
0.0
  0
LINE
  5
29C
330
1F
100
AcDbEntity
  8
0
  6
Continuous
 62
     7
370
     0
100
AcDbLine
 10
268.8438059223
 20
169.4474680524
 30
0.0
 11
252.580349955
 21
178.8361613384
 31
0.0
  0
LINE
  5
29D
330
1F
100
AcDbEntity
  8
0
  6
Continuous
 62
     7
370
     0
100
AcDbLine
 10
269.1973593129
 20
169.6516364304
 30
0.0
 11
268.8438059223
 21
169.4474680524
 31
0.0
  0
LINE
  5
29E
330
1F
100
AcDbEntity
  8
0
  6
Continuous
 62
     7
370
     0
100
AcDbLine
 10
280.5110678119
 20
163.1203715358
 30
0.0
 11
269.1973593129
 21
169.6516364304
 31
0.0
  0
LINE
  5
29F
330
1F
100
AcDbEntity
  8
0
  6
Continuous
 62
     7
370
     0
100
AcDbLine
 10
281.5717279836
 20
161.2832542341
 30
0.0
 11
280.5110678119
 21
163.1203715358
 31
0.0
  0
LINE
  5
2A0
330
1F
100
AcDbEntity
  8
0
  6
Continuous
 62
     7
370
     0
100
AcDbLine
 10
281.5717279836
 20
152.7095757093
 30
0.0
 11
281.5717279836
 21
161.2832542341
 31
0.0
  0
LINE
  5
2A1
330
1F
100
AcDbEntity
  8
0
  6
Continuous
 62
     7
370
     0
100
AcDbLine
 10
270.3994408409
 20
159.1591997927
 30
0.0
 11
281.5717279836
 21
152.7095757093
 31
0.0
  0
LINE
  5
2A2
330
1F
100
AcDbEntity
  8
0
  6
Continuous
 62
     7
370
     0
100
AcDbLine
 10
269.1973593129
 20
137.888198848
 30
0.0
 11
269.1973593129
 21
137.9453567049
 31
0.0
  0
LINE
  5
2A3
330
1F
100
AcDbEntity
  8
0
  6
Continuous
 62
     7
370
     0
100
AcDbLine
 10
268.1366991411
 20
137.2756937141
 30
0.0
 11
269.1973593129
 21
137.888198848
 31
0.0
  0
LINE
  5
2A4
330
1F
100
AcDbEntity
  8
0
  6
Continuous
 62
     7
370
     0
100
AcDbLine
 10
281.5717279836
 20
161.2832542341
 30
0.0
 11
336.018950135
 21
192.7149665393
 31
0.0
  0
LINE
  5
2A5
330
1F
100
AcDbEntity
  8
0
  6
Continuous
 62
     7
370
     0
100
AcDbLine
 10
280.5110678119
 20
163.1203715358
 30
0.0
 11
334.9582899632
 21
194.552083841
 31
0.0
  0
LINE
  5
2A6
330
1F
100
AcDbEntity
  8
0
  6
Continuous
 62
     7
370
     0
100
AcDbLine
 10
336.018950135
 20
192.7149665393
 30
0.0
 11
334.9582899632
 21
194.552083841
 31
0.0
  0
LINE
  5
2A7
330
1F
100
AcDbEntity
  8
0
  6
Continuous
 62
     7
370
     0
100
AcDbLine
 10
292.8854364826
 20
151.5653569722
 30
0.0
 11
292.8854364826
 21
159.2408406039
 31
0.0
  0
LINE
  5
2A8
330
1F
100
AcDbEntity
  8
0
  6
Continuous
 62
     7
370
     0
100
AcDbLine
 10
281.5717279836
 20
152.7095757093
 30
0.0
 11
292.8854364826
 21
159.2408406039
 31
0.0
  0
LINE
  5
2A9
330
1F
100
AcDbEntity
  8
0
  6
Continuous
 62
     7
370
     0
100
AcDbLine
 10
336.018950135
 20
184.1412880145
 30
0.0
 11
336.018950135
 21
192.7149665393
 31
0.0
  0
LINE
  5
2AA
330
1F
100
AcDbEntity
  8
0
  6
Continuous
 62
     7
370
     0
100
AcDbLine
 10
324.705241636
 20
177.6100231199
 30
0.0
 11
336.018950135
 21
184.1412880145
 31
0.0
  0
LINE
  5
2AB
330
1F
100
AcDbEntity
  8
0
  6
Continuous
 62
     7
370
     0
100
AcDbLine
 10
324.705241636
 20
169.9345394882
 30
0.0
 11
324.705241636
 21
177.6100231199
 31
0.0
  0
LINE
  5
2AC
330
1F
100
AcDbEntity
  8
0
  6
Continuous
 62
     7
370
     0
100
AcDbLine
 10
292.8854364826
 20
151.5653569722
 30
0.0
 11
324.705241636
 21
169.9345394882
 31
0.0
  0
LINE
  5
2AD
330
1F
100
AcDbEntity
  8
0
  6
Continuous
 62
     7
370
     0
100
AcDbLine
 10
269.1973593129
 20
169.6516364304
 30
0.0
 11
323.6445814642
 21
201.0833487356
 31
0.0
  0
LINE
  5
2AE
330
1F
100
AcDbEntity
  8
0
  6
Continuous
 62
     7
370
     0
100
AcDbLine
 10
334.9582899632
 20
194.552083841
 30
0.0
 11
323.6445814642
 21
201.0833487356
 31
0.0
  0
LWPOLYLINE
  5
2AF
330
1F
100
AcDbEntity
  8
0
  6
Continuous
 62
     7
370
     0
100
AcDbPolyline
 90
       36
 70
   128
 43
0.0
 10
327.8518668123
 20
192.5314737642
 10
327.1706364866
 20
192.2031519385
 10
326.398802845
 20
191.9503267169
 10
325.5611732558
 20
191.78112411
 10
324.6846698232
 20
191.7009824287
 10
323.7974640887
 20
191.7124774928
 10
322.9280715746
 20
191.8152398413
 10
322.1044352717
 20
192.0059666079
 10
321.3530275284
 20
192.2785276772
 10
320.6979992079
 20
192.6241627124
 10
320.1604034593
 20
193.031762719
 10
319.7575190523
 20
193.4882270973
 10
319.5022950232
 20
193.9788847067
 10
319.4029344825
 20
194.4879654079
 10
319.4626309595
 20
194.9991069283
 10
319.6794657604
 20
195.4958807589
 10
320.0464696363
 20
195.96232018
 10
320.5518467807
 20
196.3834334448
 10
321.1793539562
 20
196.7456856265
 10
321.908822566
 20
197.0374336419
 10
322.7168068888
 20
197.2493004697
 10
323.5773376435
 20
197.3744765358
 10
324.4627566637
 20
197.4089385785
 10
325.3446058536
 20
197.3515789592
 10
326.1945418545
 20
197.2042412634
 10
326.9852470242
 20
196.9716610459
 10
327.6913074478
 20
196.6613136261
 10
328.2900297624
 20
196.2831738256
 10
328.7621705402
 20
195.8493953686
 10
329.092554788
 20
195.3739202517
 10
329.2705636844
 20
194.8720306364
 10
329.2904758769
 20
194.3598576678
 10
329.1516513713
 20
193.8538630065
 10
328.8585521014
 20
193.3703097374
 10
328.4205985189
 20
192.9247396603
 10
327.8518668123
 20
192.5314737642
  0
LWPOLYLINE
  5
2B0
330
1F
100
AcDbEntity
  8
0
  6
Continuous
 62
     7
370
     0
100
AcDbPolyline
 90
       36
 70
   128
 43
0.0
 10
284.0112463787
 20
167.2228222977
 10
283.330016053
 20
166.894500472
 10
282.5581824114
 20
166.6416752504
 10
281.7205528222
 20
166.4724726434
 10
280.8440493896
 20
166.3923309622
 10
279.9568436552
 20
166.4038260263
 10
279.0874511411
 20
166.5065883748
 10
278.2638148382
 20
166.6973151414
 10
277.5124070949
 20
166.9698762107
 10
276.8573787743
 20
167.3155112459
 10
276.3197830257
 20
167.7231112524
 10
275.9168986187
 20
168.1795756308
 10
275.6616745897
 20
168.6702332402
 10
275.5623140489
 20
169.1793139414
 10
275.6220105259
 20
169.6904554618
 10
275.8388453268
 20
170.1872292924
 10
276.2058492027
 20
170.6536687135
 10
276.7112263471
 20
171.0747819783
 10
277.3387335226
 20
171.43703416
 10
278.0682021324
 20
171.7287821754
 10
278.8761864552
 20
171.9406490032
 10
279.7367172099
 20
172.0658250693
 10
280.6221362301
 20
172.100287112
 10
281.50398542
 20
172.0429274927
 10
282.353921421
 20
171.8955897969
 10
283.1446265906
 20
171.6630095794
 10
283.8506870142
 20
171.3526621596
 10
284.4494093288
 20
170.9745223591
 10
284.9215501066
 20
170.5407439021
 10
285.2519343545
 20
170.0652687852
 10
285.4299432508
 20
169.5633791699
 10
285.4498554433
 20
169.0512062013
 10
285.3110309377
 20
168.54521154
 10
285.0179316678
 20
168.0616582709
 10
284.5799780853
 20
167.6160881938
 10
284.0112463787
 20
167.2228222977
  0
LWPOLYLINE
  5
2B1
330
1F
100
AcDbEntity
  8
0
  6
Continuous
 62
     7
370
     0
100
AcDbPolyline
 90
       17
 70
   128
 43
0.0
 10
283.5162716319
 20
170.4067210438
 10
282.8722413022
 20
170.7118418643
 10
282.1374723994
 20
170.9385670878
 10
281.3402016804
 20
171.0781837911
 10
280.5110678119
 20
171.1253265825
 10
279.6819339433
 20
171.0781837911
 10
278.8846632243
 20
170.9385670878
 10
278.1498943215
 20
170.7118418643
 10
277.5058639918
 20
170.4067210438
 10
276.9773219596
 20
170.0349302482
 10
276.5845797987
 20
169.6107571894
 10
276.3427303702
 20
169.1505026002
 10
276.2610678119
 20
168.6718538062
 10
276.3427303702
 20
168.1932050122
 10
276.5845797987
 20
167.7329504229
 10
276.9773219596
 20
167.3087773641
 10
277.2767427069
 20
167.0802095937
  0
LWPOLYLINE
  5
2B2
330
1F
100
AcDbEntity
  8
0
  6
Continuous
 62
     7
370
     0
100
AcDbPolyline
 90
        9
 70
   128
 43
0.0
 10
283.7453929168
 20
167.0802095937
 10
284.0448136642
 20
167.3087773641
 10
284.437555825
 20
167.7329504229
 10
284.6794052536
 20
168.1932050122
 10
284.7610678119
 20
168.6718538062
 10
284.6794052536
 20
169.1505026002
 10
284.437555825
 20
169.6107571894
 10
284.0448136642
 20
170.0349302482
 10
283.5162716319
 20
170.4067210438
  0
LINE
  5
2B3
330
1F
100
AcDbEntity
  8
0
  6
Continuous
 62
     7
370
     0
100
AcDbLine
 10
252.580349955
 20
178.8361613384
 30
0.0
 11
307.0275721064
 21
210.2678736435
 31
0.0
  0
LINE
  5
2B4
330
1F
100
AcDbEntity
  8
0
  6
Continuous
 62
     7
370
     0
100
AcDbLine
 10
323.2909706066
 20
200.8792135326
 30
0.0
 11
307.0275721064
 21
210.2678736435
 31
0.0
  0
LINE
  5
2B5
330
1F
100
AcDbEntity
  8
0
  6
Continuous
 62
     7
370
     0
100
AcDbLine
 10
268.1366991411
 20
137.2756937141
 30
0.0
 11
322.5839212925
 21
168.7074060192
 31
0.0
  0
LINE
  5
2B6
330
1F
100
AcDbEntity
  8
0
  6
Continuous
 62
     7
370
     0
100
AcDbLine
 10
274.5006601718
 20
140.9497292674
 30
0.0
 11
269.1973593129
 21
137.888198848
 31
0.0
  0
ELLIPSE
  5
2B7
330
1F
100
AcDbEntity
  8
0
  6
Continuous
 62
     7
370
     0
100
AcDbEllipse
 10
280.5110678119
 20
144.4205916931
 30
0.0
 11
8.499999953804263
 21
4.907743139934608
 31
0.0
210
0.0
220
0.0
230
1.0
 40
0.0000703729
 41
3.92695018272567
 42
5.497746514152438
  0
LINE
  5
2B8
330
1F
100
AcDbEntity
  8
0
  6
Continuous
 62
     7
370
     0
100
AcDbLine
 10
292.8854364826
 20
151.5653569722
 30
0.0
 11
286.521475452
 21
147.8903261684
 31
0.0
  0
LINE
  5
2B9
330
1F
100
AcDbEntity
  8
0
  6
Continuous
 62
     7
370
     0
100
AcDbLine
 10
318.3412806053
 20
166.2595086844
 30
0.0
 11
324.705241636
 21
169.9345394882
 31
0.0
  0
ELLIPSE
  5
2BA
330
1F
100
AcDbEntity
  8
0
  6
Continuous
 62
     7
370
     0
100
AcDbEllipse
 10
324.3516882454
 20
169.7292431597
 30
0.0
 11
8.499999953804263
 21
4.907743139934608
 31
0.0
210
0.0
220
0.0
230
1.0
 40
0.0000703729
 41
2.356153860437315
 42
3.926950182750914
  0
LINE
  5
2BB
330
1F
100
AcDbEntity
  8
0
  6
Continuous
 62
     7
370
     0
100
AcDbLine
 10
323.6445814642
 20
169.3199111532
 30
0.0
 11
318.3412806053
 21
166.2583807339
 31
0.0
  0
LINE
  5
2BC
330
1F
100
AcDbEntity
  8
0
  6
Continuous
 62
     7
370
     0
100
AcDbLine
 10
322.5839212925
 20
168.7074060192
 30
0.0
 11
323.6445814642
 21
169.3199111532
 31
0.0
  0
LINE
  5
2BD
330
1F
100
AcDbEntity
  8
0
  6
Continuous
 62
     7
370
     0
100
AcDbLine
 10
252.2267965644
 20
179.4485337723
 30
0.0
 11
306.6740187158
 21
210.8802460774
 31
0.0
  0
LINE
  5
2BE
330
1F
100
AcDbEntity
  8
0
  6
Continuous
 62
     7
370
     0
100
AcDbLine
 10
307.0275721064
 20
210.2678736435
 30
0.0
 11
306.6740187158
 21
210.8802460774
 31
0.0
  0
LINE
  5
2BF
330
1F
100
AcDbEntity
  8
0
  6
Continuous
 62
     7
370
     0
100
AcDbLine
 10
240.2059812842
 20
186.3880027228
 30
0.0
 11
294.6532034356
 21
217.8197150279
 31
0.0
  0
LINE
  5
2C0
330
1F
100
AcDbEntity
  8
0
  6
Continuous
 62
     7
370
     0
100
AcDbLine
 10
306.6740187158
 20
210.8802460774
 30
0.0
 11
294.6532034356
 21
217.8197150279
 31
0.0
  0
LWPOLYLINE
  5
2C1
330
1F
100
AcDbEntity
  8
0
  6
Continuous
 62
     7
370
     0
100
AcDbPolyline
 90
       36
 70
   128
 43
0.0
 10
258.555402256
 20
190.0414290232
 10
259.1241339626
 20
189.648163127
 10
259.5620875451
 20
189.20259305
 10
259.855186815
 20
188.7190397808
 10
259.9940113206
 20
188.2130451196
 10
259.9740991281
 20
187.700872151
 10
259.7960902317
 20
187.1989825356
 10
259.4657059839
 20
186.7235074187
 10
258.9935652061
 20
186.2897289618
 10
258.3948428915
 20
185.9115891612
 10
257.6887824679
 20
185.6012417415
 10
256.8980772982
 20
185.3686615239
 10
256.0481412973
 20
185.2213238282
 10
255.1662921074
 20
185.1639642089
 10
254.2808730872
 20
185.1984262515
 10
253.4203423325
 20
185.3236023177
 10
252.6123580097
 20
185.5354691455
 10
251.8828893999
 20
185.8272171609
 10
251.2553822244
 20
186.1894693426
 10
250.75000508
 20
186.6105826074
 10
250.3830012041
 20
187.0770220285
 10
250.1661664032
 20
187.573795859
 10
250.1064699262
 20
188.0849373795
 10
250.205830467
 20
188.5940180807
 10
250.461054496
 20
189.0846756901
 10
250.863938903
 20
189.5411400684
 10
251.4015346516
 20
189.948740075
 10
252.0565629721
 20
190.2943751101
 10
252.8079707154
 20
190.5669361795
 10
253.6316070184
 20
190.7576629461
 10
254.5009995324
 20
190.8604252946
 10
255.3882052669
 20
190.8719203587
 10
256.2647086995
 20
190.7917786774
 10
257.1023382887
 20
190.6225760705
 10
257.8741719303
 20
190.3697508488
 10
258.555402256
 20
190.0414290232
  0
LWPOLYLINE
  5
2C2
330
1F
100
AcDbEntity
  8
0
  6
Continuous
 62
     7
370
     0
100
AcDbPolyline
 90
       36
 70
   128
 43
0.0
 10
295.3249548777
 20
211.2680399305
 10
295.8936865843
 20
210.8747740344
 10
296.3316401668
 20
210.4292039574
 10
296.6247394367
 20
209.9456506882
 10
296.7635639423
 20
209.439656027
 10
296.7436517498
 20
208.9274830584
 10
296.5656428534
 20
208.425593443
 10
296.2352586056
 20
207.9501183261
 10
295.7631178278
 20
207.5163398691
 10
295.1643955132
 20
207.1382000686
 10
294.4583350896
 20
206.8278526489
 10
293.6676299199
 20
206.5952724313
 10
292.817693919
 20
206.4479347355
 10
291.9358447291
 20
206.3905751163
 10
291.0504257089
 20
206.4250371589
 10
290.1898949542
 20
206.5502132251
 10
289.3819106314
 20
206.7620800529
 10
288.6524420216
 20
207.0538280683
 10
288.0249348461
 20
207.41608025
 10
287.5195577017
 20
207.8371935148
 10
287.1525538258
 20
208.3036329359
 10
286.9357190249
 20
208.8004067664
 10
286.8760225479
 20
209.3115482869
 10
286.9753830887
 20
209.8206289881
 10
287.2306071177
 20
210.3112865975
 10
287.6334915247
 20
210.7677509758
 10
288.1710872733
 20
211.1753509824
 10
288.8261155938
 20
211.5209860175
 10
289.5775233371
 20
211.7935470869
 10
290.4011596401
 20
211.9842738535
 10
291.2705521541
 20
212.087036202
 10
292.1577578886
 20
212.098531266
 10
293.0342613212
 20
212.0183895848
 10
293.8718909104
 20
211.8491869779
 10
294.643724552
 20
211.5963617562
 10
295.3249548777
 20
211.2680399305
  0
LWPOLYLINE
  5
2C3
330
1F
100
AcDbEntity
  8
0
  6
Continuous
 62
     7
370
     0
100
AcDbPolyline
 90
       17
 70
   128
 43
0.0
 10
258.0604275092
 20
189.1841076157
 10
257.4163971795
 20
189.4892284362
 10
256.6816282767
 20
189.7159536597
 10
255.8843575577
 20
189.855570363
 10
255.0552236891
 20
189.9027131544
 10
254.2260898206
 20
189.855570363
 10
253.4288191016
 20
189.7159536597
 10
252.6940501988
 20
189.4892284362
 10
252.0500198691
 20
189.1841076157
 10
251.5214778369
 20
188.8123168201
 10
251.128735676
 20
188.3881437613
 10
250.8868862474
 20
187.9278891721
 10
250.8052236891
 20
187.4492403781
 10
250.8868862474
 20
186.9705915841
 10
251.128735676
 20
186.5103369948
 10
251.5214778369
 20
186.086163936
 10
251.8208985842
 20
185.8575961656
  0
LWPOLYLINE
  5
2C4
330
1F
100
AcDbEntity
  8
0
  6
Continuous
 62
     7
370
     0
100
AcDbPolyline
 90
        9
 70
   128
 43
0.0
 10
258.2895487941
 20
185.8575961656
 10
258.5889695414
 20
186.086163936
 10
258.9817117023
 20
186.5103369948
 10
259.2235611309
 20
186.9705915841
 10
259.3052236891
 20
187.4492403781
 10
259.2235611309
 20
187.9278891721
 10
258.9817117023
 20
188.3881437613
 10
258.5889695414
 20
188.8123168201
 10
258.0604275092
 20
189.1841076157
  0
LINE
  5
2C5
330
1F
100
AcDbEntity
  8
0
  6
Continuous
 62
     7
370
     0
100
AcDbLine
 10
223.5889719263
 20
195.5725276307
 30
0.0
 11
278.0361940777
 21
227.0042399359
 31
0.0
  0
LINE
  5
2C6
330
1F
100
AcDbEntity
  8
0
  6
Continuous
 62
     7
370
     0
100
AcDbLine
 10
294.299592578
 20
217.615579825
 30
0.0
 11
278.0361940777
 21
227.0042399359
 31
0.0
  0
LWPOLYLINE
  5
2C7
330
1F
100
AcDbEntity
  8
0
  6
Continuous
 62
     7
370
     0
100
AcDbPolyline
 90
       17
 70
   128
 43
0.0
 10
327.3568920655
 20
195.7153725103
 10
326.7128617358
 20
196.0204933308
 10
325.978092833
 20
196.2472185543
 10
325.180822114
 20
196.3868352576
 10
324.3516882454
 20
196.433978049
 10
323.5225543769
 20
196.3868352576
 10
322.7252836579
 20
196.2472185543
 10
321.9905147551
 20
196.0204933308
 10
321.3464844254
 20
195.7153725103
 10
320.8179423931
 20
195.3435817147
 10
320.4252002323
 20
194.9194086559
 10
320.1833508037
 20
194.4591540667
 10
320.1016882454
 20
193.9805052727
 10
320.1833508037
 20
193.5018564787
 10
320.4252002323
 20
193.0416018894
 10
320.8179423931
 20
192.6174288306
 10
321.1173631398
 20
192.3888610606
  0
LWPOLYLINE
  5
2C8
330
1F
100
AcDbEntity
  8
0
  6
Continuous
 62
     7
370
     0
100
AcDbPolyline
 90
        9
 70
   128
 43
0.0
 10
327.5860133513
 20
192.3888610608
 10
327.8854340977
 20
192.6174288306
 10
328.2781762586
 20
193.0416018894
 10
328.5200256871
 20
193.5018564787
 10
328.6016882454
 20
193.9805052727
 10
328.5200256871
 20
194.4591540667
 10
328.2781762586
 20
194.9194086559
 10
327.8854340977
 20
195.3435817147
 10
327.3568920655
 20
195.7153725103
  0
LINE
  5
2C9
330
1F
100
AcDbEntity
  8
0
  6
Continuous
 62
     7
370
     0
100
AcDbLine
 10
223.2354185358
 20
196.1849000646
 30
0.0
 11
277.6826406871
 21
227.6166123698
 31
0.0
  0
LINE
  5
2CA
330
1F
100
AcDbEntity
  8
0
  6
Continuous
 62
     7
370
     0
100
AcDbLine
 10
278.0361940777
 20
227.0042399359
 30
0.0
 11
277.6826406871
 21
227.6166123698
 31
0.0
  0
LINE
  5
2CB
330
1F
100
AcDbEntity
  8
0
  6
Continuous
 62
     7
370
     0
100
AcDbLine
 10
211.9217100368
 20
202.7161649592
 30
0.0
 11
266.3689321881
 21
234.1478772644
 31
0.0
  0
LWPOLYLINE
  5
2CC
330
1F
100
AcDbEntity
  8
0
  6
Continuous
 62
     7
370
     0
100
AcDbPolyline
 90
       36
 70
   128
 43
0.0
 10
269.869110755
 20
226.0042063489
 10
269.1878804293
 20
225.6758845233
 10
268.4160467877
 20
225.4230593016
 10
267.5784171985
 20
225.2538566947
 10
266.7019137659
 20
225.1737150135
 10
265.8147080314
 20
225.1852100775
 10
264.9453155173
 20
225.287972426
 10
264.1216792144
 20
225.4786991926
 10
263.3702714711
 20
225.751260262
 10
262.7152431506
 20
226.0968952971
 10
262.177647402
 20
226.5044953037
 10
261.774762995
 20
226.960959682
 10
261.5195389659
 20
227.4516172914
 10
261.4201784252
 20
227.9606979926
 10
261.4798749022
 20
228.4718395131
 10
261.6967097031
 20
228.9686133436
 10
262.063713579
 20
229.4350527647
 10
262.5690907234
 20
229.8561660295
 10
263.1965978989
 20
230.2184182112
 10
263.9260665087
 20
230.5101662266
 10
264.7340508315
 20
230.7220330544
 10
265.5945815862
 20
230.8472091206
 10
266.4800006064
 20
230.8816711632
 10
267.3618497963
 20
230.824311544
 10
268.2117857972
 20
230.6769738482
 10
269.0024909669
 20
230.4443936306
 10
269.7085513905
 20
230.1340462109
 10
270.3072737051
 20
229.7559064104
 10
270.7794144829
 20
229.3221279534
 10
271.1097987307
 20
228.8466528365
 10
271.2878076271
 20
228.3447632211
 10
271.3077198196
 20
227.8325902525
 10
271.168895314
 20
227.3265955913
 10
270.8757960441
 20
226.8430423221
 10
270.4378424616
 20
226.3974722451
 10
269.869110755
 20
226.0042063489
  0
LWPOLYLINE
  5
2CD
330
1F
100
AcDbEntity
  8
0
  6
Continuous
 62
     7
370
     0
100
AcDbPolyline
 90
       36
 70
   128
 43
0.0
 10
226.0284903214
 20
200.6955548824
 10
225.3472599958
 20
200.3672330568
 10
224.5754263542
 20
200.1144078351
 10
223.737796765
 20
199.9452052282
 10
222.8612933323
 20
199.865063547
 10
221.9740875979
 20
199.876558611
 10
221.1046950838
 20
199.9793209595
 10
220.2810587809
 20
200.1700477261
 10
219.5296510376
 20
200.4426087955
 10
218.874622717
 20
200.7882438306
 10
218.3370269684
 20
201.1958438372
 10
217.9341425614
 20
201.6523082155
 10
217.6789185324
 20
202.1429658249
 10
217.5795579916
 20
202.6520465261
 10
217.6392544686
 20
203.1631880466
 10
217.8560892695
 20
203.6599618771
 10
218.2230931454
 20
204.1264012982
 10
218.7284702898
 20
204.547514563
 10
219.3559774653
 20
204.9097667447
 10
220.0854460752
 20
205.2015147601
 10
220.8934303979
 20
205.4133815879
 10
221.7539611526
 20
205.5385576541
 10
222.6393801728
 20
205.5730196967
 10
223.5212293627
 20
205.5156600774
 10
224.3711653637
 20
205.3683223817
 10
225.1618705333
 20
205.1357421641
 10
225.8679309569
 20
204.8253947444
 10
226.4666532715
 20
204.4472549439
 10
226.9387940493
 20
204.0134764869
 10
227.2691782972
 20
203.53800137
 10
227.4471871935
 20
203.0361117546
 10
227.467099386
 20
202.523938786
 10
227.3282748804
 20
202.0179441248
 10
227.0351756105
 20
201.5343908556
 10
226.597222028
 20
201.0888207786
 10
226.0284903214
 20
200.6955548824
  0
LINE
  5
2CE
330
1F
100
AcDbEntity
  8
0
  6
Continuous
 62
     7
370
     0
100
AcDbLine
 10
277.6826406871
 20
227.6166123698
 30
0.0
 11
266.3689321881
 21
234.1478772644
 31
0.0
  0
LINE
  5
2CF
330
1F
100
AcDbEntity
  8
0
  6
Continuous
 62
     7
370
     0
100
AcDbLine
 10
239.3949749933
 20
160.4433141505
 30
0.0
 11
237.9078842454
 21
159.584834935
 31
0.0
  0
LWPOLYLINE
  5
2D0
330
1F
100
AcDbEntity
  8
0
  6
Continuous
 62
     7
370
     0
100
AcDbPolyline
 90
       17
 70
   128
 43
0.0
 10
225.5335155746
 20
203.8794536285
 10
224.8894852449
 20
204.184574449
 10
224.1547163421
 20
204.4112996725
 10
223.3574456231
 20
204.5509163758
 10
222.5283117546
 20
204.5980591672
 10
221.699177886
 20
204.5509163758
 10
220.901907167
 20
204.4112996725
 10
220.1671382642
 20
204.184574449
 10
219.5231079345
 20
203.8794536285
 10
218.9945659023
 20
203.507662833
 10
218.6018237414
 20
203.0834897742
 10
218.3599743129
 20
202.6232351849
 10
218.2783117546
 20
202.1445863909
 10
218.3599743129
 20
201.6659375969
 10
218.6018237414
 20
201.2056830076
 10
218.9945659023
 20
200.7815099488
 10
219.2939866486
 20
200.5529421791
  0
LWPOLYLINE
  5
2D1
330
1F
100
AcDbEntity
  8
0
  6
Continuous
 62
     7
370
     0
100
AcDbPolyline
 90
        9
 70
   128
 43
0.0
 10
225.7626368603
 20
200.5529421789
 10
226.0620576069
 20
200.7815099488
 10
226.4547997677
 20
201.2056830076
 10
226.6966491963
 20
201.6659375969
 10
226.7783117546
 20
202.1445863909
 10
226.6966491963
 20
202.6232351849
 10
226.4547997677
 20
203.0834897742
 10
226.0620576069
 20
203.507662833
 10
225.5335155746
 20
203.8794536285
  0
LINE
  5
2D2
330
1F
100
AcDbEntity
  8
0
  6
Continuous
 62
     7
370
     0
100
AcDbLine
 10
323.6445814642
 20
169.3199111532
 30
0.0
 11
323.6445814642
 21
169.3220343542
 31
0.0
  0
LINE
  5
2D3
330
1F
100
AcDbEntity
  8
0
  6
Continuous
 62
     7
370
     0
100
AcDbLine
 10
240.9512937696
 20
159.5448704448
 30
0.0
 11
235.2562338159
 21
156.2571823139
 31
0.0
  0
LWPOLYLINE
  5
2D4
330
1F
100
AcDbEntity
  8
0
  6
Continuous
 62
     7
370
     0
100
AcDbPolyline
 90
       17
 70
   128
 43
0.0
 10
294.8299801309
 20
210.4107185231
 10
294.1859498012
 20
210.7158393436
 10
293.4511808984
 20
210.9425645671
 10
292.6539101794
 20
211.0821812704
 10
291.8247763109
 20
211.1293240618
 10
290.9956424423
 20
211.0821812704
 10
290.1983717233
 20
210.9425645671
 10
289.4636028205
 20
210.7158393436
 10
288.8195724908
 20
210.4107185231
 10
288.2910304586
 20
210.0389277275
 10
287.8982882977
 20
209.6147546687
 10
287.6564388691
 20
209.1545000795
 10
287.5747763109
 20
208.6758512855
 10
287.6564388691
 20
208.1972024915
 10
287.8982882977
 20
207.7369479022
 10
288.2910304586
 20
207.3127748434
 10
288.5904512059
 20
207.084207073
  0
LWPOLYLINE
  5
2D5
330
1F
100
AcDbEntity
  8
0
  6
Continuous
 62
     7
370
     0
100
AcDbPolyline
 90
        9
 70
   128
 43
0.0
 10
295.0591014158
 20
207.084207073
 10
295.3585221631
 20
207.3127748434
 10
295.751264324
 20
207.7369479022
 10
295.9931137526
 20
208.1972024915
 10
296.0747763109
 20
208.6758512855
 10
295.9931137526
 20
209.1545000795
 10
295.751264324
 20
209.6147546687
 10
295.3585221631
 20
210.0389277275
 10
294.8299801309
 20
210.4107185231
  0
LWPOLYLINE
  5
2D6
330
1F
100
AcDbEntity
  8
0
  6
Continuous
 62
     7
370
     0
100
AcDbPolyline
 90
       17
 70
   128
 43
0.0
 10
269.3741360082
 20
229.188105095
 10
268.7301056785
 20
229.4932259155
 10
267.9953367757
 20
229.719951139
 10
267.1980660567
 20
229.8595678423
 10
266.3689321881
 20
229.9067106338
 10
265.5397983196
 20
229.8595678423
 10
264.7425276006
 20
229.719951139
 10
264.0077586978
 20
229.4932259155
 10
263.3637283681
 20
229.188105095
 10
262.8351863358
 20
228.8163142995
 10
262.442444175
 20
228.3921412407
 10
262.2005947464
 20
227.9318866514
 10
262.1189321881
 20
227.4532378574
 10
262.2005947464
 20
226.9745890634
 10
262.442444175
 20
226.5143344741
 10
262.8351863358
 20
226.0901614153
 10
263.1346070832
 20
225.8615936449
  0
LWPOLYLINE
  5
2D7
330
1F
100
AcDbEntity
  8
0
  6
Continuous
 62
     7
370
     0
100
AcDbPolyline
 90
        9
 70
   128
 43
0.0
 10
269.6032572931
 20
225.8615936449
 10
269.9026780404
 20
226.0901614153
 10
270.2954202013
 20
226.5143344741
 10
270.5372696298
 20
226.9745890634
 10
270.6189321881
 20
227.4532378574
 10
270.5372696298
 20
227.9318866514
 10
270.2954202013
 20
228.3921412407
 10
269.9026780404
 20
228.8163142995
 10
269.3741360082
 20
229.188105095
  0
LINE
  5
2D8
330
1F
100
AcDbEntity
  8
0
  6
Continuous
 62
     7
370
     0
100
AcDbLine
 10
335.983594796
 20
206.9409641428
 30
0.0
 11
324.7406946691
 21
200.4505760514
 31
0.0
  0
LINE
  5
2D9
330
1F
100
AcDbEntity
  8
0
  6
Continuous
 62
     7
370
     0
100
AcDbLine
 10
336.6907015771
 20
205.716219275
 30
0.0
 11
326.1550231655
 21
199.6341015895
 31
0.0
  0
LINE
  5
2DA
330
1F
100
AcDbEntity
  8
0
  6
Continuous
 62
     7
370
     0
100
AcDbLine
 10
289.0317045252
 20
234.0457134553
 30
0.0
 11
277.735718229
 21
227.5246793707
 31
0.0
  0
LINE
  5
2DB
330
1F
100
AcDbEntity
  8
0
  6
Continuous
 62
     7
370
     0
100
AcDbLine
 10
286.521475452
 20
147.8903261684
 30
0.0
 11
286.521475452
 21
155.5670041007
 31
0.0
  0
LINE
  5
2DC
330
1F
100
AcDbEntity
  8
0
  6
Continuous
 62
     7
370
     0
100
AcDbLine
 10
274.5006601718
 20
140.9497292674
 30
0.0
 11
274.5006601718
 21
156.7916162684
 31
0.0
  0
LINE
  5
2DD
330
1F
100
AcDbEntity
  8
0
  6
Continuous
 62
     7
370
     0
100
AcDbLine
 10
318.3412806053
 20
166.2583807339
 30
0.0
 11
318.3412806053
 21
166.2595086844
 31
0.0
  0
LWPOLYLINE
  5
2DE
330
1F
100
AcDbEntity
  8
0
  6
Continuous
 62
     7
370
     0
100
AcDbPolyline
 90
       17
 70
   128
 43
0.0
 10
258.5907575951
 20
181.7331229447
 10
256.968640851
 20
182.358824173
 10
255.0552236891
 20
182.5785412256
 10
253.1418065273
 20
182.358824173
 10
251.5196897832
 20
181.7331229447
 10
250.4358260266
 20
180.7966948808
 10
250.0552236891
 20
179.6921026652
 10
250.4358260266
 20
178.5875104495
 10
251.5196897832
 20
177.6510823856
 10
253.1418065273
 20
177.0253811573
 10
255.0552236891
 20
176.8056641047
 10
256.968640851
 20
177.0253811573
 10
258.5907575951
 20
177.6510823856
 10
259.6746213517
 20
178.5875104495
 10
260.0552236891
 20
179.6921026652
 10
259.6746213517
 20
180.7966948808
 10
258.5907575951
 20
181.7331229447
  0
LWPOLYLINE
  5
2DF
330
1F
100
AcDbEntity
  8
0
  6
Continuous
 62
     7
370
     0
100
AcDbPolyline
 90
       17
 70
   128
 43
0.0
 10
295.3603102168
 20
202.9597338521
 10
293.7381934727
 20
203.5854350804
 10
291.8247763109
 20
203.805152133
 10
289.911359149
 20
203.5854350804
 10
288.2892424049
 20
202.9597338521
 10
287.2053786483
 20
202.0233057882
 10
286.8247763109
 20
200.9187135726
 10
287.2053786483
 20
199.8141213569
 10
288.2892424049
 20
198.877693293
 10
289.911359149
 20
198.2519920647
 10
291.8247763109
 20
198.0322750121
 10
293.7381934727
 20
198.2519920647
 10
295.3603102168
 20
198.877693293
 10
296.4441739734
 20
199.8141213569
 10
296.8247763109
 20
200.9187135726
 10
296.4441739734
 20
202.0233057882
 10
295.3603102168
 20
202.9597338521
  0
LWPOLYLINE
  5
2E0
330
1F
100
AcDbEntity
  8
0
  6
Continuous
 62
     7
370
     0
100
AcDbPolyline
 90
       17
 70
   128
 43
0.0
 10
218.9927778486
 20
200.1035661113
 10
217.908914092
 20
201.0399941753
 10
217.5283117546
 20
202.1445863909
 10
217.908914092
 20
203.2491786065
 10
218.9927778486
 20
204.1856066704
 10
220.6148945927
 20
204.8113078987
 10
222.5283117546
 20
205.0310249513
 10
224.4417289164
 20
204.8113078987
 10
226.0638456605
 20
204.1856066704
 10
227.1477094171
 20
203.2491786065
 10
227.5283117546
 20
202.1445863909
 10
227.1477094171
 20
201.0399941753
 10
226.0638456605
 20
200.1035661113
 10
224.4417289164
 20
199.4778648831
 10
222.5283117546
 20
199.2581478305
 10
220.6148945927
 20
199.4778648831
 10
218.9927778486
 20
200.1035661113
  0
LWPOLYLINE
  5
2E1
330
1F
100
AcDbEntity
  8
0
  6
Continuous
 62
     7
370
     0
100
AcDbPolyline
 90
       17
 70
   128
 43
0.0
 10
276.9755339059
 20
166.6308335266
 10
275.8916701493
 20
167.5672615905
 10
275.5110678119
 20
168.6718538062
 10
275.8916701493
 20
169.7764460218
 10
276.9755339059
 20
170.7128740857
 10
278.59765065
 20
171.338575314
 10
280.5110678119
 20
171.5582923666
 10
282.4244849737
 20
171.338575314
 10
284.0466017178
 20
170.7128740857
 10
285.1304654744
 20
169.7764460218
 10
285.5110678119
 20
168.6718538062
 10
285.1304654744
 20
167.5672615905
 10
284.0466017178
 20
166.6308335266
 10
282.4244849737
 20
166.0051322983
 10
280.5110678119
 20
165.7854152457
 10
278.59765065
 20
166.0051322983
 10
276.9755339059
 20
166.6308335266
  0
LWPOLYLINE
  5
2E2
330
1F
100
AcDbEntity
  8
0
  6
Continuous
 62
     7
370
     0
100
AcDbPolyline
 90
       17
 70
   128
 43
0.0
 10
320.8161543395
 20
191.9394849931
 10
319.7322905829
 20
192.875913057
 10
319.3516882454
 20
193.9805052727
 10
319.7322905829
 20
195.0850974883
 10
320.8161543395
 20
196.0215255522
 10
322.4382710836
 20
196.6472267805
 10
324.3516882454
 20
196.8669438331
 10
326.2651054073
 20
196.6472267805
 10
327.8872221514
 20
196.0215255522
 10
328.971085908
 20
195.0850974883
 10
329.3516882454
 20
193.9805052727
 10
328.971085908
 20
192.875913057
 10
327.8872221514
 20
191.9394849931
 10
326.2651054073
 20
191.3137837648
 10
324.3516882454
 20
191.0940667122
 10
322.4382710836
 20
191.3137837648
 10
320.8161543395
 20
191.9394849931
  0
LWPOLYLINE
  5
2E3
330
1F
100
AcDbEntity
  8
0
  6
Continuous
 62
     7
370
     0
100
AcDbPolyline
 90
       17
 70
   128
 43
0.0
 10
262.8333982822
 20
225.4122175778
 10
261.7495345256
 20
226.3486456418
 10
261.3689321881
 20
227.4532378574
 10
261.7495345256
 20
228.557830073
 10
262.8333982822
 20
229.4942581369
 10
264.4555150263
 20
230.1199593652
 10
266.3689321881
 20
230.3396764178
 10
268.28234935
 20
230.1199593652
 10
269.9044660941
 20
229.4942581369
 10
270.9883298507
 20
228.557830073
 10
271.3689321881
 20
227.4532378574
 10
270.9883298507
 20
226.3486456418
 10
269.9044660941
 20
225.4122175778
 10
268.28234935
 20
224.7865163496
 10
266.3689321881
 20
224.566799297
 10
264.4555150263
 20
224.7865163496
 10
262.8333982822
 20
225.4122175778
  0
LWPOLYLINE
  5
2E4
330
1F
100
AcDbEntity
  8
0
  6
Continuous
 62
     7
370
     0
100
AcDbPolyline
 90
       17
 70
   128
 43
0.0
 10
255.3734217407
 20
149.1368812247
 10
254.9675246656
 20
149.464433821
 10
254.6234217407
 20
149.9285859087
 10
254.393499517
 20
150.4586745402
 10
254.3127615689
 20
150.9739985263
 10
254.393499517
 20
151.3961044618
 10
254.6234217407
 20
151.6607305443
 10
254.9675246656
 20
151.7275898517
 10
255.3734217407
 20
151.5865036603
 10
255.7793188158
 20
151.258951064
 10
256.1234217407
 20
150.7947989762
 10
256.3533439643
 20
150.2647103448
 10
256.4340819125
 20
149.7493863586
 10
256.3533439643
 20
149.3272804231
 10
256.1234217407
 20
149.0626543406
 10
255.7793188158
 20
148.9957950333
 10
255.3734217407
 20
149.1368812247
  0
LWPOLYLINE
  5
2E5
330
1F
100
AcDbEntity
  8
0
  6
Continuous
 62
     7
370
     0
100
AcDbPolyline
 90
       17
 70
   128
 43
0.0
 10
332.5187715681
 20
193.6719437246
 10
332.9246686432
 20
193.5308575332
 10
333.2687715681
 20
193.5977168405
 10
333.4986937918
 20
193.8623429231
 10
333.5794317399
 20
194.2844488585
 10
333.4986937918
 20
194.7997728447
 10
333.2687715681
 20
195.3298614761
 10
332.9246686432
 20
195.7940135639
 10
332.5187715681
 20
196.1215661602
 10
332.112874493
 20
196.2626523516
 10
331.7687715681
 20
196.1957930443
 10
331.5388493445
 20
195.9311669618
 10
331.4581113964
 20
195.5090610263
 10
331.5388493445
 20
194.9937370401
 10
331.7687715681
 20
194.4636484087
 10
332.112874493
 20
193.9994963209
 10
332.5187715681
 20
193.6719437246
  0
LWPOLYLINE
  5
2E6
330
1F
100
AcDbEntity
  8
0
  6
Continuous
 62
     7
370
     0
100
AcDbPolyline
 90
       17
 70
   128
 43
0.0
 10
214.3612284319
 20
172.8127164675
 10
213.9553313568
 20
173.1402690638
 10
213.6112284319
 20
173.6044211516
 10
213.3813062082
 20
174.134509783
 10
213.3005682601
 20
174.6498337692
 10
213.3813062082
 20
175.0719397047
 10
213.6112284319
 20
175.3365657872
 10
213.9553313568
 20
175.4034250945
 10
214.3612284319
 20
175.2623389032
 10
214.767125507
 20
174.9347863068
 10
215.1112284319
 20
174.4706342191
 10
215.3411506555
 20
173.9405455877
 10
215.4218886036
 20
173.4252216015
 10
215.3411506555
 20
173.003115666
 10
215.1112284319
 20
172.7384895835
 10
214.767125507
 20
172.6716302762
 10
214.3612284319
 20
172.8127164675
  0
LWPOLYLINE
  5
2E7
330
1F
100
AcDbEntity
  8
0
  6
Continuous
 62
     7
370
     0
100
AcDbPolyline
 90
       17
 70
   128
 43
0.0
 10
291.5065782593
 20
217.3477789674
 10
291.9124753344
 20
217.2066927761
 10
292.2565782593
 20
217.2735520834
 10
292.486500483
 20
217.5381781659
 10
292.5672384311
 20
217.9602841014
 10
292.486500483
 20
218.4756080876
 10
292.2565782593
 20
219.005696719
 10
291.9124753344
 20
219.4698488068
 10
291.5065782593
 20
219.7974014031
 10
291.1006811842
 20
219.9384875944
 10
290.7565782593
 20
219.8716282871
 10
290.5266560357
 20
219.6070022046
 10
290.4459180875
 20
219.1848962691
 10
290.5266560357
 20
218.6695722829
 10
290.7565782593
 20
218.1394836515
 10
291.1006811842
 20
217.6753315638
 10
291.5065782593
 20
217.3477789674
  0
LWPOLYLINE
  5
2E8
330
1F
100
AcDbEntity
  8
0
  6
Continuous
 62
     7
370
     0
100
AcDbPolyline
 90
       17
 70
   128
 43
0.0
 10
234.8673250863
 20
168.2828391125
 10
234.0555309361
 20
168.9379443051
 10
233.3673250863
 20
169.8662484806
 10
232.907480639
 20
170.9264257435
 10
232.7460047427
 20
171.9570737159
 10
232.907480639
 20
172.8012855868
 10
233.3673250863
 20
173.3305377518
 10
234.0555309361
 20
173.4642563665
 10
234.8673250863
 20
173.1820839838
 10
235.6791192365
 20
172.5269787911
 10
236.3673250863
 20
171.5986746156
 10
236.8271695336
 20
170.5384973528
 10
236.9886454298
 20
169.5078493804
 10
236.8271695336
 20
168.6636375094
 10
236.3673250863
 20
168.1343853444
 10
235.6791192365
 20
168.0006667298
 10
234.8673250863
 20
168.2828391125
  0
LWPOLYLINE
  5
2E9
330
1F
100
AcDbEntity
  8
0
  6
Continuous
 62
     7
370
     0
100
AcDbPolyline
 90
       17
 70
   128
 43
0.0
 10
312.0126749137
 20
212.8179016124
 10
312.8244690639
 20
212.5357292297
 10
313.5126749137
 20
212.6694478443
 10
313.972519361
 20
213.1987000093
 10
314.1339952573
 20
214.0429118803
 10
313.972519361
 20
215.0735598527
 10
313.5126749137
 20
216.1337371155
 10
312.8244690639
 20
217.0620412911
 10
312.0126749137
 20
217.7171464837
 10
311.2008807635
 20
217.9993188664
 10
310.5126749137
 20
217.8656002518
 10
310.0528304664
 20
217.3363480868
 10
309.8913545702
 20
216.4921362158
 10
310.0528304664
 20
215.4614882434
 10
310.5126749137
 20
214.4013109806
 10
311.2008807635
 20
213.473006805
 10
312.0126749137
 20
212.8179016124
  0
LWPOLYLINE
  5
2EA
330
1F
100
AcDbEntity
  8
0
  6
HIDDEN
 62
     7
370
     0
100
AcDbPolyline
 90
       17
 70
   128
 43
0.0
 10
214.3965837709
 20
186.2646258755
 10
214.5580596672
 20
185.4204140046
 10
215.0179041145
 20
184.8911618395
 10
215.7061099643
 20
184.7574432249
 10
216.5179041145
 20
185.0396156076
 10
217.3296982647
 20
185.6947208003
 10
218.0179041145
 20
186.6230249758
 10
218.4777485618
 20
187.6832022386
 10
218.639224458
 20
188.713850211
 10
218.4777485618
 20
189.558062082
 10
218.0179041145
 20
190.087314247
 10
217.3296982647
 20
190.2210328616
 10
216.5179041145
 20
189.9388604789
 10
215.7061099643
 20
189.2837552863
 10
215.0179041145
 20
188.3554511107
 10
214.5580596672
 20
187.2952738479
 10
214.3965837709
 20
186.2646258755
  0
LWPOLYLINE
  5
2EB
330
1F
100
AcDbEntity
  8
0
  6
HIDDEN
 62
     7
370
     0
100
AcDbPolyline
 90
       17
 70
   128
 43
0.0
 10
285.1072618896
 20
227.0850314667
 10
284.9457859933
 20
227.9292433377
 10
284.485941546
 20
228.4584955027
 10
283.7977356962
 20
228.5922141173
 10
282.985941546
 20
228.3100417346
 10
282.1741473958
 20
227.654936542
 10
281.485941546
 20
226.7266323664
 10
281.0260970987
 20
225.6664551036
 10
280.8646212025
 20
224.6358071312
 10
281.0260970987
 20
223.7915952602
 10
281.485941546
 20
223.2623430952
 10
282.1741473958
 20
223.1286244806
 10
282.985941546
 20
223.4107968633
 10
283.7977356962
 20
224.0659020559
 10
284.485941546
 20
224.9942062315
 10
284.9457859933
 20
226.0543834943
 10
285.1072618896
 20
227.0850314667
  0
LWPOLYLINE
  5
2EC
330
1F
100
AcDbEntity
  8
0
  6
Continuous
 62
     7
370
     0
100
AcDbPolyline
 90
       17
 70
   128
 43
0.0
 10
266.0153787975
 20
161.364178465
 10
265.8539029013
 20
160.3335304926
 10
265.394058454
 20
159.2733532297
 10
264.7058526042
 20
158.3450490542
 10
263.894058454
 20
157.6899438616
 10
263.0822643038
 20
157.4077714789
 10
262.394058454
 20
157.5414900935
 10
261.9342140067
 20
158.0707422585
 10
261.7727381104
 20
158.9149541295
 10
261.9342140067
 20
159.9456021019
 10
262.394058454
 20
161.0057793647
 10
263.0822643038
 20
161.9340835402
 10
263.894058454
 20
162.5891887329
 10
264.7058526042
 20
162.8713611156
 10
265.394058454
 20
162.7376425009
 10
265.8539029013
 20
162.2083903359
 10
266.0153787975
 20
161.364178465
  0
LWPOLYLINE
  5
2ED
330
1F
100
AcDbEntity
  8
0
  6
Continuous
 62
     7
370
     0
100
AcDbPolyline
 90
       17
 70
   128
 43
0.0
 10
328.240775542
 20
197.2861353851
 10
328.4022514382
 20
198.3167833575
 10
328.8620958855
 20
199.3769606204
 10
329.5503017353
 20
200.3052647959
 10
330.3620958855
 20
200.9603699885
 10
331.1738900357
 20
201.2425423712
 10
331.8620958855
 20
201.1088237566
 10
332.3219403328
 20
200.5795715916
 10
332.4834162291
 20
199.7353597206
 10
332.3219403328
 20
198.7047117482
 10
331.8620958855
 20
197.6445344854
 10
331.1738900357
 20
196.7162303099
 10
330.3620958855
 20
196.0611251172
 10
329.5503017353
 20
195.7789527345
 10
328.8620958855
 20
195.9126713492
 10
328.4022514382
 20
196.4419235142
 10
328.240775542
 20
197.2861353851
  0
LWPOLYLINE
  5
2EE
330
1F
100
AcDbEntity
  8
0
  6
HIDDEN
 62
     7
370
     0
100
AcDbPolyline
 90
       17
 70
   128
 43
0.0
 10
332.5187715681
 20
196.1219744306
 10
332.112739194
 20
196.2631076507
 10
331.7685215681
 20
196.196226057
 10
331.5385227037
 20
195.9315117658
 10
331.457757843
 20
195.5092651283
 10
331.5385227037
 20
194.9937693675
 10
331.7685215681
 20
194.4635040398
 10
332.112739194
 20
193.9991972347
 10
332.5187715681
 20
193.6715354542
 10
332.9248039423
 20
193.5304022341
 10
333.2690215681
 20
193.5972838278
 10
333.4990204325
 20
193.861998119
 10
333.5797852933
 20
194.2842447565
 10
333.4990204325
 20
194.7997405174
 10
333.2690215681
 20
195.330005845
 10
332.9248039423
 20
195.7943126501
 10
332.5187715681
 20
196.1219744306
  0
LWPOLYLINE
  5
2EF
330
1F
100
AcDbEntity
  8
0
  6
HIDDEN
 62
     7
370
     0
100
AcDbPolyline
 90
       17
 70
   128
 43
0.0
 10
291.5065782593
 20
219.7978096735
 10
291.1005458852
 20
219.9389428936
 10
290.7563282593
 20
219.8720612998
 10
290.5263293949
 20
219.6073470086
 10
290.4455645341
 20
219.1851003712
 10
290.5263293949
 20
218.6696046103
 10
290.7563282593
 20
218.1393392827
 10
291.1005458852
 20
217.6750324776
 10
291.5065782593
 20
217.347370697
 10
291.9126106335
 20
217.206237477
 10
292.2568282593
 20
217.2731190707
 10
292.4868271237
 20
217.5378333619
 10
292.5675919845
 20
217.9600799994
 10
292.4868271237
 20
218.4755757602
 10
292.2568282593
 20
219.0058410878
 10
291.9126106335
 20
219.470147893
 10
291.5065782593
 20
219.7978096735
  0
LWPOLYLINE
  5
2F0
330
1F
100
AcDbEntity
  8
0
  6
HIDDEN
 62
     7
370
     0
100
AcDbPolyline
 90
       17
 70
   128
 43
0.0
 10
312.0126749137
 20
217.7171464837
 10
311.2008807635
 20
217.9993188664
 10
310.5126749137
 20
217.8656002518
 10
310.0528304664
 20
217.3363480868
 10
309.8913545702
 20
216.4921362158
 10
310.0528304664
 20
215.4614882434
 10
310.5126749137
 20
214.4013109806
 10
311.2008807635
 20
213.473006805
 10
312.0126749137
 20
212.8179016124
 10
312.8244690639
 20
212.5357292297
 10
313.5126749137
 20
212.6694478443
 10
313.972519361
 20
213.1987000093
 10
314.1339952573
 20
214.0429118803
 10
313.972519361
 20
215.0735598527
 10
313.5126749137
 20
216.1337371155
 10
312.8244690639
 20
217.0620412911
 10
312.0126749137
 20
217.7171464837
  0
LWPOLYLINE
  5
2F1
330
1F
100
AcDbEntity
  8
0
  6
HIDDEN
 62
     7
370
     0
100
AcDbPolyline
 90
       17
 70
   128
 43
0.0
 10
280.8646212025
 20
224.6358071312
 10
281.0260970987
 20
223.7915952602
 10
281.485941546
 20
223.2623430952
 10
282.1741473958
 20
223.1286244806
 10
282.985941546
 20
223.4107968633
 10
283.7977356962
 20
224.0659020559
 10
284.485941546
 20
224.9942062315
 10
284.9457859933
 20
226.0543834943
 10
285.1072618896
 20
227.0850314667
 10
284.9457859933
 20
227.9292433377
 10
284.485941546
 20
228.4584955027
 10
283.7977356962
 20
228.5922141173
 10
282.985941546
 20
228.3100417346
 10
282.1741473958
 20
227.654936542
 10
281.485941546
 20
226.7266323664
 10
281.0260970987
 20
225.6664551036
 10
280.8646212025
 20
224.6358071312
  0
LWPOLYLINE
  5
2F2
330
1F
100
AcDbEntity
  8
0
  6
Continuous
 62
     7
370
     0
100
AcDbPolyline
 90
       17
 70
   128
 43
0.0
 10
332.4834162291
 20
199.7353597206
 10
332.3219403328
 20
198.7047117482
 10
331.8620958855
 20
197.6445344854
 10
331.1738900357
 20
196.7162303099
 10
330.3620958855
 20
196.0611251172
 10
329.5503017353
 20
195.7789527345
 10
328.8620958855
 20
195.9126713492
 10
328.4022514382
 20
196.4419235142
 10
328.240775542
 20
197.2861353851
 10
328.4022514382
 20
198.3167833575
 10
328.8620958855
 20
199.3769606204
 10
329.5503017353
 20
200.3052647959
 10
330.3620958855
 20
200.9603699885
 10
331.1738900357
 20
201.2425423712
 10
331.8620958855
 20
201.1088237566
 10
332.3219403328
 20
200.5795715916
 10
332.4834162291
 20
199.7353597206
  0
ENDSEC
  0
SECTION
  2
OBJECTS
  0
DICTIONARY
  5
C
330
0
100
AcDbDictionary
281
     1
  3
ACAD_GROUP
350
D
  3
ACAD_LAYOUT
350
1A
  3
ACAD_MLEADERSTYLE
350
2F6
  3
ACAD_MLINESTYLE
350
17
  3
ACAD_PLOTSETTINGS
350
19
  3
ACAD_PLOTSTYLENAME
350
E
  3
ACAD_SCALELIST
350
3B
  3
ACAD_TABLESTYLE
350
2F5
  3
ACAD_VISUALSTYLE
350
2A
  3
AcDbVariableDictionary
350
2F3
  0
DICTIONARY
  5
D
102
{ACAD_REACTORS
330
C
102
}
330
C
100
AcDbDictionary
281
     1
  0
DICTIONARY
  5
1A
102
{ACAD_REACTORS
330
C
102
}
330
C
100
AcDbDictionary
281
     1
  3
Layout1
350
1E
  3
Layout2
350
26
  3
Model
350
22
  0
DICTIONARY
  5
2F6
102
{ACAD_REACTORS
330
C
102
}
330
C
100
AcDbDictionary
281
     1
  0
DICTIONARY
  5
17
102
{ACAD_REACTORS
330
C
102
}
330
C
100
AcDbDictionary
281
     1
  3
Standard
350
18
  0
DICTIONARY
  5
19
102
{ACAD_REACTORS
330
C
102
}
330
C
100
AcDbDictionary
281
     1
  0
ACDBDICTIONARYWDFLT
  5
E
102
{ACAD_REACTORS
330
C
102
}
330
C
100
AcDbDictionary
281
     1
  3
Normal
350
F
100
AcDbDictionaryWithDefault
340
F
  0
DICTIONARY
  5
3B
102
{ACAD_REACTORS
330
C
102
}
330
C
100
AcDbDictionary
281
     1
  3
A0
350
3C
  3
A1
350
3D
  3
A2
350
3E
  3
A3
350
3F
  3
A4
350
40
  3
A5
350
41
  3
A6
350
42
  3
A7
350
43
  3
A8
350
44
  3
A9
350
45
  3
B0
350
46
  3
B1
350
47
  3
B2
350
48
  3
B3
350
49
  3
B4
350
4A
  3
B5
350
4B
  3
B6
350
4C
  3
B7
350
4D
  3
B8
350
4E
  3
B9
350
4F
  3
C0
350
50
  3
C1
350
51
  3
C2
350
52
  3
C3
350
53
  3
C4
350
54
  3
C5
350
55
  3
C6
350
56
  3
C7
350
57
  3
C8
350
58
  3
C9
350
59
  3
D0
350
5A
  3
D1
350
5B
  3
D2
350
5C
  0
DICTIONARY
  5
2F5
102
{ACAD_REACTORS
330
C
102
}
330
C
100
AcDbDictionary
281
     1
  0
DICTIONARY
  5
2A
102
{ACAD_REACTORS
330
C
102
}
330
C
100
AcDbDictionary
281
     1
  3
2dWireframe
350
2F
  3
3D Hidden
350
31
  3
3dWireframe
350
30
  3
Basic
350
32
  3
Brighten
350
36
  3
ColorChange
350
3A
  3
Conceptual
350
34
  3
Dim
350
35
  3
Facepattern
350
39
  3
Flat
350
2B
  3
FlatWithEdges
350
2C
  3
Gouraud
350
2D
  3
GouraudWithEdges
350
2E
  3
Linepattern
350
38
  3
Realistic
350
33
  3
Thicken
350
37
  0
DICTIONARY
  5
2F3
102
{ACAD_REACTORS
330
C
102
}
330
C
100
AcDbDictionary
281
     1
  3
CANNOSCALE
350
2F4
  3
PSOLHEIGHT
350
2F8
  3
PSOLWIDTH
350
2F7
  0
LAYOUT
  5
1E
102
{ACAD_REACTORS
330
1A
102
}
330
1A
100
AcDbPlotSettings
  1

  2
none_device
  4

  6

 40
0.0
 41
0.0
 42
0.0
 43
0.0
 44
0.0
 45
0.0
 46
0.0
 47
0.0
 48
0.0
 49
0.0
140
0.0
141
0.0
142
1.0
143
1.0
 70
   688
 72
     0
 73
     0
 74
     5
  7

 75
    16
147
1.0
148
0.0
149
0.0
100
AcDbLayout
  1
Layout1
 70
     1
 71
     1
 10
0.0
 20
0.0
 11
420.0
 21
297.0
 12
0.0
 22
0.0
 32
0.0
 14
1.0000000000E+20
 24
1.0000000000E+20
 34
1.0000000000E+20
 15
-1.0000000000E+20
 25
-1.0000000000E+20
 35
-1.0000000000E+20
146
0.0
 13
0.0
 23
0.0
 33
0.0
 16
1.0
 26
0.0
 36
0.0
 17
0.0
 27
1.0
 37
0.0
 76
     0
330
1B
  0
LAYOUT
  5
26
102
{ACAD_REACTORS
330
1A
102
}
330
1A
100
AcDbPlotSettings
  1

  2
none_device
  4

  6

 40
0.0
 41
0.0
 42
0.0
 43
0.0
 44
0.0
 45
0.0
 46
0.0
 47
0.0
 48
0.0
 49
0.0
140
0.0
141
0.0
142
1.0
143
1.0
 70
   688
 72
     0
 73
     0
 74
     5
  7

 75
    16
147
1.0
148
0.0
149
0.0
100
AcDbLayout
  1
Layout2
 70
     1
 71
     2
 10
0.0
 20
0.0
 11
0.0
 21
0.0
 12
0.0
 22
0.0
 32
0.0
 14
0.0
 24
0.0
 34
0.0
 15
0.0
 25
0.0
 35
0.0
146
0.0
 13
0.0
 23
0.0
 33
0.0
 16
1.0
 26
0.0
 36
0.0
 17
0.0
 27
1.0
 37
0.0
 76
     0
330
23
  0
LAYOUT
  5
22
102
{ACAD_REACTORS
330
1A
102
}
330
1A
100
AcDbPlotSettings
  1

  2
none_device
  4

  6

 40
0.0
 41
0.0
 42
0.0
 43
0.0
 44
0.0
 45
0.0
 46
0.0
 47
0.0
 48
0.0
 49
0.0
140
0.0
141
0.0
142
1.0
143
1.0
 70
  1712
 72
     0
 73
     0
 74
     0
  7

 75
     0
147
1.0
148
0.0
149
0.0
100
AcDbLayout
  1
Model
 70
     1
 71
     0
 10
0.0
 20
0.0
 11
420.0
 21
297.0
 12
0.0
 22
0.0
 32
0.0
 14
0.0
 24
0.0
 34
0.0
 15
420.0
 25
297.0
 35
0.0
146
0.0
 13
0.0
 23
0.0
 33
0.0
 16
1.0
 26
0.0
 36
0.0
 17
0.0
 27
1.0
 37
0.0
 76
     0
330
1F
331
29
  0
MLINESTYLE
  5
18
102
{ACAD_REACTORS
330
17
102
}
330
17
100
AcDbMlineStyle
  2
Standard
 70
     0
  3

 62
   256
 51
90.0
 52
90.0
 71
     2
 49
0.5
 62
   256
  6
BYLAYER
 49
-0.5
 62
   256
  6
BYLAYER
  0
ACDBPLACEHOLDER
  5
F
102
{ACAD_REACTORS
330
E
102
}
330
E
  0
SCALE
  5
3C
102
{ACAD_REACTORS
330
3B
102
}
330
3B
100
AcDbScale
 70
     0
300
1:1
140
1.0
141
1.0
290
     1
  0
SCALE
  5
3D
102
{ACAD_REACTORS
330
3B
102
}
330
3B
100
AcDbScale
 70
     0
300
1:2
140
1.0
141
2.0
290
     0
  0
SCALE
  5
3E
102
{ACAD_REACTORS
330
3B
102
}
330
3B
100
AcDbScale
 70
     0
300
1:4
140
1.0
141
4.0
290
     0
  0
SCALE
  5
3F
102
{ACAD_REACTORS
330
3B
102
}
330
3B
100
AcDbScale
 70
     0
300
1:5
140
1.0
141
5.0
290
     0
  0
SCALE
  5
40
102
{ACAD_REACTORS
330
3B
102
}
330
3B
100
AcDbScale
 70
     0
300
1:8
140
1.0
141
8.0
290
     0
  0
SCALE
  5
41
102
{ACAD_REACTORS
330
3B
102
}
330
3B
100
AcDbScale
 70
     0
300
1:10
140
1.0
141
10.0
290
     0
  0
SCALE
  5
42
102
{ACAD_REACTORS
330
3B
102
}
330
3B
100
AcDbScale
 70
     0
300
1:16
140
1.0
141
16.0
290
     0
  0
SCALE
  5
43
102
{ACAD_REACTORS
330
3B
102
}
330
3B
100
AcDbScale
 70
     0
300
1:20
140
1.0
141
20.0
290
     0
  0
SCALE
  5
44
102
{ACAD_REACTORS
330
3B
102
}
330
3B
100
AcDbScale
 70
     0
300
1:30
140
1.0
141
30.0
290
     0
  0
SCALE
  5
45
102
{ACAD_REACTORS
330
3B
102
}
330
3B
100
AcDbScale
 70
     0
300
1:40
140
1.0
141
40.0
290
     0
  0
SCALE
  5
46
102
{ACAD_REACTORS
330
3B
102
}
330
3B
100
AcDbScale
 70
     0
300
1:50
140
1.0
141
50.0
290
     0
  0
SCALE
  5
47
102
{ACAD_REACTORS
330
3B
102
}
330
3B
100
AcDbScale
 70
     0
300
1:100
140
1.0
141
100.0
290
     0
  0
SCALE
  5
48
102
{ACAD_REACTORS
330
3B
102
}
330
3B
100
AcDbScale
 70
     0
300
2:1
140
2.0
141
1.0
290
     0
  0
SCALE
  5
49
102
{ACAD_REACTORS
330
3B
102
}
330
3B
100
AcDbScale
 70
     0
300
4:1
140
4.0
141
1.0
290
     0
  0
SCALE
  5
4A
102
{ACAD_REACTORS
330
3B
102
}
330
3B
100
AcDbScale
 70
     0
300
8:1
140
8.0
141
1.0
290
     0
  0
SCALE
  5
4B
102
{ACAD_REACTORS
330
3B
102
}
330
3B
100
AcDbScale
 70
     0
300
10:1
140
10.0
141
1.0
290
     0
  0
SCALE
  5
4C
102
{ACAD_REACTORS
330
3B
102
}
330
3B
100
AcDbScale
 70
     0
300
100:1
140
100.0
141
1.0
290
     0
  0
SCALE
  5
4D
102
{ACAD_REACTORS
330
3B
102
}
330
3B
100
AcDbScale
 70
     0
300
1/128" = 1'-0"
140
0.0078125
141
12.0
290
     0
  0
SCALE
  5
4E
102
{ACAD_REACTORS
330
3B
102
}
330
3B
100
AcDbScale
 70
     0
300
1/64" = 1'-0"
140
0.015625
141
12.0
290
     0
  0
SCALE
  5
4F
102
{ACAD_REACTORS
330
3B
102
}
330
3B
100
AcDbScale
 70
     0
300
1/32" = 1'-0"
140
0.03125
141
12.0
290
     0
  0
SCALE
  5
50
102
{ACAD_REACTORS
330
3B
102
}
330
3B
100
AcDbScale
 70
     0
300
1/16" = 1'-0"
140
0.0625
141
12.0
290
     0
  0
SCALE
  5
51
102
{ACAD_REACTORS
330
3B
102
}
330
3B
100
AcDbScale
 70
     0
300
3/32" = 1'-0"
140
0.09375
141
12.0
290
     0
  0
SCALE
  5
52
102
{ACAD_REACTORS
330
3B
102
}
330
3B
100
AcDbScale
 70
     0
300
1/8" = 1'-0"
140
0.125
141
12.0
290
     0
  0
SCALE
  5
53
102
{ACAD_REACTORS
330
3B
102
}
330
3B
100
AcDbScale
 70
     0
300
3/16" = 1'-0"
140
0.1875
141
12.0
290
     0
  0
SCALE
  5
54
102
{ACAD_REACTORS
330
3B
102
}
330
3B
100
AcDbScale
 70
     0
300
1/4" = 1'-0"
140
0.25
141
12.0
290
     0
  0
SCALE
  5
55
102
{ACAD_REACTORS
330
3B
102
}
330
3B
100
AcDbScale
 70
     0
300
3/8" = 1'-0"
140
0.375
141
12.0
290
     0
  0
SCALE
  5
56
102
{ACAD_REACTORS
330
3B
102
}
330
3B
100
AcDbScale
 70
     0
300
1/2" = 1'-0"
140
0.5
141
12.0
290
     0
  0
SCALE
  5
57
102
{ACAD_REACTORS
330
3B
102
}
330
3B
100
AcDbScale
 70
     0
300
3/4" = 1'-0"
140
0.75
141
12.0
290
     0
  0
SCALE
  5
58
102
{ACAD_REACTORS
330
3B
102
}
330
3B
100
AcDbScale
 70
     0
300
1" = 1'-0"
140
1.0
141
12.0
290
     0
  0
SCALE
  5
59
102
{ACAD_REACTORS
330
3B
102
}
330
3B
100
AcDbScale
 70
     0
300
1-1/2" = 1'-0"
140
1.5
141
12.0
290
     0
  0
SCALE
  5
5A
102
{ACAD_REACTORS
330
3B
102
}
330
3B
100
AcDbScale
 70
     0
300
3" = 1'-0"
140
3.0
141
12.0
290
     0
  0
SCALE
  5
5B
102
{ACAD_REACTORS
330
3B
102
}
330
3B
100
AcDbScale
 70
     0
300
6" = 1'-0"
140
6.0
141
12.0
290
     0
  0
SCALE
  5
5C
102
{ACAD_REACTORS
330
3B
102
}
330
3B
100
AcDbScale
 70
     0
300
1'-0" = 1'-0"
140
12.0
141
12.0
290
     0
  0
VISUALSTYLE
  5
2F
102
{ACAD_REACTORS
330
2A
102
}
330
2A
100
AcDbVisualStyle
  2
2dWireframe
 70
     4
 71
     0
 72
     2
 73
     0
 90
        0
 40
-0.6
 41
-30.0
 62
     5
 63
     7
 74
     1
 91
        4
 64
     7
 65
   257
 75
     1
175
     1
 42
1.0
 92
        0
 66
   257
 43
1.0
 76
     1
 77
     6
 78
     2
 67
     7
 79
     5
170
     0
171
     0
290
     0
174
     0
 93
        1
 44
0.0
173
     0
291
     0
 45
0.0
1001
ACAD
1000
AcDbSavedByObjectVersion
1070
     0
  0
VISUALSTYLE
  5
31
102
{ACAD_REACTORS
330
2A
102
}
330
2A
100
AcDbVisualStyle
  2
3D Hidden
 70
     6
 71
     1
 72
     2
 73
     2
 90
        0
 40
-0.6
 41
-30.0
 62
     5
 63
     7
 74
     2
 91
        2
 64
     7
 65
   257
 75
     2
175
     1
 42
40.0
 92
        0
 66
   257
 43
1.0
 76
     1
 77
     6
 78
     2
 67
     7
 79
     3
170
     0
171
     0
290
     0
174
     0
 93
        1
 44
0.0
173
     0
291
     0
 45
0.0
1001
ACAD
1000
AcDbSavedByObjectVersion
1070
     0
  0
VISUALSTYLE
  5
30
102
{ACAD_REACTORS
330
2A
102
}
330
2A
100
AcDbVisualStyle
  2
3dWireframe
 70
     5
 71
     0
 72
     2
 73
     0
 90
        0
 40
-0.6
 41
-30.0
 62
     5
 63
     7
 74
     1
 91
        4
 64
     7
 65
   257
 75
     1
175
     1
 42
1.0
 92
        0
 66
   257
 43
1.0
 76
     1
 77
     6
 78
     2
 67
     7
 79
     5
170
     0
171
     0
290
     0
174
     0
 93
        1
 44
0.0
173
     0
291
     0
 45
0.0
1001
ACAD
1000
AcDbSavedByObjectVersion
1070
     0
  0
VISUALSTYLE
  5
32
102
{ACAD_REACTORS
330
2A
102
}
330
2A
100
AcDbVisualStyle
  2
Basic
 70
     7
 71
     1
 72
     0
 73
     1
 90
        0
 40
-0.6
 41
-30.0
 62
     5
 63
     7
 74
     0
 91
        4
 64
     7
 65
   257
 75
     1
175
     1
 42
1.0
 92
        8
 66
     7
 43
1.0
 76
     1
 77
     6
 78
     2
 67
     7
 79
     5
170
     0
171
     0
290
     0
174
     0
 93
        1
 44
0.0
173
     0
291
     1
 45
0.0
1001
ACAD
1000
AcDbSavedByObjectVersion
1070
     0
  0
VISUALSTYLE
  5
36
102
{ACAD_REACTORS
330
2A
102
}
330
2A
100
AcDbVisualStyle
  2
Brighten
 70
    12
 71
     2
 72
     2
 73
     0
 90
        0
 40
-0.6
 41
-30.0
 62
     5
 63
     7
 74
     1
 91
        4
 64
     7
 65
   257
 75
     1
175
     1
 42
1.0
 92
        8
 66
     7
 43
1.0
 76
     1
 77
     6
 78
     2
 67
     7
 79
     5
170
     0
171
     0
290
     0
174
     0
 93
        1
 44
50.0
173
     0
291
     1
 45
0.0
1001
ACAD
1000
AcDbSavedByObjectVersion
1070
     0
  0
VISUALSTYLE
  5
3A
102
{ACAD_REACTORS
330
2A
102
}
330
2A
100
AcDbVisualStyle
  2
ColorChange
 70
    16
 71
     2
 72
     2
 73
     3
 90
        0
 40
-0.6
 41
-30.0
 62
     5
 63
     8
 74
     1
 91
        4
 64
     7
 65
   257
 75
     1
175
     1
 42
1.0
 92
        8
 66
     8
 43
1.0
 76
     1
 77
     6
 78
     2
 67
     7
 79
     5
170
     0
171
     0
290
     0
174
     0
 93
        1
 44
0.0
173
     0
291
     1
 45
0.0
1001
ACAD
1000
AcDbSavedByObjectVersion
1070
     0
  0
VISUALSTYLE
  5
34
102
{ACAD_REACTORS
330
2A
102
}
330
2A
100
AcDbVisualStyle
  2
Conceptual
 70
     9
 71
     3
 72
     2
 73
     0
 90
        0
 40
-0.6
 41
-30.0
 62
     5
 63
     7
 74
     2
 91
        2
 64
     7
 65
   257
 75
     1
175
     1
 42
40.0
 92
        8
 66
     7
 43
1.0
 76
     1
 77
     6
 78
     2
 67
     7
 79
     3
170
     0
171
     0
290
     0
174
     0
 93
        1
 44
0.0
173
     0
291
     0
 45
0.0
1001
ACAD
1000
AcDbSavedByObjectVersion
1070
     0
  0
VISUALSTYLE
  5
35
102
{ACAD_REACTORS
330
2A
102
}
330
2A
100
AcDbVisualStyle
  2
Dim
 70
    11
 71
     2
 72
     2
 73
     0
 90
        0
 40
-0.6
 41
-30.0
 62
     5
 63
     7
 74
     1
 91
        4
 64
     7
 65
   257
 75
     1
175
     1
 42
1.0
 92
        8
 66
     7
 43
1.0
 76
     1
 77
     6
 78
     2
 67
     7
 79
     5
170
     0
171
     0
290
     0
174
     0
 93
        1
 44
-50.0
173
     0
291
     1
 45
0.0
1001
ACAD
1000
AcDbSavedByObjectVersion
1070
     0
  0
VISUALSTYLE
  5
39
102
{ACAD_REACTORS
330
2A
102
}
330
2A
100
AcDbVisualStyle
  2
Facepattern
 70
    15
 71
     2
 72
     2
 73
     0
 90
        0
 40
-0.6
 41
-30.0
 62
     5
 63
     7
 74
     1
 91
        4
 64
     7
 65
   257
 75
     1
175
     1
 42
1.0
 92
        8
 66
     7
 43
1.0
 76
     1
 77
     6
 78
     2
 67
     7
 79
     5
170
     0
171
     0
290
     0
174
     0
 93
        1
 44
0.0
173
     0
291
     1
 45
0.0
1001
ACAD
1000
AcDbSavedByObjectVersion
1070
     0
  0
VISUALSTYLE
  5
2B
102
{ACAD_REACTORS
330
2A
102
}
330
2A
100
AcDbVisualStyle
  2
Flat
 70
     0
 71
     2
 72
     1
 73
     1
 90
        2
 40
-0.6
 41
30.0
 62
     5
 63
     7
 74
     0
 91
        4
 64
     7
 65
   257
 75
     1
175
     1
 42
1.0
 92
        8
 66
     7
 43
1.0
 76
     1
 77
     6
 78
     2
 67
     7
 79
     5
170
     0
171
     0
290
     0
174
     0
 93
       13
 44
0.0
173
     0
291
     1
 45
0.0
1001
ACAD
1000
AcDbSavedByObjectVersion
1070
     0
  0
VISUALSTYLE
  5
2C
102
{ACAD_REACTORS
330
2A
102
}
330
2A
100
AcDbVisualStyle
  2
FlatWithEdges
 70
     1
 71
     2
 72
     1
 73
     1
 90
        2
 40
-0.6
 41
30.0
 62
     5
 63
     7
 74
     1
 91
        4
 64
     7
 65
   257
 75
     1
175
     1
 42
1.0
 92
        0
 66
   257
 43
1.0
 76
     1
 77
     6
 78
     2
 67
     7
 79
     5
170
     0
171
     0
290
     0
174
     0
 93
       13
 44
0.0
173
     0
291
     1
 45
0.0
1001
ACAD
1000
AcDbSavedByObjectVersion
1070
     0
  0
VISUALSTYLE
  5
2D
102
{ACAD_REACTORS
330
2A
102
}
330
2A
100
AcDbVisualStyle
  2
Gouraud
 70
     2
 71
     2
 72
     2
 73
     1
 90
        2
 40
-0.6
 41
30.0
 62
     5
 63
     7
 74
     0
 91
        4
 64
     7
 65
   257
 75
     1
175
     1
 42
1.0
 92
        0
 66
     7
 43
1.0
 76
     1
 77
     6
 78
     2
 67
     7
 79
     5
170
     0
171
     0
290
     0
174
     0
 93
       13
 44
0.0
173
     0
291
     1
 45
0.0
1001
ACAD
1000
AcDbSavedByObjectVersion
1070
     0
  0
VISUALSTYLE
  5
2E
102
{ACAD_REACTORS
330
2A
102
}
330
2A
100
AcDbVisualStyle
  2
GouraudWithEdges
 70
     3
 71
     2
 72
     2
 73
     1
 90
        2
 40
-0.6
 41
30.0
 62
     5
 63
     7
 74
     1
 91
        4
 64
     7
 65
   257
 75
     1
175
     1
 42
1.0
 92
        0
 66
   257
 43
1.0
 76
     1
 77
     6
 78
     2
 67
     7
 79
     5
170
     0
171
     0
290
     0
174
     0
 93
       13
 44
0.0
173
     0
291
     1
 45
0.0
1001
ACAD
1000
AcDbSavedByObjectVersion
1070
     0
  0
VISUALSTYLE
  5
38
102
{ACAD_REACTORS
330
2A
102
}
330
2A
100
AcDbVisualStyle
  2
Linepattern
 70
    14
 71
     2
 72
     2
 73
     0
 90
        0
 40
-0.6
 41
-30.0
 62
     5
 63
     7
 74
     1
 91
        4
 64
     7
 65
   257
 75
     7
175
     7
 42
1.0
 92
        8
 66
     7
 43
1.0
 76
     1
 77
     6
 78
     2
 67
     7
 79
     5
170
     0
171
     0
290
     0
174
     0
 93
        1
 44
0.0
173
     0
291
     1
 45
0.0
1001
ACAD
1000
AcDbSavedByObjectVersion
1070
     0
  0
VISUALSTYLE
  5
33
102
{ACAD_REACTORS
330
2A
102
}
330
2A
100
AcDbVisualStyle
  2
Realistic
 70
     8
 71
     2
 72
     2
 73
     0
 90
        0
 40
-0.6
 41
-30.0
 62
     5
 63
     7
 74
     1
 91
        0
 64
     7
 65
   257
 75
     1
175
     1
 42
1.0
 92
        8
 66
     8
 43
1.0
 76
     1
 77
     6
 78
     2
 67
     7
 79
     5
170
     0
171
     0
290
     0
174
     0
 93
       13
 44
0.0
173
     0
291
     0
 45
0.0
1001
ACAD
1000
AcDbSavedByObjectVersion
1070
     0
  0
VISUALSTYLE
  5
37
102
{ACAD_REACTORS
330
2A
102
}
330
2A
100
AcDbVisualStyle
  2
Thicken
 70
    13
 71
     2
 72
     2
 73
     0
 90
        0
 40
-0.6
 41
-30.0
 62
     5
 63
     7
 74
     1
 91
        4
 64
     7
 65
   257
 75
     1
175
     1
 42
1.0
 92
       12
 66
     7
 43
1.0
 76
     1
 77
     6
 78
     2
 67
     7
 79
     5
170
     0
171
     0
290
     0
174
     0
 93
        1
 44
0.0
173
     0
291
     1
 45
0.0
1001
ACAD
1000
AcDbSavedByObjectVersion
1070
     0
  0
DICTIONARYVAR
  5
2F4
102
{ACAD_REACTORS
330
2F3
102
}
330
2F3
100
DictionaryVariables
280
     0
  1
1:1
  0
DICTIONARYVAR
  5
2F8
102
{ACAD_REACTORS
330
2F3
102
}
330
2F3
100
DictionaryVariables
280
     0
  1
80.000000
  0
DICTIONARYVAR
  5
2F7
102
{ACAD_REACTORS
330
2F3
102
}
330
2F3
100
DictionaryVariables
280
     0
  1
5.000000
  0
ENDSEC
  0
EOF
