  0
SECTION
  2
HEADER
  9
$ACADVER
  1
AC1015
  9
$ACADMAINTVER
 70
     6
  9
$DWGCODEPAGE
  3
ANSI_1252
  9
$INSBASE
 10
0.0
 20
0.0
 30
0.0
  9
$EXTMIN
 10
0.0
 20
0.0
 30
0.0
  9
$EXTMAX
 10
420.0
 20
297.0
 30
0.0
  9
$LIMMIN
 10
0.0
 20
0.0
  9
$LIMMAX
 10
420.0
 20
297.0
  9
$ORTHOMODE
 70
     0
  9
$REGENMODE
 70
     1
  9
$FILLMODE
 70
     1
  9
$QTEXTMODE
 70
     0
  9
$MIRRTEXT
 70
     1
  9
$LTSCALE
 40
1.0
  9
$ATTMODE
 70
     1
  9
$TEXTSIZE
 40
3.5
  9
$TRACEWID
 40
1.0
  9
$TEXTSTYLE
  7
Standard
  9
$CLAYER
  8
0
  9
$CELTYPE
  6
ByLayer
  9
$CECOLOR
 62
   256
  9
$CELTSCALE
 40
1.0
  9
$DISPSILH
 70
     0
  9
$DIMSCALE
 40
1.0
  9
$DIMASZ
 40
6.0
  9
$DIMEXO
 40
1.0
  9
$DIMDLI
 40
3.75
  9
$DIMRND
 40
0.0
  9
$DIMDLE
 40
0.0
  9
$DIMEXE
 40
1.0
  9
$DIMTP
 40
0.0
  9
$DIMTM
 40
0.0
  9
$DIMTXT
 40
3.5
  9
$DIMCEN
 40
2.5
  9
$DIMTSZ
 40
0.0
  9
$DIMTOL
 70
     0
  9
$DIMLIM
 70
     0
  9
$DIMTIH
 70
     1
  9
$DIMTOH
 70
     1
  9
$DIMSE1
 70
     0
  9
$DIMSE2
 70
     0
  9
$DIMTAD
 70
     1
  9
$DIMZIN
 70
     0
  9
$DIMBLK
  1

  9
$DIMASO
 70
     1
  9
$DIMSHO
 70
     1
  9
$DIMPOST
  1

  9
$DIMAPOST
  1

  9
$DIMALT
 70
     0
  9
$DIMALTD
 70
     3
  9
$DIMALTF
 40
0.0393700787
  9
$DIMLFAC
 40
1.0
  9
$DIMTOFL
 70
     1
  9
$DIMTVP
 40
0.0
  9
$DIMTIX
 70
     0
  9
$DIMSOXD
 70
     0
  9
$DIMSAH
 70
     0
  9
$DIMBLK1
  1

  9
$DIMBLK2
  1

  9
$DIMSTYLE
  2
ISO-25
  9
$DIMCLRD
 70
     0
  9
$DIMCLRE
 70
     0
  9
$DIMCLRT
 70
     0
  9
$DIMTFAC
 40
1.0
  9
$DIMGAP
 40
1.524
  9
$DIMJUST
 70
     0
  9
$DIMSD1
 70
     0
  9
$DIMSD2
 70
     0
  9
$DIMTOLJ
 70
     0
  9
$DIMTZIN
 70
     0
  9
$DIMALTZ
 70
     0
  9
$DIMALTTZ
 70
     0
  9
$DIMUPT
 70
     0
  9
$DIMDEC
 70
     2
  9
$DIMTDEC
 70
     2
  9
$DIMALTU
 70
     2
  9
$DIMALTTD
 70
     3
  9
$DIMTXSTY
  7
Standard
  9
$DIMAUNIT
 70
     0
  9
$DIMADEC
 70
     0
  9
$DIMALTRND
 40
0.0
  9
$DIMAZIN
 70
     0
  9
$DIMDSEP
 70
    44
  9
$DIMATFIT
 70
     3
  9
$DIMFRAC
 70
     0
  9
$DIMLDRBLK
  1

  9
$DIMLUNIT
 70
     2
  9
$DIMLWD
 70
    -2
  9
$DIMLWE
 70
    -2
  9
$DIMTMOVE
 70
     0
  9
$LUNITS
 70
     2
  9
$LUPREC
 70
     2
  9
$SKETCHINC
 40
1.0
  9
$FILLETRAD
 40
10.0
  9
$AUNITS
 70
     0
  9
$AUPREC
 70
     0
  9
$MENU
  1
.
  9
$ELEVATION
 40
0.0
  9
$PELEVATION
 40
0.0
  9
$THICKNESS
 40
0.0
  9
$LIMCHECK
 70
     0
  9
$CHAMFERA
 40
10.0
  9
$CHAMFERB
 40
10.0
  9
$CHAMFERC
 40
20.0
  9
$CHAMFERD
 40
0.0
  9
$SKPOLY
 70
     0
  9
$TDCREATE
 40
2454871.935572187
  9
$TDUCREATE
 40
2454872.143905521
  9
$TDUPDATE
 40
2454871.935572199
  9
$TDUUPDATE
 40
2454872.143905533
  9
$TDINDWG
 40
0.0000000116
  9
$TDUSRTIMER
 40
0.0000000116
  9
$USRTIMER
 70
     1
  9
$ANGBASE
 50
0.0
  9
$ANGDIR
 70
     0
  9
$PDMODE
 70
     0
  9
$PDSIZE
 40
-1.0
  9
$PLINEWID
 40
0.0
  9
$SPLFRAME
 70
     0
  9
$SPLINETYPE
 70
     6
  9
$SPLINESEGS
 70
     8
  9
$HANDSEED
  5
299
  9
$SURFTAB1
 70
     6
  9
$SURFTAB2
 70
     6
  9
$SURFTYPE
 70
     6
  9
$SURFU
 70
     6
  9
$SURFV
 70
     6
  9
$UCSBASE
  2

  9
$UCSNAME
  2

  9
$UCSORG
 10
0.0
 20
0.0
 30
0.0
  9
$UCSXDIR
 10
1.0
 20
0.0
 30
0.0
  9
$UCSYDIR
 10
0.0
 20
1.0
 30
0.0
  9
$UCSORTHOREF
  2

  9
$UCSORTHOVIEW
 70
     0
  9
$UCSORGTOP
 10
0.0
 20
0.0
 30
0.0
  9
$UCSORGBOTTOM
 10
0.0
 20
0.0
 30
0.0
  9
$UCSORGLEFT
 10
0.0
 20
0.0
 30
0.0
  9
$UCSORGRIGHT
 10
0.0
 20
0.0
 30
0.0
  9
$UCSORGFRONT
 10
0.0
 20
0.0
 30
0.0
  9
$UCSORGBACK
 10
0.0
 20
0.0
 30
0.0
  9
$PUCSBASE
  2

  9
$PUCSNAME
  2

  9
$PUCSORG
 10
0.0
 20
0.0
 30
0.0
  9
$PUCSXDIR
 10
1.0
 20
0.0
 30
0.0
  9
$PUCSYDIR
 10
0.0
 20
1.0
 30
0.0
  9
$PUCSORTHOREF
  2

  9
$PUCSORTHOVIEW
 70
     0
  9
$PUCSORGTOP
 10
0.0
 20
0.0
 30
0.0
  9
$PUCSORGBOTTOM
 10
0.0
 20
0.0
 30
0.0
  9
$PUCSORGLEFT
 10
0.0
 20
0.0
 30
0.0
  9
$PUCSORGRIGHT
 10
0.0
 20
0.0
 30
0.0
  9
$PUCSORGFRONT
 10
0.0
 20
0.0
 30
0.0
  9
$PUCSORGBACK
 10
0.0
 20
0.0
 30
0.0
  9
$USERI1
 70
     0
  9
$USERI2
 70
     0
  9
$USERI3
 70
     0
  9
$USERI4
 70
     0
  9
$USERI5
 70
     0
  9
$USERR1
 40
0.0
  9
$USERR2
 40
0.0
  9
$USERR3
 40
0.0
  9
$USERR4
 40
0.0
  9
$USERR5
 40
0.0
  9
$WORLDVIEW
 70
     1
  9
$SHADEDGE
 70
     3
  9
$SHADEDIF
 70
    70
  9
$TILEMODE
 70
     1
  9
$MAXACTVP
 70
    64
  9
$PINSBASE
 10
0.0
 20
0.0
 30
0.0
  9
$PLIMCHECK
 70
     0
  9
$PEXTMIN
 10
1.0000000000E+20
 20
1.0000000000E+20
 30
1.0000000000E+20
  9
$PEXTMAX
 10
-1.0000000000E+20
 20
-1.0000000000E+20
 30
-1.0000000000E+20
  9
$PLIMMIN
 10
0.0
 20
0.0
  9
$PLIMMAX
 10
420.0
 20
297.0
  9
$UNITMODE
 70
     0
  9
$VISRETAIN
 70
     1
  9
$PLINEGEN
 70
     0
  9
$PSLTSCALE
 70
     1
  9
$TREEDEPTH
 70
  3020
  9
$CMLSTYLE
  2
Standard
  9
$CMLJUST
 70
     0
  9
$CMLSCALE
 40
20.0
  9
$PROXYGRAPHICS
 70
     1
  9
$MEASUREMENT
 70
     1
  9
$CELWEIGHT
370
    -1
  9
$ENDCAPS
280
     0
  9
$JOINSTYLE
280
     0
  9
$LWDISPLAY
290
     1
  9
$INSUNITS
 70
     4
  9
$HYPERLINKBASE
  1

  9
$STYLESHEET
  1

  9
$XEDIT
290
     1
  9
$CEPSNTYPE
380
     0
  9
$PSTYLEMODE
290
     1
  9
$FINGERPRINTGUID
  2
{F5940DFA-A421-41FC-BE5D-2EC3B4CB739A}
  9
$VERSIONGUID
  2
{FAEB1C32-E019-11D5-929B-00C0DF256EC4}
  9
$EXTNAMES
290
     1
  9
$PSVPSCALE
 40
0.0
  9
$OLESTARTUP
290
     0
  0
ENDSEC
  0
SECTION
  2
CLASSES
  0
CLASS
  1
ACDBDICTIONARYWDFLT
  2
AcDbDictionaryWithDefault
  3
ObjectDBX Classes
 90
        0
280
     0
281
     0
  0
CLASS
  1
VISUALSTYLE
  2
AcDbVisualStyle
  3
ObjectDBX Classes
 90
     4095
280
     0
281
     0
  0
CLASS
  1
DICTIONARYVAR
  2
AcDbDictionaryVar
  3
ObjectDBX Classes
 90
        0
280
     0
281
     0
  0
CLASS
  1
ACDBPLACEHOLDER
  2
AcDbPlaceHolder
  3
ObjectDBX Classes
 90
        0
280
     0
281
     0
  0
CLASS
  1
LAYOUT
  2
AcDbLayout
  3
ObjectDBX Classes
 90
        0
280
     0
281
     0
  0
ENDSEC
  0
SECTION
  2
TABLES
  0
TABLE
  2
VPORT
  5
8
330
0
100
AcDbSymbolTable
 70
     1
  0
VPORT
  5
29
330
8
100
AcDbSymbolTableRecord
100
AcDbViewportTableRecord
  2
*Active
 70
     0
 10
0.0
 20
0.0
 11
1.0
 21
1.0
 12
210.0
 22
148.5
 13
0.0
 23
0.0
 14
10.0
 24
10.0
 15
10.0
 25
10.0
 16
0.0
 26
0.0
 36
1.0
 17
0.0
 27
0.0
 37
0.0
 40
297.0
 41
1.4141414141
 42
50.0
 43
0.0
 44
0.0
 50
0.0
 51
0.0
 71
     0
 72
  2000
 73
     1
 74
     3
 75
     0
 76
     0
 77
     0
 78
     0
281
     0
 65
     1
110
0.0
120
0.0
130
0.0
111
1.0
121
0.0
131
0.0
112
0.0
122
1.0
132
0.0
 79
     0
146
0.0
  0
ENDTAB
  0
TABLE
  2
LTYPE
  5
5
330
0
100
AcDbSymbolTable
 70
     6
  0
LTYPE
  5
14
330
5
100
AcDbSymbolTableRecord
100
AcDbLinetypeTableRecord
  2
ByBlock
 70
     0
  3

 72
    65
 73
     0
 40
0.0
  0
LTYPE
  5
15
330
5
100
AcDbSymbolTableRecord
100
AcDbLinetypeTableRecord
  2
ByLayer
 70
     0
  3

 72
    65
 73
     0
 40
0.0
  0
LTYPE
  5
16
330
5
100
AcDbSymbolTableRecord
100
AcDbLinetypeTableRecord
  2
Continuous
 70
     0
  3
Solid line
 72
    65
 73
     0
 40
0.0
  0
LTYPE
  5
3B
330
5
100
AcDbSymbolTableRecord
100
AcDbLinetypeTableRecord
  2
HIDDEN
 70
     0
  3
Hidden __ __ __ __ __ __ __ __ __ __ __ __ __ __
 72
    65
 73
     2
 40
1.905
 49
1.27
 74
     0
 49
-0.635
 74
     0
  0
LTYPE
  5
3C
330
5
100
AcDbSymbolTableRecord
100
AcDbLinetypeTableRecord
  2
PHANTOM
 70
     0
  3
Phantom ______  __  __  ______  __  __  ______
 72
    65
 73
     6
 40
12.7
 49
6.35
 74
     0
 49
-1.27
 74
     0
 49
1.27
 74
     0
 49
-1.27
 74
     0
 49
1.27
 74
     0
 49
-1.27
 74
     0
  0
LTYPE
  5
3D
330
5
100
AcDbSymbolTableRecord
100
AcDbLinetypeTableRecord
  2
CENTER
 70
     0
  3
Center ____ _ ____ _ ____ _ ____ _ ____ _ ____
 72
    65
 73
     4
 40
10.16
 49
6.35
 74
     0
 49
-1.27
 74
     0
 49
1.27
 74
     0
 49
-1.27
 74
     0
  0
LTYPE
  5
3E
330
5
100
AcDbSymbolTableRecord
100
AcDbLinetypeTableRecord
  2
CENTERX2
 70
     0
  3
Center (2x) ________  __  ________  __  _____
 72
    65
 73
     4
 40
20.32
 49
12.7
 74
     0
 49
-2.54
 74
     0
 49
2.54
 74
     0
 49
-2.54
 74
     0
  0
LTYPE
  5
3F
330
5
100
AcDbSymbolTableRecord
100
AcDbLinetypeTableRecord
  2
DOT2
 70
     0
  3
Dot (.5x) ........................................
 72
    65
 73
     2
 40
0.635
 49
0.0
 74
     0
 49
-0.635
 74
     0
  0
ENDTAB
  0
TABLE
  2
LAYER
  5
2
330
0
100
AcDbSymbolTable
 70
     1
  0
LAYER
  5
10
330
2
100
AcDbSymbolTableRecord
100
AcDbLayerTableRecord
  2
0
 70
     0
 62
     7
  6
Continuous
370
    -3
390
F
  0
ENDTAB
  0
TABLE
  2
STYLE
  5
3
330
0
100
AcDbSymbolTable
 70
     1
  0
STYLE
  5
11
330
3
100
AcDbSymbolTableRecord
100
AcDbTextStyleTableRecord
  2
Standard
 70
     0
 40
0.0
 41
1.0
 50
0.0
 71
     0
 42
2.5
  3
txt
  4

  0
ENDTAB
  0
TABLE
  2
VIEW
  5
6
330
0
100
AcDbSymbolTable
 70
     0
  0
ENDTAB
  0
TABLE
  2
UCS
  5
7
330
0
100
AcDbSymbolTable
 70
     0
  0
ENDTAB
  0
TABLE
  2
APPID
  5
9
330
0
100
AcDbSymbolTable
 70
     1
  0
APPID
  5
12
330
9
100
AcDbSymbolTableRecord
100
AcDbRegAppTableRecord
  2
ACAD
 70
     0
  0
ENDTAB
  0
TABLE
  2
DIMSTYLE
  5
A
330
0
100
AcDbSymbolTable
 70
     1
100
AcDbDimStyleTable
  0
DIMSTYLE
105
27
330
A
100
AcDbSymbolTableRecord
100
AcDbDimStyleTableRecord
  2
ISO-25
 70
     0
 41
2.5
 42
0.625
 43
3.75
 44
1.25
 73
     0
 74
     0
 77
     1
 78
     8
140
2.5
141
2.5
143
0.0393700787
147
0.625
171
     3
172
     1
271
     2
272
     2
274
     3
278
    44
283
     0
284
     8
340
11
  0
ENDTAB
  0
TABLE
  2
BLOCK_RECORD
  5
1
330
0
100
AcDbSymbolTable
 70
    16
  0
BLOCK_RECORD
  5
1F
330
1
100
AcDbSymbolTableRecord
100
AcDbBlockTableRecord
  2
*Model_Space
340
22
  0
BLOCK_RECORD
  5
1B
330
1
100
AcDbSymbolTableRecord
100
AcDbBlockTableRecord
  2
*Paper_Space
340
1E
  0
BLOCK_RECORD
  5
23
330
1
100
AcDbSymbolTableRecord
100
AcDbBlockTableRecord
  2
*Paper_Space0
340
26
  0
BLOCK_RECORD
  5
87
330
1
100
AcDbSymbolTableRecord
100
AcDbBlockTableRecord
  2
SW_CENTERMARKSYMBOL_0
340
0
102
{BLKREFS
331
92
102
}
  0
BLOCK_RECORD
  5
93
330
1
100
AcDbSymbolTableRecord
100
AcDbBlockTableRecord
  2
SW_CENTERMARKSYMBOL_1
340
0
102
{BLKREFS
331
9E
102
}
  0
BLOCK_RECORD
  5
9F
330
1
100
AcDbSymbolTableRecord
100
AcDbBlockTableRecord
  2
SW_CENTERMARKSYMBOL_2
340
0
102
{BLKREFS
331
AA
102
}
  0
BLOCK_RECORD
  5
E3
330
1
100
AcDbSymbolTableRecord
100
AcDbBlockTableRecord
  2
SW_CENTERMARKSYMBOL_3
340
0
102
{BLKREFS
331
EE
102
}
  0
BLOCK_RECORD
  5
EF
330
1
100
AcDbSymbolTableRecord
100
AcDbBlockTableRecord
  2
SW_CENTERMARKSYMBOL_4
340
0
102
{BLKREFS
331
FA
102
}
  0
BLOCK_RECORD
  5
151
330
1
100
AcDbSymbolTableRecord
100
AcDbBlockTableRecord
  2
SW_CENTERMARKSYMBOL_5
340
0
102
{BLKREFS
331
15C
102
}
  0
BLOCK_RECORD
  5
15D
330
1
100
AcDbSymbolTableRecord
100
AcDbBlockTableRecord
  2
SW_CENTERMARKSYMBOL_6
340
0
102
{BLKREFS
331
168
102
}
  0
BLOCK_RECORD
  5
169
330
1
100
AcDbSymbolTableRecord
100
AcDbBlockTableRecord
  2
SW_CENTERMARKSYMBOL_7
340
0
102
{BLKREFS
331
174
102
}
  0
BLOCK_RECORD
  5
175
330
1
100
AcDbSymbolTableRecord
100
AcDbBlockTableRecord
  2
SW_CENTERMARKSYMBOL_8
340
0
102
{BLKREFS
331
180
102
}
  0
BLOCK_RECORD
  5
181
330
1
100
AcDbSymbolTableRecord
100
AcDbBlockTableRecord
  2
SW_CENTERMARKSYMBOL_9
340
0
102
{BLKREFS
331
18C
102
}
  0
BLOCK_RECORD
  5
18D
330
1
100
AcDbSymbolTableRecord
100
AcDbBlockTableRecord
  2
SW_CENTERMARKSYMBOL_10
340
0
102
{BLKREFS
331
198
102
}
  0
BLOCK_RECORD
  5
199
330
1
100
AcDbSymbolTableRecord
100
AcDbBlockTableRecord
  2
SW_CENTERMARKSYMBOL_11
340
0
102
{BLKREFS
331
1A4
102
}
  0
BLOCK_RECORD
  5
1A5
330
1
100
AcDbSymbolTableRecord
100
AcDbBlockTableRecord
  2
SW_CENTERMARKSYMBOL_12
340
0
102
{BLKREFS
331
1B0
102
}
  0
BLOCK_RECORD
  5
1B1
330
1
100
AcDbSymbolTableRecord
100
AcDbBlockTableRecord
  2
SW_CENTERMARKSYMBOL_13
340
0
102
{BLKREFS
331
1BC
102
}
  0
BLOCK_RECORD
  5
1BD
330
1
100
AcDbSymbolTableRecord
100
AcDbBlockTableRecord
  2
SW_CENTERMARKSYMBOL_14
340
0
102
{BLKREFS
331
1C8
102
}
  0
ENDTAB
  0
ENDSEC
  0
SECTION
  2
BLOCKS
  0
BLOCK
  5
20
330
1F
100
AcDbEntity
  8
0
100
AcDbBlockBegin
  2
*Model_Space
 70
     0
 10
0.0
 20
0.0
 30
0.0
  3
*Model_Space
  1

  0
ENDBLK
  5
21
330
1F
100
AcDbEntity
  8
0
100
AcDbBlockEnd
  0
BLOCK
  5
1C
330
1B
100
AcDbEntity
 67
     1
  8
0
100
AcDbBlockBegin
  2
*Paper_Space
 70
     0
 10
0.0
 20
0.0
 30
0.0
  3
*Paper_Space
  1

  0
ENDBLK
  5
1D
330
1B
100
AcDbEntity
 67
     1
  8
0
100
AcDbBlockEnd
  0
BLOCK
  5
24
330
23
100
AcDbEntity
  8
0
100
AcDbBlockBegin
  2
*Paper_Space0
 70
     0
 10
0.0
 20
0.0
 30
0.0
  3
*Paper_Space0
  1

  0
ENDBLK
  5
25
330
23
100
AcDbEntity
  8
0
100
AcDbBlockEnd
  0
BLOCK
  5
88
330
87
100
AcDbEntity
  8
0
100
AcDbBlockBegin
  2
SW_CENTERMARKSYMBOL_0
 70
     0
 10
0.0
 20
0.0
 30
0.0
  3
SW_CENTERMARKSYMBOL_0
  1

  0
LINE
  5
8A
330
87
100
AcDbEntity
  8
0
  6
Continuous
 62
     0
370
     0
100
AcDbLine
 10
0.0
 20
0.0
 30
0.0
 11
0.0
 21
2.5
 31
0.0
  0
LINE
  5
8B
330
87
100
AcDbEntity
  8
0
  6
Continuous
 62
     0
370
     0
100
AcDbLine
 10
0.0
 20
0.0
 30
0.0
 11
-2.5
 21
0.0
 31
0.0
  0
LINE
  5
8C
330
87
100
AcDbEntity
  8
0
  6
Continuous
 62
     0
370
     0
100
AcDbLine
 10
0.0
 20
0.0
 30
0.0
 11
0.0
 21
-2.5
 31
0.0
  0
LINE
  5
8D
330
87
100
AcDbEntity
  8
0
  6
Continuous
 62
     0
370
     0
100
AcDbLine
 10
0.0
 20
0.0
 30
0.0
 11
2.5
 21
0.0
 31
0.0
  0
LINE
  5
8E
330
87
100
AcDbEntity
  8
0
  6
Continuous
 62
     0
370
     0
100
AcDbLine
 10
0.0
 20
2.5
 30
0.0
 11
0.0
 21
5.0
 31
0.0
  0
LINE
  5
8F
330
87
100
AcDbEntity
  8
0
  6
Continuous
 62
     0
370
     0
100
AcDbLine
 10
-2.5
 20
0.0
 30
0.0
 11
-5.0
 21
0.0
 31
0.0
  0
LINE
  5
90
330
87
100
AcDbEntity
  8
0
  6
Continuous
 62
     0
370
     0
100
AcDbLine
 10
0.0
 20
-2.5
 30
0.0
 11
0.0
 21
-5.0
 31
0.0
  0
LINE
  5
91
330
87
100
AcDbEntity
  8
0
  6
Continuous
 62
     0
370
     0
100
AcDbLine
 10
2.5
 20
0.0
 30
0.0
 11
5.0
 21
0.0
 31
0.0
  0
ENDBLK
  5
89
330
87
100
AcDbEntity
  8
0
100
AcDbBlockEnd
  0
BLOCK
  5
94
330
93
100
AcDbEntity
  8
0
100
AcDbBlockBegin
  2
SW_CENTERMARKSYMBOL_1
 70
     0
 10
0.0
 20
0.0
 30
0.0
  3
SW_CENTERMARKSYMBOL_1
  1

  0
LINE
  5
96
330
93
100
AcDbEntity
  8
0
  6
Continuous
 62
     0
370
     0
100
AcDbLine
 10
0.0
 20
0.0
 30
0.0
 11
0.0
 21
2.5
 31
0.0
  0
LINE
  5
97
330
93
100
AcDbEntity
  8
0
  6
Continuous
 62
     0
370
     0
100
AcDbLine
 10
0.0
 20
0.0
 30
0.0
 11
-2.5
 21
0.0
 31
0.0
  0
LINE
  5
98
330
93
100
AcDbEntity
  8
0
  6
Continuous
 62
     0
370
     0
100
AcDbLine
 10
0.0
 20
0.0
 30
0.0
 11
0.0
 21
-2.5
 31
0.0
  0
LINE
  5
99
330
93
100
AcDbEntity
  8
0
  6
Continuous
 62
     0
370
     0
100
AcDbLine
 10
0.0
 20
0.0
 30
0.0
 11
2.5
 21
0.0
 31
0.0
  0
LINE
  5
9A
330
93
100
AcDbEntity
  8
0
  6
Continuous
 62
     0
370
     0
100
AcDbLine
 10
0.0
 20
2.5
 30
0.0
 11
0.0
 21
4.15
 31
0.0
  0
LINE
  5
9B
330
93
100
AcDbEntity
  8
0
  6
Continuous
 62
     0
370
     0
100
AcDbLine
 10
-2.5
 20
0.0
 30
0.0
 11
-4.15
 21
0.0
 31
0.0
  0
LINE
  5
9C
330
93
100
AcDbEntity
  8
0
  6
Continuous
 62
     0
370
     0
100
AcDbLine
 10
0.0
 20
-2.5
 30
0.0
 11
0.0
 21
-4.15
 31
0.0
  0
LINE
  5
9D
330
93
100
AcDbEntity
  8
0
  6
Continuous
 62
     0
370
     0
100
AcDbLine
 10
2.5
 20
0.0
 30
0.0
 11
4.15
 21
0.0
 31
0.0
  0
ENDBLK
  5
95
330
93
100
AcDbEntity
  8
0
100
AcDbBlockEnd
  0
BLOCK
  5
A0
330
9F
100
AcDbEntity
  8
0
100
AcDbBlockBegin
  2
SW_CENTERMARKSYMBOL_2
 70
     0
 10
0.0
 20
0.0
 30
0.0
  3
SW_CENTERMARKSYMBOL_2
  1

  0
LINE
  5
A2
330
9F
100
AcDbEntity
  8
0
  6
Continuous
 62
     0
370
     0
100
AcDbLine
 10
0.0
 20
0.0
 30
0.0
 11
0.0
 21
2.5
 31
0.0
  0
LINE
  5
A3
330
9F
100
AcDbEntity
  8
0
  6
Continuous
 62
     0
370
     0
100
AcDbLine
 10
0.0
 20
0.0
 30
0.0
 11
-2.5
 21
0.0
 31
0.0
  0
LINE
  5
A4
330
9F
100
AcDbEntity
  8
0
  6
Continuous
 62
     0
370
     0
100
AcDbLine
 10
0.0
 20
0.0
 30
0.0
 11
0.0
 21
-2.5
 31
0.0
  0
LINE
  5
A5
330
9F
100
AcDbEntity
  8
0
  6
Continuous
 62
     0
370
     0
100
AcDbLine
 10
0.0
 20
0.0
 30
0.0
 11
2.5
 21
0.0
 31
0.0
  0
LINE
  5
A6
330
9F
100
AcDbEntity
  8
0
  6
Continuous
 62
     0
370
     0
100
AcDbLine
 10
0.0
 20
2.5
 30
0.0
 11
0.0
 21
4.15
 31
0.0
  0
LINE
  5
A7
330
9F
100
AcDbEntity
  8
0
  6
Continuous
 62
     0
370
     0
100
AcDbLine
 10
-2.5
 20
0.0
 30
0.0
 11
-4.15
 21
0.0
 31
0.0
  0
LINE
  5
A8
330
9F
100
AcDbEntity
  8
0
  6
Continuous
 62
     0
370
     0
100
AcDbLine
 10
0.0
 20
-2.5
 30
0.0
 11
0.0
 21
-4.15
 31
0.0
  0
LINE
  5
A9
330
9F
100
AcDbEntity
  8
0
  6
Continuous
 62
     0
370
     0
100
AcDbLine
 10
2.5
 20
0.0
 30
0.0
 11
4.15
 21
0.0
 31
0.0
  0
ENDBLK
  5
A1
330
9F
100
AcDbEntity
  8
0
100
AcDbBlockEnd
  0
BLOCK
  5
E4
330
E3
100
AcDbEntity
  8
0
100
AcDbBlockBegin
  2
SW_CENTERMARKSYMBOL_3
 70
     0
 10
0.0
 20
0.0
 30
0.0
  3
SW_CENTERMARKSYMBOL_3
  1

  0
LINE
  5
E6
330
E3
100
AcDbEntity
  8
0
  6
Continuous
 62
     0
370
     0
100
AcDbLine
 10
0.0
 20
0.0
 30
0.0
 11
0.0
 21
2.5
 31
0.0
  0
LINE
  5
E7
330
E3
100
AcDbEntity
  8
0
  6
Continuous
 62
     0
370
     0
100
AcDbLine
 10
0.0
 20
0.0
 30
0.0
 11
-2.5
 21
0.0
 31
0.0
  0
LINE
  5
E8
330
E3
100
AcDbEntity
  8
0
  6
Continuous
 62
     0
370
     0
100
AcDbLine
 10
0.0
 20
0.0
 30
0.0
 11
0.0
 21
-2.5
 31
0.0
  0
LINE
  5
E9
330
E3
100
AcDbEntity
  8
0
  6
Continuous
 62
     0
370
     0
100
AcDbLine
 10
0.0
 20
0.0
 30
0.0
 11
2.5
 21
0.0
 31
0.0
  0
LINE
  5
EA
330
E3
100
AcDbEntity
  8
0
  6
Continuous
 62
     0
370
     0
100
AcDbLine
 10
0.0
 20
2.5
 30
0.0
 11
0.0
 21
5.0
 31
0.0
  0
LINE
  5
EB
330
E3
100
AcDbEntity
  8
0
  6
Continuous
 62
     0
370
     0
100
AcDbLine
 10
-2.5
 20
0.0
 30
0.0
 11
-5.0
 21
0.0
 31
0.0
  0
LINE
  5
EC
330
E3
100
AcDbEntity
  8
0
  6
Continuous
 62
     0
370
     0
100
AcDbLine
 10
0.0
 20
-2.5
 30
0.0
 11
0.0
 21
-5.0
 31
0.0
  0
LINE
  5
ED
330
E3
100
AcDbEntity
  8
0
  6
Continuous
 62
     0
370
     0
100
AcDbLine
 10
2.5
 20
0.0
 30
0.0
 11
5.0
 21
0.0
 31
0.0
  0
ENDBLK
  5
E5
330
E3
100
AcDbEntity
  8
0
100
AcDbBlockEnd
  0
BLOCK
  5
F0
330
EF
100
AcDbEntity
  8
0
100
AcDbBlockBegin
  2
SW_CENTERMARKSYMBOL_4
 70
     0
 10
0.0
 20
0.0
 30
0.0
  3
SW_CENTERMARKSYMBOL_4
  1

  0
LINE
  5
F2
330
EF
100
AcDbEntity
  8
0
  6
Continuous
 62
     0
370
     0
100
AcDbLine
 10
0.0
 20
0.0
 30
0.0
 11
0.0
 21
2.5
 31
0.0
  0
LINE
  5
F3
330
EF
100
AcDbEntity
  8
0
  6
Continuous
 62
     0
370
     0
100
AcDbLine
 10
0.0
 20
0.0
 30
0.0
 11
-2.5
 21
0.0
 31
0.0
  0
LINE
  5
F4
330
EF
100
AcDbEntity
  8
0
  6
Continuous
 62
     0
370
     0
100
AcDbLine
 10
0.0
 20
0.0
 30
0.0
 11
0.0
 21
-2.5
 31
0.0
  0
LINE
  5
F5
330
EF
100
AcDbEntity
  8
0
  6
Continuous
 62
     0
370
     0
100
AcDbLine
 10
0.0
 20
0.0
 30
0.0
 11
2.5
 21
0.0
 31
0.0
  0
LINE
  5
F6
330
EF
100
AcDbEntity
  8
0
  6
Continuous
 62
     0
370
     0
100
AcDbLine
 10
0.0
 20
2.5
 30
0.0
 11
0.0
 21
5.0
 31
0.0
  0
LINE
  5
F7
330
EF
100
AcDbEntity
  8
0
  6
Continuous
 62
     0
370
     0
100
AcDbLine
 10
-2.5
 20
0.0
 30
0.0
 11
-5.0
 21
0.0
 31
0.0
  0
LINE
  5
F8
330
EF
100
AcDbEntity
  8
0
  6
Continuous
 62
     0
370
     0
100
AcDbLine
 10
0.0
 20
-2.5
 30
0.0
 11
0.0
 21
-5.0
 31
0.0
  0
LINE
  5
F9
330
EF
100
AcDbEntity
  8
0
  6
Continuous
 62
     0
370
     0
100
AcDbLine
 10
2.5
 20
0.0
 30
0.0
 11
5.0
 21
0.0
 31
0.0
  0
ENDBLK
  5
F1
330
EF
100
AcDbEntity
  8
0
100
AcDbBlockEnd
  0
BLOCK
  5
152
330
151
100
AcDbEntity
  8
0
100
AcDbBlockBegin
  2
SW_CENTERMARKSYMBOL_5
 70
     0
 10
0.0
 20
0.0
 30
0.0
  3
SW_CENTERMARKSYMBOL_5
  1

  0
LINE
  5
154
330
151
100
AcDbEntity
  8
0
  6
Continuous
 62
     0
370
     0
100
AcDbLine
 10
0.0
 20
0.0
 30
0.0
 11
0.0
 21
2.5
 31
0.0
  0
LINE
  5
155
330
151
100
AcDbEntity
  8
0
  6
Continuous
 62
     0
370
     0
100
AcDbLine
 10
0.0
 20
0.0
 30
0.0
 11
-2.5
 21
0.0
 31
0.0
  0
LINE
  5
156
330
151
100
AcDbEntity
  8
0
  6
Continuous
 62
     0
370
     0
100
AcDbLine
 10
0.0
 20
0.0
 30
0.0
 11
0.0
 21
-2.5
 31
0.0
  0
LINE
  5
157
330
151
100
AcDbEntity
  8
0
  6
Continuous
 62
     0
370
     0
100
AcDbLine
 10
0.0
 20
0.0
 30
0.0
 11
2.5
 21
0.0
 31
0.0
  0
LINE
  5
158
330
151
100
AcDbEntity
  8
0
  6
Continuous
 62
     0
370
     0
100
AcDbLine
 10
0.0
 20
2.5
 30
0.0
 11
0.0
 21
5.0
 31
0.0
  0
LINE
  5
159
330
151
100
AcDbEntity
  8
0
  6
Continuous
 62
     0
370
     0
100
AcDbLine
 10
-2.5
 20
0.0
 30
0.0
 11
-5.0
 21
0.0
 31
0.0
  0
LINE
  5
15A
330
151
100
AcDbEntity
  8
0
  6
Continuous
 62
     0
370
     0
100
AcDbLine
 10
0.0
 20
-2.5
 30
0.0
 11
0.0
 21
-5.0
 31
0.0
  0
LINE
  5
15B
330
151
100
AcDbEntity
  8
0
  6
Continuous
 62
     0
370
     0
100
AcDbLine
 10
2.5
 20
0.0
 30
0.0
 11
5.0
 21
0.0
 31
0.0
  0
ENDBLK
  5
153
330
151
100
AcDbEntity
  8
0
100
AcDbBlockEnd
  0
BLOCK
  5
15E
330
15D
100
AcDbEntity
  8
0
100
AcDbBlockBegin
  2
SW_CENTERMARKSYMBOL_6
 70
     0
 10
0.0
 20
0.0
 30
0.0
  3
SW_CENTERMARKSYMBOL_6
  1

  0
LINE
  5
160
330
15D
100
AcDbEntity
  8
0
  6
Continuous
 62
     0
370
     0
100
AcDbLine
 10
0.0
 20
0.0
 30
0.0
 11
0.0
 21
2.5
 31
0.0
  0
LINE
  5
161
330
15D
100
AcDbEntity
  8
0
  6
Continuous
 62
     0
370
     0
100
AcDbLine
 10
0.0
 20
0.0
 30
0.0
 11
-2.5
 21
0.0
 31
0.0
  0
LINE
  5
162
330
15D
100
AcDbEntity
  8
0
  6
Continuous
 62
     0
370
     0
100
AcDbLine
 10
0.0
 20
0.0
 30
0.0
 11
0.0
 21
-2.5
 31
0.0
  0
LINE
  5
163
330
15D
100
AcDbEntity
  8
0
  6
Continuous
 62
     0
370
     0
100
AcDbLine
 10
0.0
 20
0.0
 30
0.0
 11
2.5
 21
0.0
 31
0.0
  0
LINE
  5
164
330
15D
100
AcDbEntity
  8
0
  6
Continuous
 62
     0
370
     0
100
AcDbLine
 10
0.0
 20
2.5
 30
0.0
 11
0.0
 21
2.9
 31
0.0
  0
LINE
  5
165
330
15D
100
AcDbEntity
  8
0
  6
Continuous
 62
     0
370
     0
100
AcDbLine
 10
-2.5
 20
0.0
 30
0.0
 11
-2.9
 21
0.0
 31
0.0
  0
LINE
  5
166
330
15D
100
AcDbEntity
  8
0
  6
Continuous
 62
     0
370
     0
100
AcDbLine
 10
0.0
 20
-2.5
 30
0.0
 11
0.0
 21
-2.9
 31
0.0
  0
LINE
  5
167
330
15D
100
AcDbEntity
  8
0
  6
Continuous
 62
     0
370
     0
100
AcDbLine
 10
2.5
 20
0.0
 30
0.0
 11
2.9
 21
0.0
 31
0.0
  0
ENDBLK
  5
15F
330
15D
100
AcDbEntity
  8
0
100
AcDbBlockEnd
  0
BLOCK
  5
16A
330
169
100
AcDbEntity
  8
0
100
AcDbBlockBegin
  2
SW_CENTERMARKSYMBOL_7
 70
     0
 10
0.0
 20
0.0
 30
0.0
  3
SW_CENTERMARKSYMBOL_7
  1

  0
LINE
  5
16C
330
169
100
AcDbEntity
  8
0
  6
Continuous
 62
     0
370
     0
100
AcDbLine
 10
0.0
 20
0.0
 30
0.0
 11
0.0
 21
2.5
 31
0.0
  0
LINE
  5
16D
330
169
100
AcDbEntity
  8
0
  6
Continuous
 62
     0
370
     0
100
AcDbLine
 10
0.0
 20
0.0
 30
0.0
 11
-2.5
 21
0.0
 31
0.0
  0
LINE
  5
16E
330
169
100
AcDbEntity
  8
0
  6
Continuous
 62
     0
370
     0
100
AcDbLine
 10
0.0
 20
0.0
 30
0.0
 11
0.0
 21
-2.5
 31
0.0
  0
LINE
  5
16F
330
169
100
AcDbEntity
  8
0
  6
Continuous
 62
     0
370
     0
100
AcDbLine
 10
0.0
 20
0.0
 30
0.0
 11
2.5
 21
0.0
 31
0.0
  0
LINE
  5
170
330
169
100
AcDbEntity
  8
0
  6
Continuous
 62
     0
370
     0
100
AcDbLine
 10
0.0
 20
5.0
 30
0.0
 11
0.0
 21
7.7
 31
0.0
  0
LINE
  5
171
330
169
100
AcDbEntity
  8
0
  6
Continuous
 62
     0
370
     0
100
AcDbLine
 10
-5.0
 20
0.0
 30
0.0
 11
-7.7
 21
0.0
 31
0.0
  0
LINE
  5
172
330
169
100
AcDbEntity
  8
0
  6
Continuous
 62
     0
370
     0
100
AcDbLine
 10
0.0
 20
-5.0
 30
0.0
 11
0.0
 21
-7.7
 31
0.0
  0
LINE
  5
173
330
169
100
AcDbEntity
  8
0
  6
Continuous
 62
     0
370
     0
100
AcDbLine
 10
5.0
 20
0.0
 30
0.0
 11
7.7
 21
0.0
 31
0.0
  0
ENDBLK
  5
16B
330
169
100
AcDbEntity
  8
0
100
AcDbBlockEnd
  0
BLOCK
  5
176
330
175
100
AcDbEntity
  8
0
100
AcDbBlockBegin
  2
SW_CENTERMARKSYMBOL_8
 70
     0
 10
0.0
 20
0.0
 30
0.0
  3
SW_CENTERMARKSYMBOL_8
  1

  0
LINE
  5
178
330
175
100
AcDbEntity
  8
0
  6
Continuous
 62
     0
370
     0
100
AcDbLine
 10
0.0
 20
0.0
 30
0.0
 11
0.0
 21
2.5
 31
0.0
  0
LINE
  5
179
330
175
100
AcDbEntity
  8
0
  6
Continuous
 62
     0
370
     0
100
AcDbLine
 10
0.0
 20
0.0
 30
0.0
 11
-2.5
 21
0.0
 31
0.0
  0
LINE
  5
17A
330
175
100
AcDbEntity
  8
0
  6
Continuous
 62
     0
370
     0
100
AcDbLine
 10
0.0
 20
0.0
 30
0.0
 11
0.0
 21
-2.5
 31
0.0
  0
LINE
  5
17B
330
175
100
AcDbEntity
  8
0
  6
Continuous
 62
     0
370
     0
100
AcDbLine
 10
0.0
 20
0.0
 30
0.0
 11
2.5
 21
0.0
 31
0.0
  0
LINE
  5
17C
330
175
100
AcDbEntity
  8
0
  6
Continuous
 62
     0
370
     0
100
AcDbLine
 10
0.0
 20
5.0
 30
0.0
 11
0.0
 21
7.7
 31
0.0
  0
LINE
  5
17D
330
175
100
AcDbEntity
  8
0
  6
Continuous
 62
     0
370
     0
100
AcDbLine
 10
-5.0
 20
0.0
 30
0.0
 11
-7.7
 21
0.0
 31
0.0
  0
LINE
  5
17E
330
175
100
AcDbEntity
  8
0
  6
Continuous
 62
     0
370
     0
100
AcDbLine
 10
0.0
 20
-5.0
 30
0.0
 11
0.0
 21
-7.7
 31
0.0
  0
LINE
  5
17F
330
175
100
AcDbEntity
  8
0
  6
Continuous
 62
     0
370
     0
100
AcDbLine
 10
5.0
 20
0.0
 30
0.0
 11
7.7
 21
0.0
 31
0.0
  0
ENDBLK
  5
177
330
175
100
AcDbEntity
  8
0
100
AcDbBlockEnd
  0
BLOCK
  5
182
330
181
100
AcDbEntity
  8
0
100
AcDbBlockBegin
  2
SW_CENTERMARKSYMBOL_9
 70
     0
 10
0.0
 20
0.0
 30
0.0
  3
SW_CENTERMARKSYMBOL_9
  1

  0
LINE
  5
184
330
181
100
AcDbEntity
  8
0
  6
Continuous
 62
     0
370
     0
100
AcDbLine
 10
0.0
 20
0.0
 30
0.0
 11
0.0
 21
2.5
 31
0.0
  0
LINE
  5
185
330
181
100
AcDbEntity
  8
0
  6
Continuous
 62
     0
370
     0
100
AcDbLine
 10
0.0
 20
0.0
 30
0.0
 11
-2.5
 21
0.0
 31
0.0
  0
LINE
  5
186
330
181
100
AcDbEntity
  8
0
  6
Continuous
 62
     0
370
     0
100
AcDbLine
 10
0.0
 20
0.0
 30
0.0
 11
0.0
 21
-2.5
 31
0.0
  0
LINE
  5
187
330
181
100
AcDbEntity
  8
0
  6
Continuous
 62
     0
370
     0
100
AcDbLine
 10
0.0
 20
0.0
 30
0.0
 11
2.5
 21
0.0
 31
0.0
  0
LINE
  5
188
330
181
100
AcDbEntity
  8
0
  6
Continuous
 62
     0
370
     0
100
AcDbLine
 10
0.0
 20
5.0
 30
0.0
 11
0.0
 21
7.7
 31
0.0
  0
LINE
  5
189
330
181
100
AcDbEntity
  8
0
  6
Continuous
 62
     0
370
     0
100
AcDbLine
 10
-5.0
 20
0.0
 30
0.0
 11
-7.7
 21
0.0
 31
0.0
  0
LINE
  5
18A
330
181
100
AcDbEntity
  8
0
  6
Continuous
 62
     0
370
     0
100
AcDbLine
 10
0.0
 20
-5.0
 30
0.0
 11
0.0
 21
-7.7
 31
0.0
  0
LINE
  5
18B
330
181
100
AcDbEntity
  8
0
  6
Continuous
 62
     0
370
     0
100
AcDbLine
 10
5.0
 20
0.0
 30
0.0
 11
7.7
 21
0.0
 31
0.0
  0
ENDBLK
  5
183
330
181
100
AcDbEntity
  8
0
100
AcDbBlockEnd
  0
BLOCK
  5
18E
330
18D
100
AcDbEntity
  8
0
100
AcDbBlockBegin
  2
SW_CENTERMARKSYMBOL_10
 70
     0
 10
0.0
 20
0.0
 30
0.0
  3
SW_CENTERMARKSYMBOL_10
  1

  0
LINE
  5
190
330
18D
100
AcDbEntity
  8
0
  6
Continuous
 62
     0
370
     0
100
AcDbLine
 10
0.0
 20
0.0
 30
0.0
 11
0.0
 21
2.5
 31
0.0
  0
LINE
  5
191
330
18D
100
AcDbEntity
  8
0
  6
Continuous
 62
     0
370
     0
100
AcDbLine
 10
0.0
 20
0.0
 30
0.0
 11
-2.5
 21
0.0
 31
0.0
  0
LINE
  5
192
330
18D
100
AcDbEntity
  8
0
  6
Continuous
 62
     0
370
     0
100
AcDbLine
 10
0.0
 20
0.0
 30
0.0
 11
0.0
 21
-2.5
 31
0.0
  0
LINE
  5
193
330
18D
100
AcDbEntity
  8
0
  6
Continuous
 62
     0
370
     0
100
AcDbLine
 10
0.0
 20
0.0
 30
0.0
 11
2.5
 21
0.0
 31
0.0
  0
LINE
  5
194
330
18D
100
AcDbEntity
  8
0
  6
Continuous
 62
     0
370
     0
100
AcDbLine
 10
0.0
 20
5.0
 30
0.0
 11
0.0
 21
7.7
 31
0.0
  0
LINE
  5
195
330
18D
100
AcDbEntity
  8
0
  6
Continuous
 62
     0
370
     0
100
AcDbLine
 10
-5.0
 20
0.0
 30
0.0
 11
-7.7
 21
0.0
 31
0.0
  0
LINE
  5
196
330
18D
100
AcDbEntity
  8
0
  6
Continuous
 62
     0
370
     0
100
AcDbLine
 10
0.0
 20
-5.0
 30
0.0
 11
0.0
 21
-7.7
 31
0.0
  0
LINE
  5
197
330
18D
100
AcDbEntity
  8
0
  6
Continuous
 62
     0
370
     0
100
AcDbLine
 10
5.0
 20
0.0
 30
0.0
 11
7.7
 21
0.0
 31
0.0
  0
ENDBLK
  5
18F
330
18D
100
AcDbEntity
  8
0
100
AcDbBlockEnd
  0
BLOCK
  5
19A
330
199
100
AcDbEntity
  8
0
100
AcDbBlockBegin
  2
SW_CENTERMARKSYMBOL_11
 70
     0
 10
0.0
 20
0.0
 30
0.0
  3
SW_CENTERMARKSYMBOL_11
  1

  0
LINE
  5
19C
330
199
100
AcDbEntity
  8
0
  6
Continuous
 62
     0
370
     0
100
AcDbLine
 10
0.0
 20
0.0
 30
0.0
 11
0.0
 21
2.5
 31
0.0
  0
LINE
  5
19D
330
199
100
AcDbEntity
  8
0
  6
Continuous
 62
     0
370
     0
100
AcDbLine
 10
0.0
 20
0.0
 30
0.0
 11
-2.5
 21
0.0
 31
0.0
  0
LINE
  5
19E
330
199
100
AcDbEntity
  8
0
  6
Continuous
 62
     0
370
     0
100
AcDbLine
 10
0.0
 20
0.0
 30
0.0
 11
0.0
 21
-2.5
 31
0.0
  0
LINE
  5
19F
330
199
100
AcDbEntity
  8
0
  6
Continuous
 62
     0
370
     0
100
AcDbLine
 10
0.0
 20
0.0
 30
0.0
 11
2.5
 21
0.0
 31
0.0
  0
LINE
  5
1A0
330
199
100
AcDbEntity
  8
0
  6
Continuous
 62
     0
370
     0
100
AcDbLine
 10
0.0
 20
5.0
 30
0.0
 11
0.0
 21
7.7
 31
0.0
  0
LINE
  5
1A1
330
199
100
AcDbEntity
  8
0
  6
Continuous
 62
     0
370
     0
100
AcDbLine
 10
-5.0
 20
0.0
 30
0.0
 11
-7.7
 21
0.0
 31
0.0
  0
LINE
  5
1A2
330
199
100
AcDbEntity
  8
0
  6
Continuous
 62
     0
370
     0
100
AcDbLine
 10
0.0
 20
-5.0
 30
0.0
 11
0.0
 21
-7.7
 31
0.0
  0
LINE
  5
1A3
330
199
100
AcDbEntity
  8
0
  6
Continuous
 62
     0
370
     0
100
AcDbLine
 10
5.0
 20
0.0
 30
0.0
 11
7.7
 21
0.0
 31
0.0
  0
ENDBLK
  5
19B
330
199
100
AcDbEntity
  8
0
100
AcDbBlockEnd
  0
BLOCK
  5
1A6
330
1A5
100
AcDbEntity
  8
0
100
AcDbBlockBegin
  2
SW_CENTERMARKSYMBOL_12
 70
     0
 10
0.0
 20
0.0
 30
0.0
  3
SW_CENTERMARKSYMBOL_12
  1

  0
LINE
  5
1A8
330
1A5
100
AcDbEntity
  8
0
  6
Continuous
 62
     0
370
     0
100
AcDbLine
 10
0.0
 20
0.0
 30
0.0
 11
0.0
 21
2.5
 31
0.0
  0
LINE
  5
1A9
330
1A5
100
AcDbEntity
  8
0
  6
Continuous
 62
     0
370
     0
100
AcDbLine
 10
0.0
 20
0.0
 30
0.0
 11
-2.5
 21
0.0
 31
0.0
  0
LINE
  5
1AA
330
1A5
100
AcDbEntity
  8
0
  6
Continuous
 62
     0
370
     0
100
AcDbLine
 10
0.0
 20
0.0
 30
0.0
 11
0.0
 21
-2.5
 31
0.0
  0
LINE
  5
1AB
330
1A5
100
AcDbEntity
  8
0
  6
Continuous
 62
     0
370
     0
100
AcDbLine
 10
0.0
 20
0.0
 30
0.0
 11
2.5
 21
0.0
 31
0.0
  0
LINE
  5
1AC
330
1A5
100
AcDbEntity
  8
0
  6
Continuous
 62
     0
370
     0
100
AcDbLine
 10
0.0
 20
5.0
 30
0.0
 11
0.0
 21
7.7
 31
0.0
  0
LINE
  5
1AD
330
1A5
100
AcDbEntity
  8
0
  6
Continuous
 62
     0
370
     0
100
AcDbLine
 10
-5.0
 20
0.0
 30
0.0
 11
-7.7
 21
0.0
 31
0.0
  0
LINE
  5
1AE
330
1A5
100
AcDbEntity
  8
0
  6
Continuous
 62
     0
370
     0
100
AcDbLine
 10
0.0
 20
-5.0
 30
0.0
 11
0.0
 21
-7.7
 31
0.0
  0
LINE
  5
1AF
330
1A5
100
AcDbEntity
  8
0
  6
Continuous
 62
     0
370
     0
100
AcDbLine
 10
5.0
 20
0.0
 30
0.0
 11
7.7
 21
0.0
 31
0.0
  0
ENDBLK
  5
1A7
330
1A5
100
AcDbEntity
  8
0
100
AcDbBlockEnd
  0
BLOCK
  5
1B2
330
1B1
100
AcDbEntity
  8
0
100
AcDbBlockBegin
  2
SW_CENTERMARKSYMBOL_13
 70
     0
 10
0.0
 20
0.0
 30
0.0
  3
SW_CENTERMARKSYMBOL_13
  1

  0
LINE
  5
1B4
330
1B1
100
AcDbEntity
  8
0
  6
Continuous
 62
     0
370
     0
100
AcDbLine
 10
0.0
 20
0.0
 30
0.0
 11
0.0
 21
2.5
 31
0.0
  0
LINE
  5
1B5
330
1B1
100
AcDbEntity
  8
0
  6
Continuous
 62
     0
370
     0
100
AcDbLine
 10
0.0
 20
0.0
 30
0.0
 11
-2.5
 21
0.0
 31
0.0
  0
LINE
  5
1B6
330
1B1
100
AcDbEntity
  8
0
  6
Continuous
 62
     0
370
     0
100
AcDbLine
 10
0.0
 20
0.0
 30
0.0
 11
0.0
 21
-2.5
 31
0.0
  0
LINE
  5
1B7
330
1B1
100
AcDbEntity
  8
0
  6
Continuous
 62
     0
370
     0
100
AcDbLine
 10
0.0
 20
0.0
 30
0.0
 11
2.5
 21
0.0
 31
0.0
  0
LINE
  5
1B8
330
1B1
100
AcDbEntity
  8
0
  6
Continuous
 62
     0
370
     0
100
AcDbLine
 10
0.0
 20
2.5
 30
0.0
 11
0.0
 21
5.0
 31
0.0
  0
LINE
  5
1B9
330
1B1
100
AcDbEntity
  8
0
  6
Continuous
 62
     0
370
     0
100
AcDbLine
 10
-2.5
 20
0.0
 30
0.0
 11
-5.0
 21
0.0
 31
0.0
  0
LINE
  5
1BA
330
1B1
100
AcDbEntity
  8
0
  6
Continuous
 62
     0
370
     0
100
AcDbLine
 10
0.0
 20
-2.5
 30
0.0
 11
0.0
 21
-5.0
 31
0.0
  0
LINE
  5
1BB
330
1B1
100
AcDbEntity
  8
0
  6
Continuous
 62
     0
370
     0
100
AcDbLine
 10
2.5
 20
0.0
 30
0.0
 11
5.0
 21
0.0
 31
0.0
  0
ENDBLK
  5
1B3
330
1B1
100
AcDbEntity
  8
0
100
AcDbBlockEnd
  0
BLOCK
  5
1BE
330
1BD
100
AcDbEntity
  8
0
100
AcDbBlockBegin
  2
SW_CENTERMARKSYMBOL_14
 70
     0
 10
0.0
 20
0.0
 30
0.0
  3
SW_CENTERMARKSYMBOL_14
  1

  0
LINE
  5
1C0
330
1BD
100
AcDbEntity
  8
0
  6
Continuous
 62
     0
370
     0
100
AcDbLine
 10
0.0
 20
0.0
 30
0.0
 11
0.0
 21
2.5
 31
0.0
  0
LINE
  5
1C1
330
1BD
100
AcDbEntity
  8
0
  6
Continuous
 62
     0
370
     0
100
AcDbLine
 10
0.0
 20
0.0
 30
0.0
 11
-2.5
 21
0.0
 31
0.0
  0
LINE
  5
1C2
330
1BD
100
AcDbEntity
  8
0
  6
Continuous
 62
     0
370
     0
100
AcDbLine
 10
0.0
 20
0.0
 30
0.0
 11
0.0
 21
-2.5
 31
0.0
  0
LINE
  5
1C3
330
1BD
100
AcDbEntity
  8
0
  6
Continuous
 62
     0
370
     0
100
AcDbLine
 10
0.0
 20
0.0
 30
0.0
 11
2.5
 21
0.0
 31
0.0
  0
LINE
  5
1C4
330
1BD
100
AcDbEntity
  8
0
  6
Continuous
 62
     0
370
     0
100
AcDbLine
 10
0.0
 20
2.5
 30
0.0
 11
0.0
 21
2.9
 31
0.0
  0
LINE
  5
1C5
330
1BD
100
AcDbEntity
  8
0
  6
Continuous
 62
     0
370
     0
100
AcDbLine
 10
-2.5
 20
0.0
 30
0.0
 11
-2.9
 21
0.0
 31
0.0
  0
LINE
  5
1C6
330
1BD
100
AcDbEntity
  8
0
  6
Continuous
 62
     0
370
     0
100
AcDbLine
 10
0.0
 20
-2.5
 30
0.0
 11
0.0
 21
-2.9
 31
0.0
  0
LINE
  5
1C7
330
1BD
100
AcDbEntity
  8
0
  6
Continuous
 62
     0
370
     0
100
AcDbLine
 10
2.5
 20
0.0
 30
0.0
 11
2.9
 21
0.0
 31
0.0
  0
ENDBLK
  5
1BF
330
1BD
100
AcDbEntity
  8
0
100
AcDbBlockEnd
  0
ENDSEC
  0
SECTION
  2
ENTITIES
  0
ARC
  5
40
330
1F
100
AcDbEntity
  8
0
  6
Continuous
 62
     7
370
     0
100
AcDbCircle
 10
125.5406465832
 20
43.6533161797
 30
0.0
 40
4.080000000000931
100
AcDbArc
 50
179.4142951714
 51
262.1676749317
  0
LINE
  5
41
330
1F
100
AcDbEntity
  8
0
  6
Continuous
 62
     7
370
     0
100
AcDbLine
 10
121.4608597594
 20
43.6950231623
 30
0.0
 11
119.9846465832
 21
44.5473161797
 31
0.0
  0
LINE
  5
42
330
1F
100
AcDbEntity
  8
0
  6
Continuous
 62
     7
370
     0
100
AcDbLine
 10
119.9846465832
 20
44.5473161797
 30
0.0
 11
119.9846465832
 21
56.6473161797
 31
0.0
  0
LINE
  5
43
330
1F
100
AcDbEntity
  8
0
  6
Continuous
 62
     7
370
     0
100
AcDbLine
 10
119.9846465832
 20
56.6473161797
 30
0.0
 11
121.4608597594
 21
57.4996091971
 31
0.0
  0
ARC
  5
44
330
1F
100
AcDbEntity
  8
0
  6
Continuous
 62
     7
370
     0
100
AcDbCircle
 10
125.5406465832
 20
57.5413161797
 30
0.0
 40
4.080000000001585
100
AcDbArc
 50
97.8323250683
 51
180.5857048286
  0
LINE
  5
45
330
1F
100
AcDbEntity
  8
0
  6
Continuous
 62
     7
370
     0
100
AcDbLine
 10
124.9846465832
 20
61.5832543287
 30
0.0
 11
124.9846465832
 21
64.5973161797
 31
0.0
  0
LINE
  5
46
330
1F
100
AcDbEntity
  8
0
  6
Continuous
 62
     7
370
     0
100
AcDbLine
 10
124.9846465832
 20
64.5973161797
 30
0.0
 11
124.5795955575
 21
65.0023672054
 31
0.0
  0
LINE
  5
47
330
1F
100
AcDbEntity
  8
0
  6
Continuous
 62
     7
370
     0
100
AcDbLine
 10
124.5795955575
 20
65.0023672054
 30
0.0
 11
125.2615125799
 21
67.5473161797
 31
0.0
  0
LINE
  5
48
330
1F
100
AcDbEntity
  8
0
  6
Continuous
 62
     7
370
     0
100
AcDbLine
 10
125.2615125799
 20
67.5473161797
 30
0.0
 11
85.7077805865
 21
67.5473161797
 31
0.0
  0
LINE
  5
49
330
1F
100
AcDbEntity
  8
0
  6
Continuous
 62
     7
370
     0
100
AcDbLine
 10
85.7077805865
 20
67.5473161797
 30
0.0
 11
86.3896976089
 21
65.0023672054
 31
0.0
  0
LINE
  5
4A
330
1F
100
AcDbEntity
  8
0
  6
Continuous
 62
     7
370
     0
100
AcDbLine
 10
86.3896976089
 20
65.0023672054
 30
0.0
 11
85.9846465832
 21
64.5973161797
 31
0.0
  0
LINE
  5
4B
330
1F
100
AcDbEntity
  8
0
  6
Continuous
 62
     7
370
     0
100
AcDbLine
 10
85.9846465832
 20
64.5973161797
 30
0.0
 11
85.9846465832
 21
61.5832543287
 31
0.0
  0
ARC
  5
4C
330
1F
100
AcDbEntity
  8
0
  6
Continuous
 62
     7
370
     0
100
AcDbCircle
 10
85.4286465832
 20
57.5413161797
 30
0.0
 40
4.080000000001599
100
AcDbArc
 50
359.4142951714
 51
82.1676749317
  0
LINE
  5
4D
330
1F
100
AcDbEntity
  8
0
  6
Continuous
 62
     7
370
     0
100
AcDbLine
 10
89.508433407
 20
57.4996091971
 30
0.0
 11
90.9846465832
 21
56.6473161797
 31
0.0
  0
LINE
  5
4E
330
1F
100
AcDbEntity
  8
0
  6
Continuous
 62
     7
370
     0
100
AcDbLine
 10
90.9846465832
 20
56.6473161797
 30
0.0
 11
90.9846465832
 21
44.5473161797
 31
0.0
  0
LINE
  5
4F
330
1F
100
AcDbEntity
  8
0
  6
Continuous
 62
     7
370
     0
100
AcDbLine
 10
90.9846465832
 20
44.5473161797
 30
0.0
 11
89.508433407
 21
43.6950231623
 31
0.0
  0
ARC
  5
50
330
1F
100
AcDbEntity
  8
0
  6
Continuous
 62
     7
370
     0
100
AcDbCircle
 10
85.4286465832
 20
43.6533161797
 30
0.0
 40
4.080000000000931
100
AcDbArc
 50
277.8323250683
 51
0.5857048286
  0
LINE
  5
51
330
1F
100
AcDbEntity
  8
0
  6
Continuous
 62
     7
370
     0
100
AcDbLine
 10
85.9846465832
 20
39.6113780307
 30
0.0
 11
85.9846465832
 21
36.8473161797
 31
0.0
  0
LINE
  5
52
330
1F
100
AcDbEntity
  8
0
  6
Continuous
 62
     7
370
     0
100
AcDbLine
 10
66.5046465832
 20
36.8473161797
 30
0.0
 11
85.9846465832
 21
36.8473161797
 31
0.0
  0
LINE
  5
53
330
1F
100
AcDbEntity
  8
0
  6
Continuous
 62
     7
370
     0
100
AcDbLine
 10
63.2846465832
 20
40.0673161797
 30
0.0
 11
66.5046465832
 21
36.8473161797
 31
0.0
  0
LINE
  5
54
330
1F
100
AcDbEntity
  8
0
  6
Continuous
 62
     7
370
     0
100
AcDbLine
 10
63.2846465832
 20
85.2473161797
 30
0.0
 11
63.2846465832
 21
40.0673161797
 31
0.0
  0
ARC
  5
55
330
1F
100
AcDbEntity
  8
0
  6
Continuous
 62
     7
370
     0
100
AcDbCircle
 10
64.2846465832
 20
85.2473161797
 30
0.0
 40
1.0
100
AcDbArc
 50
90.0
 51
180.0
  0
LINE
  5
56
330
1F
100
AcDbEntity
  8
0
  6
Continuous
 62
     7
370
     0
100
AcDbLine
 10
95.5846465832
 20
86.2473161797
 30
0.0
 11
64.2846465832
 21
86.2473161797
 31
0.0
  0
LINE
  5
57
330
1F
100
AcDbEntity
  8
0
  6
Continuous
 62
     7
370
     0
100
AcDbLine
 10
95.8346465832
 20
86.4973161797
 30
0.0
 11
95.5846465832
 21
86.2473161797
 31
0.0
  0
LINE
  5
58
330
1F
100
AcDbEntity
  8
0
  6
Continuous
 62
     7
370
     0
100
AcDbLine
 10
115.1346465832
 20
86.4973161797
 30
0.0
 11
95.8346465832
 21
86.4973161797
 31
0.0
  0
LINE
  5
59
330
1F
100
AcDbEntity
  8
0
  6
Continuous
 62
     7
370
     0
100
AcDbLine
 10
115.3846465832
 20
86.2473161797
 30
0.0
 11
115.1346465832
 21
86.4973161797
 31
0.0
  0
LINE
  5
5A
330
1F
100
AcDbEntity
  8
0
  6
Continuous
 62
     7
370
     0
100
AcDbLine
 10
146.6846465832
 20
86.2473161797
 30
0.0
 11
115.3846465832
 21
86.2473161797
 31
0.0
  0
ARC
  5
5B
330
1F
100
AcDbEntity
  8
0
  6
Continuous
 62
     7
370
     0
100
AcDbCircle
 10
146.6846465832
 20
85.2473161797
 30
0.0
 40
1.0
100
AcDbArc
 50
0.0
 51
90.0
  0
LINE
  5
5C
330
1F
100
AcDbEntity
  8
0
  6
Continuous
 62
     7
370
     0
100
AcDbLine
 10
147.6846465832
 20
40.0673161797
 30
0.0
 11
147.6846465832
 21
85.2473161797
 31
0.0
  0
LINE
  5
5D
330
1F
100
AcDbEntity
  8
0
  6
Continuous
 62
     7
370
     0
100
AcDbLine
 10
144.4646465832
 20
36.8473161797
 30
0.0
 11
147.6846465832
 21
40.0673161797
 31
0.0
  0
LINE
  5
5E
330
1F
100
AcDbEntity
  8
0
  6
Continuous
 62
     7
370
     0
100
AcDbLine
 10
124.9846465832
 20
36.8473161797
 30
0.0
 11
144.4646465832
 21
36.8473161797
 31
0.0
  0
LINE
  5
5F
330
1F
100
AcDbEntity
  8
0
  6
Continuous
 62
     7
370
     0
100
AcDbLine
 10
124.9846465832
 20
36.8473161797
 30
0.0
 11
124.9846465832
 21
39.6113780307
 31
0.0
  0
CIRCLE
  5
60
330
1F
100
AcDbEntity
  8
0
  6
Continuous
 62
     7
370
     0
100
AcDbCircle
 10
70.5846465832
 20
66.1973161797
 30
0.0
 40
2.549999999999983
  0
CIRCLE
  5
61
330
1F
100
AcDbEntity
  8
0
  6
Continuous
 62
     7
370
     0
100
AcDbCircle
 10
105.4846465832
 20
78.8973161797
 30
0.0
 40
3.399999999999991
  0
CIRCLE
  5
62
330
1F
100
AcDbEntity
  8
0
  6
Continuous
 62
     7
370
     0
100
AcDbCircle
 10
140.3846465832
 20
66.1973161797
 30
0.0
 40
2.549999999999983
  0
CIRCLE
  5
63
330
1F
100
AcDbEntity
  8
0
  6
Continuous
 62
     7
370
     0
100
AcDbCircle
 10
140.3846465832
 20
66.1973161797
 30
0.0
 40
1.650000000000006
  0
CIRCLE
  5
64
330
1F
100
AcDbEntity
  8
0
  6
Continuous
 62
     7
370
     0
100
AcDbCircle
 10
105.4846465832
 20
78.8973161797
 30
0.0
 40
2.499999999999986
  0
CIRCLE
  5
65
330
1F
100
AcDbEntity
  8
0
  6
Continuous
 62
     7
370
     0
100
AcDbCircle
 10
70.5846465832
 20
66.1973161797
 30
0.0
 40
1.649999999999991
  0
LINE
  5
66
330
1F
100
AcDbEntity
  8
0
  6
Continuous
 62
     7
370
     0
100
AcDbLine
 10
144.4846465832
 20
36.7973161797
 30
0.0
 11
146.9846465832
 21
39.2973161797
 31
0.0
  0
LINE
  5
67
330
1F
100
AcDbEntity
  8
0
  6
Continuous
 62
     7
370
     0
100
AcDbLine
 10
124.9846465832
 20
36.7973161797
 30
0.0
 11
124.9846465832
 21
36.8473161797
 31
0.0
  0
LINE
  5
68
330
1F
100
AcDbEntity
  8
0
  6
Continuous
 62
     7
370
     0
100
AcDbLine
 10
85.9846465832
 20
36.8473161797
 30
0.0
 11
85.9846465832
 21
36.7973161797
 31
0.0
  0
LINE
  5
69
330
1F
100
AcDbEntity
  8
0
  6
Continuous
 62
     7
370
     0
100
AcDbLine
 10
66.4846465832
 20
36.7973161797
 30
0.0
 11
85.9846465832
 21
36.7973161797
 31
0.0
  0
LINE
  5
6A
330
1F
100
AcDbEntity
  8
0
  6
Continuous
 62
     7
370
     0
100
AcDbLine
 10
63.9846465832
 20
39.2973161797
 30
0.0
 11
66.4846465832
 21
36.7973161797
 31
0.0
  0
LINE
  5
6B
330
1F
100
AcDbEntity
  8
0
  6
Continuous
 62
     7
370
     0
100
AcDbLine
 10
48.4846465832
 20
77.0973161797
 30
0.0
 11
48.4846465832
 21
72.0973161797
 31
0.0
  0
LINE
  5
6C
330
1F
100
AcDbEntity
  8
0
  6
Continuous
 62
     7
370
     0
100
AcDbLine
 10
45.4846465832
 20
80.0973161797
 30
0.0
 11
48.4846465832
 21
77.0973161797
 31
0.0
  0
LINE
  5
6D
330
1F
100
AcDbEntity
  8
0
  6
Continuous
 62
     7
370
     0
100
AcDbLine
 10
46.9846465832
 20
87.0973161797
 30
0.0
 11
45.4846465832
 21
85.5973161797
 31
0.0
  0
LINE
  5
6E
330
1F
100
AcDbEntity
  8
0
  6
Continuous
 62
     7
370
     0
100
AcDbLine
 10
95.9846465832
 20
87.0973161797
 30
0.0
 11
95.4846465832
 21
86.5973161797
 31
0.0
  0
LINE
  5
6F
330
1F
100
AcDbEntity
  8
0
  6
Continuous
 62
     7
370
     0
100
AcDbLine
 10
114.9846465832
 20
87.0973161797
 30
0.0
 11
95.9846465832
 21
87.0973161797
 31
0.0
  0
LINE
  5
70
330
1F
100
AcDbEntity
  8
0
  6
Continuous
 62
     7
370
     0
100
AcDbLine
 10
115.4846465832
 20
86.5973161797
 30
0.0
 11
114.9846465832
 21
87.0973161797
 31
0.0
  0
LINE
  5
71
330
1F
100
AcDbEntity
  8
0
  6
Continuous
 62
     7
370
     0
100
AcDbLine
 10
145.9846465832
 20
87.0973161797
 30
0.0
 11
145.4846465832
 21
86.5973161797
 31
0.0
  0
LINE
  5
72
330
1F
100
AcDbEntity
  8
0
  6
Continuous
 62
     7
370
     0
100
AcDbLine
 10
165.4846465832
 20
85.5973161797
 30
0.0
 11
163.9846465832
 21
87.0973161797
 31
0.0
  0
LINE
  5
73
330
1F
100
AcDbEntity
  8
0
  6
Continuous
 62
     7
370
     0
100
AcDbLine
 10
165.4846465832
 20
72.0973161797
 30
0.0
 11
165.4846465832
 21
85.5973161797
 31
0.0
  0
LINE
  5
74
330
1F
100
AcDbEntity
  8
0
  6
Continuous
 62
     7
370
     0
100
AcDbLine
 10
65.4846465832
 20
86.5973161797
 30
0.0
 11
64.9846465832
 21
87.0973161797
 31
0.0
  0
LINE
  5
75
330
1F
100
AcDbEntity
  8
0
  6
Continuous
 62
     7
370
     0
100
AcDbLine
 10
163.9846465832
 20
87.0973161797
 30
0.0
 11
145.9846465832
 21
87.0973161797
 31
0.0
  0
LINE
  5
76
330
1F
100
AcDbEntity
  8
0
  6
Continuous
 62
     7
370
     0
100
AcDbLine
 10
124.9846465832
 20
36.7973161797
 30
0.0
 11
144.4846465832
 21
36.7973161797
 31
0.0
  0
LINE
  5
77
330
1F
100
AcDbEntity
  8
0
  6
Continuous
 62
     7
370
     0
100
AcDbLine
 10
145.4846465832
 20
86.5973161797
 30
0.0
 11
115.4846465832
 21
86.5973161797
 31
0.0
  0
LINE
  5
78
330
1F
100
AcDbEntity
  8
0
  6
Continuous
 62
     7
370
     0
100
AcDbLine
 10
64.9846465832
 20
87.0973161797
 30
0.0
 11
46.9846465832
 21
87.0973161797
 31
0.0
  0
LINE
  5
79
330
1F
100
AcDbEntity
  8
0
  6
Continuous
 62
     7
370
     0
100
AcDbLine
 10
95.4846465832
 20
86.5973161797
 30
0.0
 11
65.4846465832
 21
86.5973161797
 31
0.0
  0
LINE
  5
7A
330
1F
100
AcDbEntity
  8
0
  6
Continuous
 62
     7
370
     0
100
AcDbLine
 10
45.4846465832
 20
85.5973161797
 30
0.0
 11
45.4846465832
 21
80.0973161797
 31
0.0
  0
LINE
  5
7B
330
1F
100
AcDbEntity
  8
0
  6
Continuous
 62
     7
370
     0
100
AcDbLine
 10
147.6846465832
 20
72.0973161797
 30
0.0
 11
165.4846465832
 21
72.0973161797
 31
0.0
  0
LINE
  5
7C
330
1F
100
AcDbEntity
  8
0
  6
Continuous
 62
     7
370
     0
100
AcDbLine
 10
146.9846465832
 20
39.3673161797
 30
0.0
 11
146.9846465832
 21
39.2973161797
 31
0.0
  0
LINE
  5
7D
330
1F
100
AcDbEntity
  8
0
  6
Continuous
 62
     7
370
     0
100
AcDbLine
 10
48.4846465832
 20
72.0973161797
 30
0.0
 11
63.2846465832
 21
72.0973161797
 31
0.0
  0
LINE
  5
7E
330
1F
100
AcDbEntity
  8
0
  6
Continuous
 62
     7
370
     0
100
AcDbLine
 10
63.9846465832
 20
39.2973161797
 30
0.0
 11
63.9846465832
 21
39.3673161797
 31
0.0
  0
LINE
  5
7F
330
1F
100
AcDbEntity
  8
0
  6
Continuous
 62
     7
370
     0
100
AcDbLine
 10
55.4846465832
 20
47.7973161797
 30
0.0
 11
55.4846465832
 21
72.0973161797
 31
0.0
  0
LINE
  5
80
330
1F
100
AcDbEntity
  8
0
  6
Continuous
 62
     7
370
     0
100
AcDbLine
 10
63.9846465832
 20
39.2973161797
 30
0.0
 11
55.4846465832
 21
47.7973161797
 31
0.0
  0
LINE
  5
81
330
1F
100
AcDbEntity
  8
0
  6
Continuous
 62
     7
370
     0
100
AcDbLine
 10
155.4846465832
 20
47.7973161797
 30
0.0
 11
155.4846465832
 21
72.0973161797
 31
0.0
  0
LINE
  5
82
330
1F
100
AcDbEntity
  8
0
  6
Continuous
 62
     7
370
     0
100
AcDbLine
 10
155.4846465832
 20
47.7973161797
 30
0.0
 11
146.9846465832
 21
39.2973161797
 31
0.0
  0
LINE
  5
83
330
1F
100
AcDbEntity
  8
0
  6
Continuous
 62
     7
370
     0
100
AcDbLine
 10
48.4846465832
 20
54.7973161797
 30
0.0
 11
48.4846465832
 21
72.0973161797
 31
0.0
  0
LINE
  5
84
330
1F
100
AcDbEntity
  8
0
  6
Continuous
 62
     7
370
     0
100
AcDbLine
 10
55.4846465832
 20
47.7973161797
 30
0.0
 11
48.4846465832
 21
54.7973161797
 31
0.0
  0
LINE
  5
85
330
1F
100
AcDbEntity
  8
0
  6
Continuous
 62
     7
370
     0
100
AcDbLine
 10
165.4846465832
 20
57.7973161797
 30
0.0
 11
155.4846465832
 21
47.7973161797
 31
0.0
  0
LINE
  5
86
330
1F
100
AcDbEntity
  8
0
  6
Continuous
 62
     7
370
     0
100
AcDbLine
 10
165.4846465832
 20
57.7973161797
 30
0.0
 11
165.4846465832
 21
72.0973161797
 31
0.0
  0
INSERT
  5
92
330
1F
100
AcDbEntity
  8
0
  6
Continuous
 62
     7
370
     0
100
AcDbBlockReference
  2
SW_CENTERMARKSYMBOL_0
 10
105.4846465832
 20
78.8973161797
 30
0.0
  0
INSERT
  5
9E
330
1F
100
AcDbEntity
  8
0
  6
Continuous
 62
     7
370
     0
100
AcDbBlockReference
  2
SW_CENTERMARKSYMBOL_1
 10
140.3846465832
 20
66.1973161797
 30
0.0
  0
INSERT
  5
AA
330
1F
100
AcDbEntity
  8
0
  6
Continuous
 62
     7
370
     0
100
AcDbBlockReference
  2
SW_CENTERMARKSYMBOL_2
 10
70.5846465832
 20
66.1973161797
 30
0.0
  0
ARC
  5
AB
330
1F
100
AcDbEntity
  8
0
  6
Continuous
 62
     7
370
     0
100
AcDbCircle
 10
105.4846465832
 20
78.8973161797
 30
0.0
 40
2.999999999999994
100
AcDbArc
 50
255.0
 51
195.0
  0
ARC
  5
AC
330
1F
100
AcDbEntity
  8
0
  6
Continuous
 62
     7
370
     0
100
AcDbCircle
 10
105.4846465832
 20
78.8973161797
 30
0.0
 40
2.999999999999994
100
AcDbArc
 50
255.0
 51
195.0
  0
ARC
  5
AD
330
1F
100
AcDbEntity
  8
0
  6
Continuous
 62
     7
370
     0
100
AcDbCircle
 10
140.3846465832
 20
66.1973161797
 30
0.0
 40
1.999999999999999
100
AcDbArc
 50
255.0
 51
195.0
  0
ARC
  5
AE
330
1F
100
AcDbEntity
  8
0
  6
Continuous
 62
     7
370
     0
100
AcDbCircle
 10
140.3846465832
 20
66.1973161797
 30
0.0
 40
1.999999999999999
100
AcDbArc
 50
255.0
 51
195.0
  0
ARC
  5
AF
330
1F
100
AcDbEntity
  8
0
  6
Continuous
 62
     7
370
     0
100
AcDbCircle
 10
70.5846465832
 20
66.1973161797
 30
0.0
 40
2.000000000000009
100
AcDbArc
 50
255.0
 51
195.0
  0
ARC
  5
B0
330
1F
100
AcDbEntity
  8
0
  6
Continuous
 62
     7
370
     0
100
AcDbCircle
 10
70.5846465832
 20
66.1973161797
 30
0.0
 40
2.000000000000009
100
AcDbArc
 50
255.0
 51
195.0
  0
LINE
  5
B1
330
1F
100
AcDbEntity
  8
0
  6
Continuous
 62
     7
370
     0
100
AcDbLine
 10
329.9646465832
 20
85.2473161797
 30
0.0
 11
309.6646465832
 21
85.2473161797
 31
0.0
  0
LINE
  5
B2
330
1F
100
AcDbEntity
  8
0
  6
Continuous
 62
     7
370
     0
100
AcDbLine
 10
329.9646465832
 20
40.0673161797
 30
0.0
 11
309.6646465832
 21
40.0673161797
 31
0.0
  0
LINE
  5
B3
330
1F
100
AcDbEntity
  8
0
  6
Continuous
 62
     7
370
     0
100
AcDbLine
 10
309.6646465832
 20
40.0673161797
 30
0.0
 11
309.6646465832
 21
72.0973161797
 31
0.0
  0
CIRCLE
  5
B4
330
1F
100
AcDbEntity
  8
0
  6
Continuous
 62
     7
370
     0
100
AcDbCircle
 10
320.4646465832
 20
78.8973161797
 30
0.0
 40
3.400000000000006
  0
LINE
  5
B5
330
1F
100
AcDbEntity
  8
0
  6
Continuous
 62
     7
370
     0
100
AcDbLine
 10
329.9646465832
 20
40.0673161797
 30
0.0
 11
329.9646465832
 21
85.2473161797
 31
0.0
  0
LINE
  5
B6
330
1F
100
AcDbEntity
  8
0
  6
Continuous
 62
     7
370
     0
100
AcDbLine
 10
329.9646465832
 20
36.8473161797
 30
0.0
 11
309.6646465832
 21
36.8473161797
 31
0.0
  0
LINE
  5
B7
330
1F
100
AcDbEntity
  8
0
  6
Continuous
 62
     7
370
     0
100
AcDbLine
 10
309.6646465832
 20
39.3673161797
 30
0.0
 11
309.6646465832
 21
40.0673161797
 31
0.0
  0
LINE
  5
B8
330
1F
100
AcDbEntity
  8
0
  6
Continuous
 62
     7
370
     0
100
AcDbLine
 10
329.9646465832
 20
36.8473161797
 30
0.0
 11
329.9646465832
 21
40.0673161797
 31
0.0
  0
LINE
  5
B9
330
1F
100
AcDbEntity
  8
0
  6
Continuous
 62
     7
370
     0
100
AcDbLine
 10
329.9646465832
 20
86.2473161797
 30
0.0
 11
309.6646465832
 21
86.2473161797
 31
0.0
  0
LINE
  5
BA
330
1F
100
AcDbEntity
  8
0
  6
Continuous
 62
     7
370
     0
100
AcDbLine
 10
329.9646465832
 20
85.2473161797
 30
0.0
 11
329.9646465832
 21
86.2473161797
 31
0.0
  0
CIRCLE
  5
BB
330
1F
100
AcDbEntity
  8
0
  6
Continuous
 62
     7
370
     0
100
AcDbCircle
 10
320.4646465832
 20
78.8973161797
 30
0.0
 40
2.5
  0
LINE
  5
BC
330
1F
100
AcDbEntity
  8
0
  6
Continuous
 62
     7
370
     0
100
AcDbLine
 10
329.9646465832
 20
86.4973161797
 30
0.0
 11
309.6646465832
 21
86.4973161797
 31
0.0
  0
LINE
  5
BD
330
1F
100
AcDbEntity
  8
0
  6
Continuous
 62
     7
370
     0
100
AcDbLine
 10
329.9646465832
 20
86.2473161797
 30
0.0
 11
329.9646465832
 21
86.4973161797
 31
0.0
  0
LINE
  5
BE
330
1F
100
AcDbEntity
  8
0
  6
Continuous
 62
     7
370
     0
100
AcDbLine
 10
192.3646465832
 20
36.8473161797
 30
0.0
 11
212.6646465832
 21
36.8473161797
 31
0.0
  0
LINE
  5
BF
330
1F
100
AcDbEntity
  8
0
  6
Continuous
 62
     7
370
     0
100
AcDbLine
 10
192.3646465832
 20
36.8473161797
 30
0.0
 11
192.3646465832
 21
40.0673161797
 31
0.0
  0
LINE
  5
C0
330
1F
100
AcDbEntity
  8
0
  6
Continuous
 62
     7
370
     0
100
AcDbLine
 10
192.3646465832
 20
40.0673161797
 30
0.0
 11
212.6646465832
 21
40.0673161797
 31
0.0
  0
LINE
  5
C1
330
1F
100
AcDbEntity
  8
0
  6
Continuous
 62
     7
370
     0
100
AcDbLine
 10
212.6646465832
 20
39.3673161797
 30
0.0
 11
212.6646465832
 21
40.0673161797
 31
0.0
  0
LINE
  5
C2
330
1F
100
AcDbEntity
  8
0
  6
Continuous
 62
     7
370
     0
100
AcDbLine
 10
192.3646465832
 20
40.0673161797
 30
0.0
 11
192.3646465832
 21
85.2473161797
 31
0.0
  0
LINE
  5
C3
330
1F
100
AcDbEntity
  8
0
  6
Continuous
 62
     7
370
     0
100
AcDbLine
 10
192.3646465832
 20
85.2473161797
 30
0.0
 11
212.6646465832
 21
85.2473161797
 31
0.0
  0
CIRCLE
  5
C4
330
1F
100
AcDbEntity
  8
0
  6
Continuous
 62
     7
370
     0
100
AcDbCircle
 10
201.8646465832
 20
78.8973161797
 30
0.0
 40
3.400000000000006
  0
LINE
  5
C5
330
1F
100
AcDbEntity
  8
0
  6
Continuous
 62
     7
370
     0
100
AcDbLine
 10
212.6646465832
 20
40.0673161797
 30
0.0
 11
212.6646465832
 21
72.0973161797
 31
0.0
  0
LINE
  5
C6
330
1F
100
AcDbEntity
  8
0
  6
Continuous
 62
     7
370
     0
100
AcDbLine
 10
192.3646465832
 20
85.2473161797
 30
0.0
 11
192.3646465832
 21
86.2473161797
 31
0.0
  0
LINE
  5
C7
330
1F
100
AcDbEntity
  8
0
  6
Continuous
 62
     7
370
     0
100
AcDbLine
 10
192.3646465832
 20
86.2473161797
 30
0.0
 11
212.6646465832
 21
86.2473161797
 31
0.0
  0
CIRCLE
  5
C8
330
1F
100
AcDbEntity
  8
0
  6
Continuous
 62
     7
370
     0
100
AcDbCircle
 10
201.8646465832
 20
78.8973161797
 30
0.0
 40
2.5
  0
LINE
  5
C9
330
1F
100
AcDbEntity
  8
0
  6
Continuous
 62
     7
370
     0
100
AcDbLine
 10
192.3646465832
 20
86.4973161797
 30
0.0
 11
212.6646465832
 21
86.4973161797
 31
0.0
  0
LINE
  5
CA
330
1F
100
AcDbEntity
  8
0
  6
Continuous
 62
     7
370
     0
100
AcDbLine
 10
192.3646465832
 20
86.2473161797
 30
0.0
 11
192.3646465832
 21
86.4973161797
 31
0.0
  0
LINE
  5
CB
330
1F
100
AcDbEntity
  8
0
  6
Continuous
 62
     7
370
     0
100
AcDbLine
 10
212.6646465832
 20
36.7973161797
 30
0.0
 11
309.6646465832
 21
36.7973161797
 31
0.0
  0
LINE
  5
CC
330
1F
100
AcDbEntity
  8
0
  6
Continuous
 62
     7
370
     0
100
AcDbLine
 10
212.6646465832
 20
36.7973161797
 30
0.0
 11
212.6646465832
 21
39.2973161797
 31
0.0
  0
LINE
  5
CD
330
1F
100
AcDbEntity
  8
0
  6
Continuous
 62
     7
370
     0
100
AcDbLine
 10
221.1646465832
 20
39.2973161797
 30
0.0
 11
212.6646465832
 21
39.2973161797
 31
0.0
  0
ARC
  5
CE
330
1F
100
AcDbEntity
  8
0
  6
Continuous
 62
     7
370
     0
100
AcDbCircle
 10
221.1646465832
 20
47.7973161797
 30
0.0
 40
8.499999999999972
100
AcDbArc
 50
270.0
 51
0.0
  0
LINE
  5
CF
330
1F
100
AcDbEntity
  8
0
  6
Continuous
 62
     7
370
     0
100
AcDbLine
 10
229.6646465832
 20
57.7973161797
 30
0.0
 11
229.6646465832
 21
47.7973161797
 31
0.0
  0
LINE
  5
D0
330
1F
100
AcDbEntity
  8
0
  6
Continuous
 62
     7
370
     0
100
AcDbLine
 10
229.6646465832
 20
57.7973161797
 30
0.0
 11
292.6646465832
 21
57.7973161797
 31
0.0
  0
LINE
  5
D1
330
1F
100
AcDbEntity
  8
0
  6
Continuous
 62
     7
370
     0
100
AcDbLine
 10
292.6646465832
 20
47.7973161797
 30
0.0
 11
292.6646465832
 21
57.7973161797
 31
0.0
  0
ARC
  5
D2
330
1F
100
AcDbEntity
  8
0
  6
Continuous
 62
     7
370
     0
100
AcDbCircle
 10
301.1646465832
 20
47.7973161797
 30
0.0
 40
8.499999999999943
100
AcDbArc
 50
180.0
 51
270.0
  0
LINE
  5
D3
330
1F
100
AcDbEntity
  8
0
  6
Continuous
 62
     7
370
     0
100
AcDbLine
 10
309.6646465832
 20
39.2973161797
 30
0.0
 11
301.1646465832
 21
39.2973161797
 31
0.0
  0
LINE
  5
D4
330
1F
100
AcDbEntity
  8
0
  6
Continuous
 62
     7
370
     0
100
AcDbLine
 10
309.6646465832
 20
36.7973161797
 30
0.0
 11
309.6646465832
 21
39.2973161797
 31
0.0
  0
LINE
  5
D5
330
1F
100
AcDbEntity
  8
0
  6
Continuous
 62
     7
370
     0
100
AcDbLine
 10
229.6646465832
 20
57.7973161797
 30
0.0
 11
229.6646465832
 21
72.0973161797
 31
0.0
  0
LINE
  5
D6
330
1F
100
AcDbEntity
  8
0
  6
Continuous
 62
     7
370
     0
100
AcDbLine
 10
212.6646465832
 20
72.0973161797
 30
0.0
 11
229.6646465832
 21
72.0973161797
 31
0.0
  0
LINE
  5
D7
330
1F
100
AcDbEntity
  8
0
  6
Continuous
 62
     7
370
     0
100
AcDbLine
 10
212.6646465832
 20
72.0973161797
 30
0.0
 11
212.6646465832
 21
85.5973161797
 31
0.0
  0
LINE
  5
D8
330
1F
100
AcDbEntity
  8
0
  6
Continuous
 62
     7
370
     0
100
AcDbLine
 10
212.6646465832
 20
85.5973161797
 30
0.0
 11
309.6646465832
 21
85.5973161797
 31
0.0
  0
LINE
  5
D9
330
1F
100
AcDbEntity
  8
0
  6
Continuous
 62
     7
370
     0
100
AcDbLine
 10
309.6646465832
 20
72.0973161797
 30
0.0
 11
309.6646465832
 21
85.5973161797
 31
0.0
  0
LINE
  5
DA
330
1F
100
AcDbEntity
  8
0
  6
Continuous
 62
     7
370
     0
100
AcDbLine
 10
292.6646465832
 20
72.0973161797
 30
0.0
 11
309.6646465832
 21
72.0973161797
 31
0.0
  0
LINE
  5
DB
330
1F
100
AcDbEntity
  8
0
  6
Continuous
 62
     7
370
     0
100
AcDbLine
 10
292.6646465832
 20
57.7973161797
 30
0.0
 11
292.6646465832
 21
72.0973161797
 31
0.0
  0
LINE
  5
DC
330
1F
100
AcDbEntity
  8
0
  6
Continuous
 62
     7
370
     0
100
AcDbLine
 10
212.6646465832
 20
85.5973161797
 30
0.0
 11
212.6646465832
 21
87.0973161797
 31
0.0
  0
LINE
  5
DD
330
1F
100
AcDbEntity
  8
0
  6
Continuous
 62
     7
370
     0
100
AcDbLine
 10
212.6646465832
 20
87.0973161797
 30
0.0
 11
309.6646465832
 21
87.0973161797
 31
0.0
  0
LINE
  5
DE
330
1F
100
AcDbEntity
  8
0
  6
Continuous
 62
     7
370
     0
100
AcDbLine
 10
309.6646465832
 20
85.5973161797
 30
0.0
 11
309.6646465832
 21
87.0973161797
 31
0.0
  0
LINE
  5
DF
330
1F
100
AcDbEntity
  8
0
  6
Continuous
 62
     7
370
     0
100
AcDbLine
 10
301.1646465832
 20
39.2973161797
 30
0.0
 11
301.1646465832
 21
72.0973161797
 31
0.0
  0
LINE
  5
E0
330
1F
100
AcDbEntity
  8
0
  6
Continuous
 62
     7
370
     0
100
AcDbLine
 10
221.1646465832
 20
39.2973161797
 30
0.0
 11
221.1646465832
 21
72.0973161797
 31
0.0
  0
LINE
  5
E1
330
1F
100
AcDbEntity
  8
0
  6
Continuous
 62
     7
370
     0
100
AcDbLine
 10
309.6646465832
 20
39.3673161797
 30
0.0
 11
309.6646465832
 21
39.2973161797
 31
0.0
  0
LINE
  5
E2
330
1F
100
AcDbEntity
  8
0
  6
Continuous
 62
     7
370
     0
100
AcDbLine
 10
212.6646465832
 20
39.3673161797
 30
0.0
 11
212.6646465832
 21
39.2973161797
 31
0.0
  0
INSERT
  5
EE
330
1F
100
AcDbEntity
  8
0
  6
Continuous
 62
     7
370
     0
100
AcDbBlockReference
  2
SW_CENTERMARKSYMBOL_3
 10
201.8646465832
 20
78.8973161797
 30
0.0
  0
INSERT
  5
FA
330
1F
100
AcDbEntity
  8
0
  6
Continuous
 62
     7
370
     0
100
AcDbBlockReference
  2
SW_CENTERMARKSYMBOL_4
 10
320.4646465832
 20
78.8973161797
 30
0.0
  0
ARC
  5
FB
330
1F
100
AcDbEntity
  8
0
  6
HIDDEN
 62
     7
370
     0
100
AcDbCircle
 10
201.8646465832
 20
78.8973161797
 30
0.0
 40
3.000000000000022
100
AcDbArc
 50
255.0
 51
195.0
  0
ARC
  5
FC
330
1F
100
AcDbEntity
  8
0
  6
HIDDEN
 62
     7
370
     0
100
AcDbCircle
 10
320.4646465832
 20
78.8973161797
 30
0.0
 40
3.000000000000022
100
AcDbArc
 50
255.0
 51
195.0
  0
ARC
  5
FD
330
1F
100
AcDbEntity
  8
0
  6
Continuous
 62
     7
370
     0
100
AcDbCircle
 10
201.8646465832
 20
78.8973161797
 30
0.0
 40
3.000000000000022
100
AcDbArc
 50
255.0
 51
195.0
  0
ARC
  5
FE
330
1F
100
AcDbEntity
  8
0
  6
Continuous
 62
     7
370
     0
100
AcDbCircle
 10
320.4646465832
 20
78.8973161797
 30
0.0
 40
2.99999999999998
100
AcDbArc
 50
255.0
 51
195.0
  0
ARC
  5
FF
330
1F
100
AcDbEntity
  8
0
  6
HIDDEN
 62
     7
370
     0
100
AcDbCircle
 10
320.4646465832
 20
78.8973161797
 30
0.0
 40
3.000000000000022
100
AcDbArc
 50
255.0
 51
195.0
  0
ARC
  5
100
330
1F
100
AcDbEntity
  8
0
  6
Continuous
 62
     7
370
     0
100
AcDbCircle
 10
320.4646465832
 20
78.8973161797
 30
0.0
 40
2.99999999999998
100
AcDbArc
 50
255.0
 51
195.0
  0
LINE
  5
101
330
1F
100
AcDbEntity
  8
0
  6
Continuous
 62
     7
370
     0
100
AcDbLine
 10
95.8346465832
 20
251.5773161797
 30
0.0
 11
95.8346465832
 21
231.2773161797
 31
0.0
  0
LINE
  5
102
330
1F
100
AcDbEntity
  8
0
  6
Continuous
 62
     7
370
     0
100
AcDbLine
 10
115.1346465832
 20
251.5773161797
 30
0.0
 11
95.8346465832
 21
251.5773161797
 31
0.0
  0
LINE
  5
103
330
1F
100
AcDbEntity
  8
0
  6
Continuous
 62
     7
370
     0
100
AcDbLine
 10
115.1346465832
 20
251.5773161797
 30
0.0
 11
115.1346465832
 21
231.2773161797
 31
0.0
  0
CIRCLE
  5
104
330
1F
100
AcDbEntity
  8
0
  6
Continuous
 62
     7
370
     0
100
AcDbCircle
 10
105.4846465832
 20
240.0773161797
 30
0.0
 40
2.5
  0
LINE
  5
105
330
1F
100
AcDbEntity
  8
0
  6
Continuous
 62
     7
370
     0
100
AcDbLine
 10
115.3846465832
 20
251.5773161797
 30
0.0
 11
115.1346465832
 21
251.5773161797
 31
0.0
  0
LINE
  5
106
330
1F
100
AcDbEntity
  8
0
  6
Continuous
 62
     7
370
     0
100
AcDbLine
 10
115.3846465832
 20
251.5773161797
 30
0.0
 11
115.3846465832
 21
231.2773161797
 31
0.0
  0
LINE
  5
107
330
1F
100
AcDbEntity
  8
0
  6
Continuous
 62
     7
370
     0
100
AcDbLine
 10
95.5846465832
 20
251.5773161797
 30
0.0
 11
95.5846465832
 21
231.2773161797
 31
0.0
  0
LINE
  5
108
330
1F
100
AcDbEntity
  8
0
  6
Continuous
 62
     7
370
     0
100
AcDbLine
 10
95.8346465832
 20
251.5773161797
 30
0.0
 11
95.5846465832
 21
251.5773161797
 31
0.0
  0
LINE
  5
109
330
1F
100
AcDbEntity
  8
0
  6
Continuous
 62
     7
370
     0
100
AcDbLine
 10
146.6846465832
 20
251.5773161797
 30
0.0
 11
146.6846465832
 21
231.2773161797
 31
0.0
  0
LINE
  5
10A
330
1F
100
AcDbEntity
  8
0
  6
Continuous
 62
     7
370
     0
100
AcDbLine
 10
146.6846465832
 20
251.5773161797
 30
0.0
 11
115.3846465832
 21
251.5773161797
 31
0.0
  0
LINE
  5
10B
330
1F
100
AcDbEntity
  8
0
  6
Continuous
 62
     7
370
     0
100
AcDbLine
 10
147.6846465832
 20
251.5773161797
 30
0.0
 11
147.6846465832
 21
231.2773161797
 31
0.0
  0
LINE
  5
10C
330
1F
100
AcDbEntity
  8
0
  6
Continuous
 62
     7
370
     0
100
AcDbLine
 10
147.6846465832
 20
251.5773161797
 30
0.0
 11
146.6846465832
 21
251.5773161797
 31
0.0
  0
LINE
  5
10D
330
1F
100
AcDbEntity
  8
0
  6
Continuous
 62
     7
370
     0
100
AcDbLine
 10
64.2846465832
 20
251.5773161797
 30
0.0
 11
64.2846465832
 21
231.2773161797
 31
0.0
  0
LINE
  5
10E
330
1F
100
AcDbEntity
  8
0
  6
Continuous
 62
     7
370
     0
100
AcDbLine
 10
95.5846465832
 20
251.5773161797
 30
0.0
 11
64.2846465832
 21
251.5773161797
 31
0.0
  0
LINE
  5
10F
330
1F
100
AcDbEntity
  8
0
  6
Continuous
 62
     7
370
     0
100
AcDbLine
 10
63.2846465832
 20
251.5773161797
 30
0.0
 11
63.2846465832
 21
231.2773161797
 31
0.0
  0
LINE
  5
110
330
1F
100
AcDbEntity
  8
0
  6
Continuous
 62
     7
370
     0
100
AcDbLine
 10
64.2846465832
 20
251.5773161797
 30
0.0
 11
63.2846465832
 21
251.5773161797
 31
0.0
  0
CIRCLE
  5
111
330
1F
100
AcDbEntity
  8
0
  6
Continuous
 62
     7
370
     0
100
AcDbCircle
 10
105.4846465832
 20
239.2773161797
 30
0.0
 40
0.3999999999999915
  0
LINE
  5
112
330
1F
100
AcDbEntity
  8
0
  6
Continuous
 62
     7
370
     0
100
AcDbLine
 10
115.3846465832
 20
113.9773161797
 30
0.0
 11
115.3846465832
 21
134.2773161797
 31
0.0
  0
LINE
  5
113
330
1F
100
AcDbEntity
  8
0
  6
Continuous
 62
     7
370
     0
100
AcDbLine
 10
115.3846465832
 20
113.9773161797
 30
0.0
 11
115.1346465832
 21
113.9773161797
 31
0.0
  0
LINE
  5
114
330
1F
100
AcDbEntity
  8
0
  6
Continuous
 62
     7
370
     0
100
AcDbLine
 10
115.1346465832
 20
113.9773161797
 30
0.0
 11
115.1346465832
 21
134.2773161797
 31
0.0
  0
CIRCLE
  5
115
330
1F
100
AcDbEntity
  8
0
  6
Continuous
 62
     7
370
     0
100
AcDbCircle
 10
105.4846465832
 20
125.4773161797
 30
0.0
 40
2.5
  0
LINE
  5
116
330
1F
100
AcDbEntity
  8
0
  6
Continuous
 62
     7
370
     0
100
AcDbLine
 10
115.1346465832
 20
113.9773161797
 30
0.0
 11
95.8346465832
 21
113.9773161797
 31
0.0
  0
LINE
  5
117
330
1F
100
AcDbEntity
  8
0
  6
Continuous
 62
     7
370
     0
100
AcDbLine
 10
95.8346465832
 20
113.9773161797
 30
0.0
 11
95.8346465832
 21
134.2773161797
 31
0.0
  0
LINE
  5
118
330
1F
100
AcDbEntity
  8
0
  6
Continuous
 62
     7
370
     0
100
AcDbLine
 10
95.8346465832
 20
113.9773161797
 30
0.0
 11
95.5846465832
 21
113.9773161797
 31
0.0
  0
LINE
  5
119
330
1F
100
AcDbEntity
  8
0
  6
Continuous
 62
     7
370
     0
100
AcDbLine
 10
95.5846465832
 20
113.9773161797
 30
0.0
 11
95.5846465832
 21
134.2773161797
 31
0.0
  0
LINE
  5
11A
330
1F
100
AcDbEntity
  8
0
  6
Continuous
 62
     7
370
     0
100
AcDbLine
 10
147.6846465832
 20
113.9773161797
 30
0.0
 11
147.6846465832
 21
134.2773161797
 31
0.0
  0
LINE
  5
11B
330
1F
100
AcDbEntity
  8
0
  6
Continuous
 62
     7
370
     0
100
AcDbLine
 10
146.6846465832
 20
113.9773161797
 30
0.0
 11
146.6846465832
 21
134.2773161797
 31
0.0
  0
LINE
  5
11C
330
1F
100
AcDbEntity
  8
0
  6
Continuous
 62
     7
370
     0
100
AcDbLine
 10
147.6846465832
 20
113.9773161797
 30
0.0
 11
146.6846465832
 21
113.9773161797
 31
0.0
  0
LINE
  5
11D
330
1F
100
AcDbEntity
  8
0
  6
Continuous
 62
     7
370
     0
100
AcDbLine
 10
146.6846465832
 20
113.9773161797
 30
0.0
 11
115.3846465832
 21
113.9773161797
 31
0.0
  0
LINE
  5
11E
330
1F
100
AcDbEntity
  8
0
  6
Continuous
 62
     7
370
     0
100
AcDbLine
 10
64.2846465832
 20
113.9773161797
 30
0.0
 11
64.2846465832
 21
134.2773161797
 31
0.0
  0
LINE
  5
11F
330
1F
100
AcDbEntity
  8
0
  6
Continuous
 62
     7
370
     0
100
AcDbLine
 10
95.5846465832
 20
113.9773161797
 30
0.0
 11
64.2846465832
 21
113.9773161797
 31
0.0
  0
LINE
  5
120
330
1F
100
AcDbEntity
  8
0
  6
Continuous
 62
     7
370
     0
100
AcDbLine
 10
63.2846465832
 20
113.9773161797
 30
0.0
 11
63.2846465832
 21
134.2773161797
 31
0.0
  0
LINE
  5
121
330
1F
100
AcDbEntity
  8
0
  6
Continuous
 62
     7
370
     0
100
AcDbLine
 10
64.2846465832
 20
113.9773161797
 30
0.0
 11
63.2846465832
 21
113.9773161797
 31
0.0
  0
CIRCLE
  5
122
330
1F
100
AcDbEntity
  8
0
  6
Continuous
 62
     7
370
     0
100
AcDbCircle
 10
105.4846465832
 20
126.2773161797
 30
0.0
 40
0.3999999999999915
  0
LINE
  5
123
330
1F
100
AcDbEntity
  8
0
  6
Continuous
 62
     7
370
     0
100
AcDbLine
 10
46.9846465832
 20
134.2773161797
 30
0.0
 11
46.9846465832
 21
231.2773161797
 31
0.0
  0
LINE
  5
124
330
1F
100
AcDbEntity
  8
0
  6
Continuous
 62
     7
370
     0
100
AcDbLine
 10
46.9846465832
 20
134.2773161797
 30
0.0
 11
45.4846465832
 21
134.2773161797
 31
0.0
  0
LINE
  5
125
330
1F
100
AcDbEntity
  8
0
  6
Continuous
 62
     7
370
     0
100
AcDbLine
 10
45.4846465832
 20
134.2773161797
 30
0.0
 11
45.4846465832
 21
231.2773161797
 31
0.0
  0
LINE
  5
126
330
1F
100
AcDbEntity
  8
0
  6
Continuous
 62
     7
370
     0
100
AcDbLine
 10
46.9846465832
 20
231.2773161797
 30
0.0
 11
45.4846465832
 21
231.2773161797
 31
0.0
  0
LINE
  5
127
330
1F
100
AcDbEntity
  8
0
  6
Continuous
 62
     7
370
     0
100
AcDbLine
 10
165.4846465832
 20
134.2773161797
 30
0.0
 11
165.4846465832
 21
231.2773161797
 31
0.0
  0
LINE
  5
128
330
1F
100
AcDbEntity
  8
0
  6
Continuous
 62
     7
370
     0
100
AcDbLine
 10
165.4846465832
 20
134.2773161797
 30
0.0
 11
163.9846465832
 21
134.2773161797
 31
0.0
  0
LINE
  5
129
330
1F
100
AcDbEntity
  8
0
  6
Continuous
 62
     7
370
     0
100
AcDbLine
 10
163.9846465832
 20
134.2773161797
 30
0.0
 11
163.9846465832
 21
231.2773161797
 31
0.0
  0
LINE
  5
12A
330
1F
100
AcDbEntity
  8
0
  6
Continuous
 62
     7
370
     0
100
AcDbLine
 10
165.4846465832
 20
231.2773161797
 30
0.0
 11
163.9846465832
 21
231.2773161797
 31
0.0
  0
LINE
  5
12B
330
1F
100
AcDbEntity
  8
0
  6
Continuous
 62
     7
370
     0
100
AcDbLine
 10
163.9846465832
 20
134.2773161797
 30
0.0
 11
145.9846465832
 21
134.2773161797
 31
0.0
  0
LINE
  5
12C
330
1F
100
AcDbEntity
  8
0
  6
Continuous
 62
     7
370
     0
100
AcDbLine
 10
145.9846465832
 20
134.2773161797
 30
0.0
 11
145.9846465832
 21
231.2773161797
 31
0.0
  0
CIRCLE
  5
12D
330
1F
100
AcDbEntity
  8
0
  6
Continuous
 62
     7
370
     0
100
AcDbCircle
 10
155.4846465832
 20
222.7773161797
 30
0.0
 40
6.100000000000023
  0
CIRCLE
  5
12E
330
1F
100
AcDbEntity
  8
0
  6
Continuous
 62
     7
370
     0
100
AcDbCircle
 10
155.4846465832
 20
142.7773161797
 30
0.0
 40
6.100000000000023
  0
LINE
  5
12F
330
1F
100
AcDbEntity
  8
0
  6
Continuous
 62
     7
370
     0
100
AcDbLine
 10
163.9846465832
 20
231.2773161797
 30
0.0
 11
145.9846465832
 21
231.2773161797
 31
0.0
  0
LINE
  5
130
330
1F
100
AcDbEntity
  8
0
  6
Continuous
 62
     7
370
     0
100
AcDbLine
 10
64.9846465832
 20
134.2773161797
 30
0.0
 11
64.9846465832
 21
231.2773161797
 31
0.0
  0
LINE
  5
131
330
1F
100
AcDbEntity
  8
0
  6
Continuous
 62
     7
370
     0
100
AcDbLine
 10
64.9846465832
 20
134.2773161797
 30
0.0
 11
46.9846465832
 21
134.2773161797
 31
0.0
  0
CIRCLE
  5
132
330
1F
100
AcDbEntity
  8
0
  6
Continuous
 62
     7
370
     0
100
AcDbCircle
 10
55.4846465832
 20
222.7773161797
 30
0.0
 40
6.099999999999994
  0
CIRCLE
  5
133
330
1F
100
AcDbEntity
  8
0
  6
Continuous
 62
     7
370
     0
100
AcDbCircle
 10
55.4846465832
 20
142.7773161797
 30
0.0
 40
6.100000000000037
  0
LINE
  5
134
330
1F
100
AcDbEntity
  8
0
  6
Continuous
 62
     7
370
     0
100
AcDbLine
 10
64.9846465832
 20
231.2773161797
 30
0.0
 11
46.9846465832
 21
231.2773161797
 31
0.0
  0
LINE
  5
135
330
1F
100
AcDbEntity
  8
0
  6
Continuous
 62
     7
370
     0
100
AcDbLine
 10
95.9846465832
 20
134.2773161797
 30
0.0
 11
95.9846465832
 21
231.2773161797
 31
0.0
  0
LINE
  5
136
330
1F
100
AcDbEntity
  8
0
  6
Continuous
 62
     7
370
     0
100
AcDbLine
 10
95.9846465832
 20
134.2773161797
 30
0.0
 11
95.4846465832
 21
134.2773161797
 31
0.0
  0
LINE
  5
137
330
1F
100
AcDbEntity
  8
0
  6
Continuous
 62
     7
370
     0
100
AcDbLine
 10
95.4846465832
 20
134.2773161797
 30
0.0
 11
95.4846465832
 21
231.2773161797
 31
0.0
  0
LINE
  5
138
330
1F
100
AcDbEntity
  8
0
  6
Continuous
 62
     7
370
     0
100
AcDbLine
 10
95.9846465832
 20
231.2773161797
 30
0.0
 11
95.4846465832
 21
231.2773161797
 31
0.0
  0
LINE
  5
139
330
1F
100
AcDbEntity
  8
0
  6
Continuous
 62
     7
370
     0
100
AcDbLine
 10
145.9846465832
 20
134.2773161797
 30
0.0
 11
145.4846465832
 21
134.2773161797
 31
0.0
  0
LINE
  5
13A
330
1F
100
AcDbEntity
  8
0
  6
Continuous
 62
     7
370
     0
100
AcDbLine
 10
145.4846465832
 20
134.2773161797
 30
0.0
 11
145.4846465832
 21
231.2773161797
 31
0.0
  0
LINE
  5
13B
330
1F
100
AcDbEntity
  8
0
  6
Continuous
 62
     7
370
     0
100
AcDbLine
 10
145.9846465832
 20
231.2773161797
 30
0.0
 11
145.4846465832
 21
231.2773161797
 31
0.0
  0
LINE
  5
13C
330
1F
100
AcDbEntity
  8
0
  6
Continuous
 62
     7
370
     0
100
AcDbLine
 10
65.4846465832
 20
134.2773161797
 30
0.0
 11
65.4846465832
 21
231.2773161797
 31
0.0
  0
LINE
  5
13D
330
1F
100
AcDbEntity
  8
0
  6
Continuous
 62
     7
370
     0
100
AcDbLine
 10
65.4846465832
 20
134.2773161797
 30
0.0
 11
64.9846465832
 21
134.2773161797
 31
0.0
  0
LINE
  5
13E
330
1F
100
AcDbEntity
  8
0
  6
Continuous
 62
     7
370
     0
100
AcDbLine
 10
65.4846465832
 20
231.2773161797
 30
0.0
 11
64.9846465832
 21
231.2773161797
 31
0.0
  0
LINE
  5
13F
330
1F
100
AcDbEntity
  8
0
  6
Continuous
 62
     7
370
     0
100
AcDbLine
 10
114.9846465832
 20
134.2773161797
 30
0.0
 11
114.9846465832
 21
231.2773161797
 31
0.0
  0
LINE
  5
140
330
1F
100
AcDbEntity
  8
0
  6
Continuous
 62
     7
370
     0
100
AcDbLine
 10
114.9846465832
 20
134.2773161797
 30
0.0
 11
95.9846465832
 21
134.2773161797
 31
0.0
  0
CIRCLE
  5
141
330
1F
100
AcDbEntity
  8
0
  6
Continuous
 62
     7
370
     0
100
AcDbCircle
 10
105.4846465832
 20
152.7773161797
 30
0.0
 40
6.099999999993173
  0
CIRCLE
  5
142
330
1F
100
AcDbEntity
  8
0
  6
Continuous
 62
     7
370
     0
100
AcDbCircle
 10
105.4846465832
 20
212.7773161797
 30
0.0
 40
6.099999999993173
  0
LINE
  5
143
330
1F
100
AcDbEntity
  8
0
  6
Continuous
 62
     7
370
     0
100
AcDbLine
 10
114.9846465832
 20
231.2773161797
 30
0.0
 11
95.9846465832
 21
231.2773161797
 31
0.0
  0
LINE
  5
144
330
1F
100
AcDbEntity
  8
0
  6
Continuous
 62
     7
370
     0
100
AcDbLine
 10
115.4846465832
 20
134.2773161797
 30
0.0
 11
115.4846465832
 21
231.2773161797
 31
0.0
  0
LINE
  5
145
330
1F
100
AcDbEntity
  8
0
  6
Continuous
 62
     7
370
     0
100
AcDbLine
 10
115.4846465832
 20
134.2773161797
 30
0.0
 11
114.9846465832
 21
134.2773161797
 31
0.0
  0
LINE
  5
146
330
1F
100
AcDbEntity
  8
0
  6
Continuous
 62
     7
370
     0
100
AcDbLine
 10
115.4846465832
 20
231.2773161797
 30
0.0
 11
114.9846465832
 21
231.2773161797
 31
0.0
  0
CIRCLE
  5
147
330
1F
100
AcDbEntity
  8
0
  6
Continuous
 62
     7
370
     0
100
AcDbCircle
 10
55.4846465832
 20
222.7773161797
 30
0.0
 40
5.199999999999989
  0
CIRCLE
  5
148
330
1F
100
AcDbEntity
  8
0
  6
Continuous
 62
     7
370
     0
100
AcDbCircle
 10
155.4846465832
 20
222.7773161797
 30
0.0
 40
5.199999999999989
  0
CIRCLE
  5
149
330
1F
100
AcDbEntity
  8
0
  6
Continuous
 62
     7
370
     0
100
AcDbCircle
 10
105.4846465832
 20
212.7773161797
 30
0.0
 40
5.199999999999989
  0
CIRCLE
  5
14A
330
1F
100
AcDbEntity
  8
0
  6
Continuous
 62
     7
370
     0
100
AcDbCircle
 10
105.4846465832
 20
152.7773161797
 30
0.0
 40
5.200000000000017
  0
CIRCLE
  5
14B
330
1F
100
AcDbEntity
  8
0
  6
Continuous
 62
     7
370
     0
100
AcDbCircle
 10
55.4846465832
 20
142.7773161797
 30
0.0
 40
5.200000000000017
  0
CIRCLE
  5
14C
330
1F
100
AcDbEntity
  8
0
  6
Continuous
 62
     7
370
     0
100
AcDbCircle
 10
155.4846465832
 20
142.7773161797
 30
0.0
 40
5.199999999999989
  0
LINE
  5
14D
330
1F
100
AcDbEntity
  8
0
  6
Continuous
 62
     7
370
     0
100
AcDbLine
 10
95.4846465832
 20
134.2773161797
 30
0.0
 11
65.4846465832
 21
134.2773161797
 31
0.0
  0
LINE
  5
14E
330
1F
100
AcDbEntity
  8
0
  6
Continuous
 62
     7
370
     0
100
AcDbLine
 10
95.4846465832
 20
231.2773161797
 30
0.0
 11
65.4846465832
 21
231.2773161797
 31
0.0
  0
LINE
  5
14F
330
1F
100
AcDbEntity
  8
0
  6
Continuous
 62
     7
370
     0
100
AcDbLine
 10
145.4846465832
 20
134.2773161797
 30
0.0
 11
115.4846465832
 21
134.2773161797
 31
0.0
  0
LINE
  5
150
330
1F
100
AcDbEntity
  8
0
  6
Continuous
 62
     7
370
     0
100
AcDbLine
 10
145.4846465832
 20
231.2773161797
 30
0.0
 11
115.4846465832
 21
231.2773161797
 31
0.0
  0
INSERT
  5
15C
330
1F
100
AcDbEntity
  8
0
  6
Continuous
 62
     7
370
     0
100
AcDbBlockReference
  2
SW_CENTERMARKSYMBOL_5
 10
105.4846465832
 20
125.4773161797
 30
0.0
  0
INSERT
  5
168
330
1F
100
AcDbEntity
  8
0
  6
Continuous
 62
     7
370
     0
100
AcDbBlockReference
  2
SW_CENTERMARKSYMBOL_6
 10
105.4846465832
 20
126.2773161797
 30
0.0
  0
INSERT
  5
174
330
1F
100
AcDbEntity
  8
0
  6
Continuous
 62
     7
370
     0
100
AcDbBlockReference
  2
SW_CENTERMARKSYMBOL_7
 10
55.4846465832
 20
222.7773161797
 30
0.0
  0
INSERT
  5
180
330
1F
100
AcDbEntity
  8
0
  6
Continuous
 62
     7
370
     0
100
AcDbBlockReference
  2
SW_CENTERMARKSYMBOL_8
 10
155.4846465832
 20
142.7773161797
 30
0.0
  0
INSERT
  5
18C
330
1F
100
AcDbEntity
  8
0
  6
Continuous
 62
     7
370
     0
100
AcDbBlockReference
  2
SW_CENTERMARKSYMBOL_9
 10
105.4846465832
 20
212.7773161797
 30
0.0
  0
INSERT
  5
198
330
1F
100
AcDbEntity
  8
0
  6
Continuous
 62
     7
370
     0
100
AcDbBlockReference
  2
SW_CENTERMARKSYMBOL_10
 10
105.4846465832
 20
152.7773161797
 30
0.0
  0
INSERT
  5
1A4
330
1F
100
AcDbEntity
  8
0
  6
Continuous
 62
     7
370
     0
100
AcDbBlockReference
  2
SW_CENTERMARKSYMBOL_11
 10
55.4846465832
 20
142.7773161797
 30
0.0
  0
INSERT
  5
1B0
330
1F
100
AcDbEntity
  8
0
  6
Continuous
 62
     7
370
     0
100
AcDbBlockReference
  2
SW_CENTERMARKSYMBOL_12
 10
155.4846465832
 20
222.7773161797
 30
0.0
  0
INSERT
  5
1BC
330
1F
100
AcDbEntity
  8
0
  6
Continuous
 62
     7
370
     0
100
AcDbBlockReference
  2
SW_CENTERMARKSYMBOL_13
 10
105.4846465832
 20
240.0773161797
 30
0.0
  0
INSERT
  5
1C8
330
1F
100
AcDbEntity
  8
0
  6
Continuous
 62
     7
370
     0
100
AcDbBlockReference
  2
SW_CENTERMARKSYMBOL_14
 10
105.4846465832
 20
239.2773161797
 30
0.0
  0
ARC
  5
1C9
330
1F
100
AcDbEntity
  8
0
  6
Continuous
 62
     7
370
     0
100
AcDbCircle
 10
105.4846465832
 20
152.7773161797
 30
0.0
 40
6.000000000000003
100
AcDbArc
 50
255.0
 51
195.0
  0
ARC
  5
1CA
330
1F
100
AcDbEntity
  8
0
  6
Continuous
 62
     7
370
     0
100
AcDbCircle
 10
105.4846465832
 20
212.7773161797
 30
0.0
 40
6.000000000000003
100
AcDbArc
 50
255.0
 51
195.0
  0
ARC
  5
1CB
330
1F
100
AcDbEntity
  8
0
  6
Continuous
 62
     7
370
     0
100
AcDbCircle
 10
55.4846465832
 20
142.7773161797
 30
0.0
 40
5.999999999999996
100
AcDbArc
 50
255.0
 51
195.0
  0
ARC
  5
1CC
330
1F
100
AcDbEntity
  8
0
  6
Continuous
 62
     7
370
     0
100
AcDbCircle
 10
155.4846465832
 20
142.7773161797
 30
0.0
 40
5.999999999999988
100
AcDbArc
 50
255.0
 51
195.0
  0
ARC
  5
1CD
330
1F
100
AcDbEntity
  8
0
  6
Continuous
 62
     7
370
     0
100
AcDbCircle
 10
155.4846465832
 20
222.7773161797
 30
0.0
 40
5.999999999999988
100
AcDbArc
 50
255.0
 51
195.0
  0
ARC
  5
1CE
330
1F
100
AcDbEntity
  8
0
  6
Continuous
 62
     7
370
     0
100
AcDbCircle
 10
55.4846465832
 20
222.7773161797
 30
0.0
 40
6.000000000000003
100
AcDbArc
 50
255.0
 51
195.0
  0
LINE
  5
1CF
330
1F
100
AcDbEntity
  8
0
  6
Continuous
 62
     7
370
     0
100
AcDbLine
 10
302.4561877944
 20
251.8838959296
 30
0.0
 11
288.9101584019
 21
244.0639396137
 31
0.0
  0
LINE
  5
1D0
330
1F
100
AcDbEntity
  8
0
  6
Continuous
 62
     7
370
     0
100
AcDbLine
 10
248.5796356875
 20
151.705030721
 30
0.0
 11
246.9329528433
 21
150.7544209493
 31
0.0
  0
LINE
  5
1D1
330
1F
100
AcDbEntity
  8
0
  6
Continuous
 62
     7
370
     0
100
AcDbLine
 10
219.5125623612
 20
204.0015601712
 30
0.0
 11
205.1582947032
 21
195.7150178362
 31
0.0
  0
LINE
  5
1D2
330
1F
100
AcDbEntity
  8
0
  6
Continuous
 62
     7
370
     0
100
AcDbLine
 10
222.6491540655
 20
148.7212245275
 30
0.0
 11
237.0034217235
 21
157.0077668625
 31
0.0
  0
LINE
  5
1D3
330
1F
100
AcDbEntity
  8
0
  6
Continuous
 62
     7
370
     0
100
AcDbLine
 10
237.0034217235
 20
157.0077668625
 30
0.0
 11
241.5880071132
 21
159.654391673
 31
0.0
  0
ARC
  5
1D4
330
1F
100
AcDbEntity
  8
0
  6
Continuous
 62
     7
370
     0
100
AcDbCircle
 10
360.3936366103
 20
216.9037679519
 30
0.0
 40
1.536804807572119
100
AcDbArc
 50
2.6054784857
 51
57.39452166
  0
LINE
  5
1D5
330
1F
100
AcDbEntity
  8
0
  6
Continuous
 62
     7
370
     0
100
AcDbLine
 10
361.9288527117
 20
180.0823149232
 30
0.0
 11
361.9288527117
 21
216.9736288042
 31
0.0
  0
LINE
  5
1D6
330
1F
100
AcDbEntity
  8
0
  6
Continuous
 62
     7
370
     0
100
AcDbLine
 10
361.9288527117
 20
180.0823149232
 30
0.0
 11
348.1402704786
 21
172.1223358329
 31
0.0
  0
LWPOLYLINE
  5
1D7
330
1F
100
AcDbEntity
  8
0
  6
Continuous
 62
     7
370
     0
100
AcDbPolyline
 90
       20
 70
   128
 43
0.0
 10
352.8622180722
 20
207.1452014035
 10
352.963406783
 20
207.5974207127
 10
353.2327508843
 20
208.345525289
 10
353.6170832939
 20
209.0683568498
 10
354.0940680089
 20
209.723907052
 10
354.6359844116
 20
210.2740777009
 10
355.2113382904
 20
210.686894878
 10
355.7866921692
 20
210.9383671495
 10
356.3286085719
 20
211.0138798612
 10
356.805593287
 20
210.9090444887
 10
357.1899256965
 20
210.6299536827
 10
357.4592697979
 20
210.1928271865
 10
357.5979722909
 20
209.6230692031
 10
357.5979722909
 20
208.9537919955
 10
357.4592697979
 20
208.2238915224
 10
357.1899256965
 20
207.4757869461
 10
356.805593287
 20
206.7529553853
 10
356.3286085719
 20
206.0974051831
 10
355.7866921692
 20
205.5472345342
 10
355.7232219882
 20
205.4935789986
  0
LINE
  5
1D8
330
1F
100
AcDbEntity
  8
0
  6
Continuous
 62
     7
370
     0
100
AcDbLine
 10
339.0893036794
 20
230.975160622
 30
0.0
 11
324.9825636216
 21
222.8315129291
 31
0.0
  0
LINE
  5
1D9
330
1F
100
AcDbEntity
  8
0
  6
Continuous
 62
     7
370
     0
100
AcDbLine
 10
361.2217459305
 20
218.198373672
 30
0.0
 11
339.0893036794
 21
230.975160622
 31
0.0
  0
LWPOLYLINE
  5
1DA
330
1F
100
AcDbEntity
  8
0
  6
Continuous
 62
     7
370
     0
100
AcDbPolyline
 90
       12
 70
   128
 43
0.0
 10
354.5040385582
 20
206.1973986115
 10
354.8265216554
 20
206.4026994939
 10
355.3092991191
 20
206.8450958808
 10
355.7325833516
 20
207.4035808594
 10
356.0620823818
 20
208.0329092982
 10
356.2711021577
 20
208.6820967497
 10
356.3427091403
 20
209.2985499076
 10
356.2711021577
 20
209.8323274032
 10
356.0620823818
 20
210.2401857583
 10
355.7325833516
 20
210.4890827146
 10
355.3092991191
 20
210.5588541209
 10
354.8682507662
 20
210.4604203634
  0
LINE
  5
1DB
330
1F
100
AcDbEntity
  8
0
  6
Continuous
 62
     7
370
     0
100
AcDbLine
 10
338.9125269841
 20
231.281346839
 30
0.0
 11
324.7173712808
 21
223.0866578803
 31
0.0
  0
LINE
  5
1DC
330
1F
100
AcDbEntity
  8
0
  6
Continuous
 62
     7
370
     0
100
AcDbLine
 10
339.0893036794
 20
230.975160622
 30
0.0
 11
338.9125269841
 21
231.281346839
 31
0.0
  0
LINE
  5
1DD
330
1F
100
AcDbEntity
  8
0
  6
Continuous
 62
     7
370
     0
100
AcDbLine
 10
325.2653661072
 20
239.159685118
 30
0.0
 11
311.3354314783
 21
231.1181050266
 31
0.0
  0
LWPOLYLINE
  5
1DE
330
1F
100
AcDbEntity
  8
0
  6
Continuous
 62
     7
370
     0
100
AcDbPolyline
 90
       23
 70
   128
 43
0.0
 10
322.189451609
 20
231.5466794753
 10
321.7630210881
 20
231.2178307132
 10
321.5143513971
 20
230.8329476597
 10
321.4635882755
 20
230.4232112509
 10
321.6148442495
 20
230.0218158938
 10
321.9558654597
 20
229.661280253
 10
322.4590243957
 20
229.370812782
 10
323.083558113
 20
229.1739454278
 10
323.778870604
 20
229.0866272126
 10
324.4886317859
 20
229.1159321389
 10
325.1553410288
 20
229.2594860959
 10
325.724985515
 20
229.5056591957
 10
326.1514160359
 20
229.8345079579
 10
326.4000857269
 20
230.2193910113
 10
326.4508488485
 20
230.6291274201
 10
326.2995928745
 20
231.0305227773
 10
325.9585716643
 20
231.391058418
 10
325.4554127283
 20
231.681525889
 10
324.830879011
 20
231.8783932432
 10
324.13556652
 20
231.9657114584
 10
323.4258053381
 20
231.9364065321
 10
322.7590960952
 20
231.7928525751
 10
322.189451609
 20
231.5466794753
  0
LINE
  5
1DF
330
1F
100
AcDbEntity
  8
0
  6
Continuous
 62
     7
370
     0
100
AcDbLine
 10
338.9125269841
 20
231.281346839
 30
0.0
 11
325.2653661072
 21
239.159685118
 31
0.0
  0
LWPOLYLINE
  5
1E0
330
1F
100
AcDbEntity
  8
0
  6
Continuous
 62
     7
370
     0
100
AcDbPolyline
 90
        3
 70
   128
 43
0.0
 10
322.189451609
 20
230.7301386634
 10
321.7630210881
 20
230.4012899013
 10
321.5593366955
 20
230.1178989296
  0
ARC
  5
1E1
330
1F
100
AcDbEntity
  8
0
  6
Continuous
 62
     7
370
     0
100
AcDbCircle
 10
323.911157041
 20
227.9669831612
 30
0.0
 40
3.255656296938119
100
AcDbArc
 50
41.3510218439
 51
121.9267832204
  0
LINE
  5
1E2
330
1F
100
AcDbEntity
  8
0
  6
Continuous
 62
     7
370
     0
100
AcDbLine
 10
359.6519688763
 20
178.7674705689
 30
0.0
 11
348.1402704786
 21
172.1219085387
 31
0.0
  0
LINE
  5
1E3
330
1F
100
AcDbEntity
  8
0
  6
Continuous
 62
     7
370
     0
100
AcDbLine
 10
359.6519688763
 20
178.7674705689
 30
0.0
 11
361.9288527117
 21
180.0823149232
 31
0.0
  0
LWPOLYLINE
  5
1E4
330
1F
100
AcDbEntity
  8
0
  6
Continuous
 62
     7
370
     0
100
AcDbPolyline
 90
       17
 70
   128
 43
0.0
 10
323.1086904246
 20
229.5463469013
 10
323.021981324
 20
229.4714326562
 10
322.991533137
 20
229.3830652789
 10
323.021981324
 20
229.2946979017
 10
323.1086904246
 20
229.2197836565
 10
323.2384597641
 20
229.1697275583
 10
323.391533137
 20
229.1521501941
 10
323.54460651
 20
229.1697275583
 10
323.6743758495
 20
229.2197836565
 10
323.76108495
 20
229.2946979017
 10
323.791533137
 20
229.3830652789
 10
323.76108495
 20
229.4714326562
 10
323.6743758495
 20
229.5463469013
 10
323.54460651
 20
229.5964029995
 10
323.391533137
 20
229.6139803637
 10
323.2384597641
 20
229.5964029995
 10
323.1086904246
 20
229.5463469013
  0
LINE
  5
1E5
330
1F
100
AcDbEntity
  8
0
  6
Continuous
 62
     7
370
     0
100
AcDbLine
 10
325.0885606784
 20
239.0576175166
 30
0.0
 11
302.9561471607
 21
251.8343878791
 31
0.0
  0
ARC
  5
1E6
330
1F
100
AcDbEntity
  8
0
  6
Continuous
 62
     7
370
     0
100
AcDbCircle
 10
302.6632271059
 20
251.42550655
 30
0.0
 40
0.5029772359016859
100
AcDbArc
 50
54.3824225248
 51
114.3071190461
  0
ARC
  5
1E7
330
1F
100
AcDbEntity
  8
0
  6
Continuous
 62
     7
370
     0
100
AcDbCircle
 10
252.4350666447
 20
137.8569507796
 30
0.0
 40
6.353152391952992
100
AcDbArc
 50
182.4960857496
 51
232.6376839005
  0
LINE
  5
1E8
330
1F
100
AcDbEntity
  8
0
  6
Continuous
 62
     7
370
     0
100
AcDbLine
 10
246.0879421289
 20
137.5802637775
 30
0.0
 11
245.0441017816
 21
138.8787920158
 31
0.0
  0
LINE
  5
1E9
330
1F
100
AcDbEntity
  8
0
  6
Continuous
 62
     7
370
     0
100
AcDbLine
 10
245.0441017816
 20
138.8787920158
 30
0.0
 11
245.0441017816
 21
148.7589358396
 31
0.0
  0
LINE
  5
1EA
330
1F
100
AcDbEntity
  8
0
  6
Continuous
 62
     7
370
     0
100
AcDbLine
 10
245.0441017816
 20
148.7589358396
 30
0.0
 11
246.0879421289
 21
148.852271666
 31
0.0
  0
LWPOLYLINE
  5
1EB
330
1F
100
AcDbEntity
  8
0
  6
Continuous
 62
     7
370
     0
100
AcDbPolyline
 90
        9
 70
   128
 43
0.0
 10
246.0879421289
 20
148.852271666
 10
246.129534334
 20
149.4269872754
 10
246.2635498973
 20
149.9299927096
 10
246.4856324814
 20
150.3449371705
 10
246.7885630241
 20
150.6583323881
 10
247.1624944029
 20
150.8599910729
 10
247.5952715273
 20
150.9433580661
 10
248.0728264551
 20
150.9057234232
 10
248.5796356875
 20
150.7483105036
  0
LINE
  5
1EC
330
1F
100
AcDbEntity
  8
0
  6
Continuous
 62
     7
370
     0
100
AcDbLine
 10
248.5796356875
 20
150.7483105036
 30
0.0
 11
248.5796356875
 21
153.2094150145
 31
0.0
  0
LINE
  5
1ED
330
1F
100
AcDbEntity
  8
0
  6
Continuous
 62
     7
370
     0
100
AcDbLine
 10
248.5796356875
 20
153.2094150145
 30
0.0
 11
248.2932213605
 21
153.7054991795
 31
0.0
  0
LINE
  5
1EE
330
1F
100
AcDbEntity
  8
0
  6
Continuous
 62
     7
370
     0
100
AcDbLine
 10
248.2932213605
 20
153.7054991795
 30
0.0
 11
248.7754095113
 21
155.5051925868
 31
0.0
  0
LINE
  5
1EF
330
1F
100
AcDbEntity
  8
0
  6
Continuous
 62
     7
370
     0
100
AcDbLine
 10
248.7754095113
 20
155.5051925868
 30
0.0
 11
220.8066973975
 21
171.6511864129
 31
0.0
  0
LINE
  5
1F0
330
1F
100
AcDbEntity
  8
0
  6
Continuous
 62
     7
370
     0
100
AcDbLine
 10
220.8066973975
 20
171.6511864129
 30
0.0
 11
221.2888855482
 21
169.2947704169
 31
0.0
  0
LINE
  5
1F1
330
1F
100
AcDbEntity
  8
0
  6
Continuous
 62
     7
370
     0
100
AcDbLine
 10
221.2888855482
 20
169.2947704169
 30
0.0
 11
221.0024712212
 21
169.1293731951
 31
0.0
  0
LINE
  5
1F2
330
1F
100
AcDbEntity
  8
0
  6
Continuous
 62
     7
370
     0
100
AcDbLine
 10
221.0024712212
 20
169.1293731951
 30
0.0
 11
221.0024712212
 21
166.6682686842
 31
0.0
  0
ARC
  5
1F3
330
1F
100
AcDbEntity
  8
0
  6
Continuous
 62
     7
370
     0
100
AcDbCircle
 10
217.147040264
 20
161.6186946972
 30
0.0
 40
6.353152391953755
100
AcDbArc
 50
2.4960857496
 51
52.6376839005
  0
LINE
  5
1F4
330
1F
100
AcDbEntity
  8
0
  6
Continuous
 62
     7
370
     0
100
AcDbLine
 10
223.4941647798
 20
161.8953816993
 30
0.0
 11
224.5380051272
 21
160.596853461
 31
0.0
  0
LINE
  5
1F5
330
1F
100
AcDbEntity
  8
0
  6
Continuous
 62
     7
370
     0
100
AcDbLine
 10
224.5380051272
 20
160.596853461
 30
0.0
 11
224.5380051272
 21
150.7167096372
 31
0.0
  0
LINE
  5
1F6
330
1F
100
AcDbEntity
  8
0
  6
Continuous
 62
     7
370
     0
100
AcDbLine
 10
224.5380051272
 20
150.7167096372
 30
0.0
 11
223.4941647798
 21
150.6233738108
 31
0.0
  0
LWPOLYLINE
  5
1F7
330
1F
100
AcDbEntity
  8
0
  6
Continuous
 62
     7
370
     0
100
AcDbPolyline
 90
        9
 70
   128
 43
0.0
 10
223.4941647798
 20
150.6233738108
 10
223.4525725748
 20
150.0486582014
 10
223.3185570115
 20
149.5456527672
 10
223.0964744273
 20
149.1307083063
 10
222.7935438846
 20
148.8173130887
 10
222.4196125059
 20
148.6156544039
 10
221.9868353814
 20
148.5322874107
 10
221.5092804536
 20
148.5699220536
 10
221.0024712212
 20
148.7273349732
  0
LINE
  5
1F8
330
1F
100
AcDbEntity
  8
0
  6
Continuous
 62
     7
370
     0
100
AcDbLine
 10
221.0024712212
 20
148.7273349732
 30
0.0
 11
221.0024712212
 21
146.4703656652
 31
0.0
  0
LINE
  5
1F9
330
1F
100
AcDbEntity
  8
0
  6
Continuous
 62
     7
370
     0
100
AcDbLine
 10
207.2280311237
 20
154.4221806744
 30
0.0
 11
221.0024712212
 21
146.4703656652
 31
0.0
  0
LINE
  5
1FA
330
1F
100
AcDbEntity
  8
0
  6
Continuous
 62
     7
370
     0
100
AcDbLine
 10
204.9511472883
 20
158.3658591487
 30
0.0
 11
207.2280311237
 21
154.4221806744
 31
0.0
  0
LINE
  5
1FB
330
1F
100
AcDbEntity
  8
0
  6
Continuous
 62
     7
370
     0
100
AcDbLine
 10
204.9511472883
 20
195.2571730297
 30
0.0
 11
204.9511472883
 21
158.3658591487
 31
0.0
  0
ARC
  5
1FC
330
1F
100
AcDbEntity
  8
0
  6
Continuous
 62
     7
370
     0
100
AcDbCircle
 10
205.3822216557
 20
195.3271002266
 30
0.0
 40
0.4367091974284936
100
AcDbArc
 50
50.7967147643
 51
189.2140369905
  0
LINE
  5
1FD
330
1F
100
AcDbEntity
  8
0
  6
Continuous
 62
     7
370
     0
100
AcDbLine
 10
227.7906963206
 20
182.8887228356
 30
0.0
 11
205.6582540695
 21
195.6655097857
 31
0.0
  0
LINE
  5
1FE
330
1F
100
AcDbEntity
  8
0
  6
Continuous
 62
     7
370
     0
100
AcDbLine
 10
227.9674730159
 20
182.9908070246
 30
0.0
 11
227.7906963206
 21
182.8887228356
 31
0.0
  0
LINE
  5
1FF
330
1F
100
AcDbEntity
  8
0
  6
Continuous
 62
     7
370
     0
100
AcDbLine
 10
241.6146338928
 20
175.1124687455
 30
0.0
 11
227.9674730159
 21
182.9908070246
 31
0.0
  0
LINE
  5
200
330
1F
100
AcDbEntity
  8
0
  6
Continuous
 62
     7
370
     0
100
AcDbLine
 10
241.7914105881
 20
174.8062825286
 30
0.0
 11
241.6146338928
 21
175.1124687455
 31
0.0
  0
LINE
  5
201
330
1F
100
AcDbEntity
  8
0
  6
Continuous
 62
     7
370
     0
100
AcDbLine
 10
263.9238528393
 20
162.0294955786
 30
0.0
 11
241.7914105881
 21
174.8062825286
 31
0.0
  0
ARC
  5
202
330
1F
100
AcDbEntity
  8
0
  6
Continuous
 62
     7
370
     0
100
AcDbCircle
 10
263.0957435191
 20
160.7348898585
 30
0.0
 40
1.53680480757189
100
AcDbArc
 50
2.6054784856
 51
57.39452166
  0
LINE
  5
203
330
1F
100
AcDbEntity
  8
0
  6
Continuous
 62
     7
370
     0
100
AcDbLine
 10
264.6309596204
 20
123.9134368298
 30
0.0
 11
264.6309596204
 21
160.8047507108
 31
0.0
  0
LINE
  5
204
330
1F
100
AcDbEntity
  8
0
  6
Continuous
 62
     7
370
     0
100
AcDbLine
 10
262.354075785
 20
122.5985924755
 30
0.0
 11
264.6309596204
 21
123.9134368298
 31
0.0
  0
LINE
  5
205
330
1F
100
AcDbEntity
  8
0
  6
Continuous
 62
     7
370
     0
100
AcDbLine
 10
248.5796356875
 20
130.5504074847
 30
0.0
 11
262.354075785
 21
122.5985924755
 31
0.0
  0
LINE
  5
206
330
1F
100
AcDbEntity
  8
0
  6
Continuous
 62
     7
370
     0
100
AcDbLine
 10
248.5796356875
 20
130.5504074847
 30
0.0
 11
248.5796356875
 21
132.8073767926
 31
0.0
  0
LWPOLYLINE
  5
207
330
1F
100
AcDbEntity
  8
0
  6
Continuous
 62
     7
370
     0
100
AcDbPolyline
 90
       23
 70
   128
 43
0.0
 10
211.916149083
 20
175.6812606125
 10
211.8431099607
 20
175.136807567
 10
211.6299097892
 20
174.7207920449
 10
211.2938207785
 20
174.4669171495
 10
210.8620708613
 20
174.3957503151
 10
210.3696378483
 20
174.5130570553
 10
209.8564157336
 20
174.8093338757
 10
209.3639827206
 20
175.2605781904
 10
208.9322328034
 20
175.8302328685
 10
208.5961437927
 20
176.472147876
 10
208.3829436212
 20
177.1343190766
 10
208.3099044989
 20
177.7631012977
 10
208.3829436212
 20
178.3075543432
 10
208.5961437927
 20
178.7235698654
 10
208.9322328034
 20
178.9774447608
 10
209.3639827206
 20
179.0486115952
 10
209.8564157336
 20
178.931304855
 10
210.3696378483
 20
178.6350280345
 10
210.8620708613
 20
178.1837837199
 10
211.2938207785
 20
177.6141290417
 10
211.6299097892
 20
176.9722140342
 10
211.8431099607
 20
176.3100428336
 10
211.916149083
 20
175.6812606125
  0
LWPOLYLINE
  5
208
330
1F
100
AcDbEntity
  8
0
  6
Continuous
 62
     7
370
     0
100
AcDbPolyline
 90
       27
 70
   128
 43
0.0
 10
237.1952165104
 20
171.4580339247
 10
237.1253559014
 20
170.8339661726
 10
236.919834119
 20
170.3268263123
 10
236.5905953422
 20
169.9660874688
 10
236.1567737319
 20
169.7727144727
 10
235.6435814233
 20
169.7579454595
 10
235.0808432879
 20
169.9226387507
 10
234.5012636208
 20
170.2572229707
 10
233.9385254854
 20
170.7422533009
 10
233.4253331768
 20
171.3495415414
 10
232.9915115666
 20
172.0437943073
 10
232.6622727897
 20
172.7846641511
 10
232.4567510074
 20
173.5290944105
 10
232.3868903983
 20
174.2338215049
 10
232.4567510074
 20
174.8578892569
 10
232.6622727897
 20
175.3650291173
 10
232.9915115666
 20
175.7257679607
 10
233.4253331768
 20
175.9191409568
 10
233.9385254854
 20
175.93390997
 10
234.5012636208
 20
175.7692166788
 10
235.0808432879
 20
175.4346324588
 10
235.6435814233
 20
174.9496021287
 10
236.1567737319
 20
174.3423138881
 10
236.5905953422
 20
173.6480611223
 10
236.919834119
 20
172.9071912784
 10
237.1253559014
 20
172.162761019
 10
237.1952165104
 20
171.4580339247
  0
LWPOLYLINE
  5
209
330
1F
100
AcDbEntity
  8
0
  6
Continuous
 62
     7
370
     0
100
AcDbPolyline
 90
       23
 70
   128
 43
0.0
 10
261.2722024098
 20
147.1886175099
 10
261.1991632875
 20
146.6441644644
 10
260.9859631161
 20
146.2281489423
 10
260.6498741053
 20
145.9742740469
 10
260.2181241882
 20
145.9031072125
 10
259.7256911752
 20
146.0204139527
 10
259.2124690604
 20
146.3166907731
 10
258.7200360474
 20
146.7679350877
 10
258.2882861302
 20
147.3375897659
 10
257.9521971195
 20
147.9795047734
 10
257.738996948
 20
148.641675974
 10
257.6659578258
 20
149.2704581951
 10
257.738996948
 20
149.8149112406
 10
257.9521971195
 20
150.2309267628
 10
258.2882861302
 20
150.4848016581
 10
258.7200360474
 20
150.5559684926
 10
259.2124690604
 20
150.4386617523
 10
259.7256911752
 20
150.1423849319
 10
260.2181241882
 20
149.6911406173
 10
260.6498741053
 20
149.1214859391
 10
260.9859631161
 20
148.4795709316
 10
261.1991632875
 20
147.817399731
 10
261.2722024098
 20
147.1886175099
  0
LINE
  5
20A
330
1F
100
AcDbEntity
  8
0
  6
Continuous
 62
     7
370
     0
100
AcDbLine
 10
264.6309596204
 20
160.8047507108
 30
0.0
 11
278.9852272785
 21
169.0912930458
 31
0.0
  0
LINE
  5
20B
330
1F
100
AcDbEntity
  8
0
  6
Continuous
 62
     7
370
     0
100
AcDbLine
 10
263.9238528393
 20
162.0294955786
 30
0.0
 11
278.2781204973
 21
170.3160379136
 31
0.0
  0
ARC
  5
20C
330
1F
100
AcDbEntity
  8
0
  6
Continuous
 62
     7
370
     0
100
AcDbCircle
 10
277.4500111772
 20
169.0214321935
 30
0.0
 40
1.536804807572132
100
AcDbArc
 50
2.6054784857
 51
57.39452166
  0
LINE
  5
20D
330
1F
100
AcDbEntity
  8
0
  6
Continuous
 62
     7
370
     0
100
AcDbLine
 10
264.6309596204
 20
123.9134368298
 30
0.0
 11
278.9852272785
 21
132.1999791648
 31
0.0
  0
LINE
  5
20E
330
1F
100
AcDbEntity
  8
0
  6
Continuous
 62
     7
370
     0
100
AcDbLine
 10
278.9852272785
 20
132.1999791648
 30
0.0
 11
278.9852272785
 21
169.0912930458
 31
0.0
  0
LWPOLYLINE
  5
20F
330
1F
100
AcDbEntity
  8
0
  6
Continuous
 62
     7
370
     0
100
AcDbPolyline
 90
       27
 70
   128
 43
0.0
 10
271.3484740417
 20
156.721416326
 10
270.7731201629
 20
156.4699440545
 10
270.2312037602
 20
156.3944313428
 10
269.7542190451
 20
156.4992667154
 10
269.3698866356
 20
156.7783575213
 10
269.1005425343
 20
157.2154840176
 10
268.9618400412
 20
157.7852420009
 10
268.9618400412
 20
158.4545192085
 10
269.1005425343
 20
159.1844196816
 10
269.3698866356
 20
159.9325242579
 10
269.7542190451
 20
160.6553558187
 10
270.2312037602
 20
161.3109060209
 10
270.7731201629
 20
161.8610766698
 10
271.3484740417
 20
162.2738938469
 10
271.9238279205
 20
162.5253661184
 10
272.4657443232
 20
162.6008788301
 10
272.9427290383
 20
162.4960434576
 10
273.3270614478
 20
162.2169526516
 10
273.5964055492
 20
161.7798261554
 10
273.7351080422
 20
161.210068172
 10
273.7351080422
 20
160.5407909644
 10
273.5964055492
 20
159.8108904913
 10
273.3270614478
 20
159.062785915
 10
272.9427290383
 20
158.3399543542
 10
272.4657443232
 20
157.684404152
 10
271.9238279205
 20
157.1342335032
 10
271.3484740417
 20
156.721416326
  0
LINE
  5
210
330
1F
100
AcDbEntity
  8
0
  6
Continuous
 62
     7
370
     0
100
AcDbLine
 10
241.7914105881
 20
174.8062825286
 30
0.0
 11
256.1456782462
 21
183.0928248636
 31
0.0
  0
LINE
  5
211
330
1F
100
AcDbEntity
  8
0
  6
Continuous
 62
     7
370
     0
100
AcDbLine
 10
278.2781204973
 20
170.3160379136
 30
0.0
 11
256.1456782462
 21
183.0928248636
 31
0.0
  0
LWPOLYLINE
  5
212
330
1F
100
AcDbEntity
  8
0
  6
Continuous
 62
     7
370
     0
100
AcDbPolyline
 90
       17
 70
   128
 43
0.0
 10
268.9688614306
 20
158.5196721726
 10
269.0159179683
 20
158.3107511014
 10
269.2249377442
 20
157.9028927463
 10
269.5544367744
 20
157.6539957901
 10
269.9777210069
 20
157.5842243838
 10
270.4604984706
 20
157.6992309918
 10
270.9636574067
 20
157.9896984628
 10
271.4464348704
 20
158.4320948498
 10
271.8697191029
 20
158.9905798284
 10
272.199218133
 20
159.6199082671
 10
272.408237909
 20
160.2690957187
 10
272.4798448916
 20
160.8855488766
 10
272.408237909
 20
161.4193263721
 10
272.199218133
 20
161.8271847272
 10
271.8697191029
 20
162.0760816835
 10
271.4464348704
 20
162.1458530898
 10
271.0053865173
 20
162.0474193323
  0
LWPOLYLINE
  5
213
330
1F
100
AcDbEntity
  8
0
  6
Continuous
 62
     7
370
     0
100
AcDbPolyline
 90
       14
 70
   128
 43
0.0
 10
259.8224215594
 20
150.0673673644
 10
259.5221131264
 20
150.1004792414
 10
259.2117121072
 20
149.9789033657
 10
259.0091122306
 20
149.6906400815
 10
258.9387500319
 20
149.2704581951
 10
259.0091122306
 20
148.7690378433
 10
259.2117121072
 20
148.2468577206
 10
259.5221131264
 20
147.7669004565
 10
259.9028763443
 20
147.3870559804
 10
260.3080760974
 20
147.153139142
 10
260.6888393153
 20
147.0933637643
 10
260.9992403345
 20
147.21493964
 10
261.2018402111
 20
147.5032029242
 10
261.2373003613
 20
147.6164598319
  0
LINE
  5
214
330
1F
100
AcDbEntity
  8
0
  6
Continuous
 62
     7
370
     0
100
AcDbLine
 10
241.6146338928
 20
175.1124687455
 30
0.0
 11
255.9689015509
 21
183.3990110805
 31
0.0
  0
LINE
  5
215
330
1F
100
AcDbEntity
  8
0
  6
Continuous
 62
     7
370
     0
100
AcDbLine
 10
256.1456782462
 20
183.0928248636
 30
0.0
 11
255.9689015509
 21
183.3990110805
 31
0.0
  0
LWPOLYLINE
  5
216
330
1F
100
AcDbEntity
  8
0
  6
Continuous
 62
     7
370
     0
100
AcDbPolyline
 90
       23
 70
   128
 43
0.0
 10
244.690548391
 20
182.7254743883
 10
244.1209039048
 20
182.4793012885
 10
243.4541946619
 20
182.3357473315
 10
242.74443348
 20
182.3064424052
 10
242.049120989
 20
182.3937606204
 10
241.4245872717
 20
182.5906279746
 10
240.9214283357
 20
182.8810954456
 10
240.5804071255
 20
183.2416310863
 10
240.4291511515
 20
183.6430264434
 10
240.4799142731
 20
184.0527628523
 10
240.7285839641
 20
184.4376459057
 10
241.155014485
 20
184.7664946679
 10
241.7246589712
 20
185.0126677677
 10
242.3913682141
 20
185.1562217246
 10
243.101129396
 20
185.185526651
 10
243.796441887
 20
185.0982084358
 10
244.4209756043
 20
184.9013410816
 10
244.9241345403
 20
184.6108736106
 10
245.2651557505
 20
184.2503379698
 10
245.4164117245
 20
183.8489426127
 10
245.3656486029
 20
183.4392062039
 10
245.1169789119
 20
183.0543231504
 10
244.690548391
 20
182.7254743883
  0
LINE
  5
217
330
1F
100
AcDbEntity
  8
0
  6
Continuous
 62
     7
370
     0
100
AcDbLine
 10
227.9674730159
 20
182.9908070246
 30
0.0
 11
242.321740674
 21
191.2773493596
 31
0.0
  0
LINE
  5
218
330
1F
100
AcDbEntity
  8
0
  6
Continuous
 62
     7
370
     0
100
AcDbLine
 10
255.9689015509
 20
183.3990110805
 30
0.0
 11
242.321740674
 21
191.2773493596
 31
0.0
  0
LWPOLYLINE
  5
219
330
1F
100
AcDbEntity
  8
0
  6
Continuous
 62
     7
370
     0
100
AcDbPolyline
 90
       17
 70
   128
 43
0.0
 10
235.1341409788
 20
175.3956919606
 10
234.6930926257
 20
175.4941257181
 10
234.2698083932
 20
175.4243543118
 10
233.940309363
 20
175.1754573555
 10
233.7312895871
 20
174.7675990004
 10
233.6596826045
 20
174.2338215049
 10
233.7312895871
 20
173.617368347
 10
233.940309363
 20
172.9681808954
 10
234.2698083932
 20
172.3388524567
 10
234.6930926257
 20
171.7803674781
 10
235.1758700894
 20
171.3379710911
 10
235.6790290254
 20
171.0475036201
 10
236.1618064892
 20
170.9324970121
 10
236.5850907217
 20
171.0022684184
 10
236.9145897518
 20
171.2511653746
 10
237.1236095278
 20
171.6590237297
 10
237.1706660654
 20
171.8679448008
  0
LINE
  5
21A
330
1F
100
AcDbEntity
  8
0
  6
Continuous
 62
     7
370
     0
100
AcDbLine
 10
262.354075785
 20
122.5985924755
 30
0.0
 11
276.7083434431
 21
130.8851348105
 31
0.0
  0
LINE
  5
21B
330
1F
100
AcDbEntity
  8
0
  6
Continuous
 62
     7
370
     0
100
AcDbLine
 10
276.7083434431
 20
130.8851348105
 30
0.0
 11
278.9852272785
 21
132.1999791648
 31
0.0
  0
LWPOLYLINE
  5
21C
330
1F
100
AcDbEntity
  8
0
  6
Continuous
 62
     7
370
     0
100
AcDbPolyline
 90
       11
 70
   128
 43
0.0
 10
240.5248995716
 20
183.3377141221
 10
240.7285839641
 20
183.6211050938
 10
241.155014485
 20
183.949953856
 10
241.7246589712
 20
184.1961269558
 10
242.3913682141
 20
184.3396809128
 10
243.101129396
 20
184.3689858391
 10
243.796441887
 20
184.2816676239
 10
244.4209756043
 20
184.0848002697
 10
244.9241345403
 20
183.7943327987
 10
245.2651557505
 20
183.4337971579
 10
245.3206633045
 20
183.3377141221
  0
LWPOLYLINE
  5
21D
330
1F
100
AcDbEntity
  8
0
  6
Continuous
 62
     7
370
     0
100
AcDbPolyline
 90
       17
 70
   128
 43
0.0
 10
243.7713095754
 20
183.0927253386
 10
243.858018676
 20
183.1676395837
 10
243.888466863
 20
183.2560069609
 10
243.858018676
 20
183.3443743382
 10
243.7713095754
 20
183.4192885833
 10
243.6415402359
 20
183.4693446815
 10
243.488466863
 20
183.4869220458
 10
243.33539349
 20
183.4693446815
 10
243.2056241505
 20
183.4192885833
 10
243.11891505
 20
183.3443743382
 10
243.088466863
 20
183.2560069609
 10
243.11891505
 20
183.1676395837
 10
243.2056241505
 20
183.0927253386
 10
243.33539349
 20
183.0426692403
 10
243.488466863
 20
183.0250918761
 10
243.6415402359
 20
183.0426692403
 10
243.7713095754
 20
183.0927253386
  0
LINE
  5
21E
330
1F
100
AcDbEntity
  8
0
  6
Continuous
 62
     7
370
     0
100
AcDbLine
 10
205.6582540695
 20
195.6655097857
 30
0.0
 11
220.0125217276
 21
203.9520521207
 31
0.0
  0
LINE
  5
21F
330
1F
100
AcDbEntity
  8
0
  6
Continuous
 62
     7
370
     0
100
AcDbLine
 10
242.1449352452
 20
191.1752817582
 30
0.0
 11
220.0125217276
 21
203.9520521207
 31
0.0
  0
LINE
  5
220
330
1F
100
AcDbEntity
  8
0
  6
Continuous
 62
     7
370
     0
100
AcDbLine
 10
246.1224821801
 20
149.3814715926
 30
0.0
 11
245.0441017816
 21
148.7589358396
 31
0.0
  0
LINE
  5
221
330
1F
100
AcDbEntity
  8
0
  6
Continuous
 62
     7
370
     0
100
AcDbLine
 10
223.0887287271
 20
170.3337977678
 30
0.0
 11
221.2888855482
 21
169.2947704169
 31
0.0
  0
LINE
  5
222
330
1F
100
AcDbEntity
  8
0
  6
Continuous
 62
     7
370
     0
100
AcDbLine
 10
223.0887752813
 20
170.3337708926
 30
0.0
 11
221.0024712212
 21
169.1293731951
 31
0.0
  0
LINE
  5
223
330
1F
100
AcDbEntity
  8
0
  6
Continuous
 62
     7
370
     0
100
AcDbLine
 10
230.6001213465
 20
165.9975631079
 30
0.0
 11
223.4941647798
 21
161.8953816993
 31
0.0
  0
LINE
  5
224
330
1F
100
AcDbEntity
  8
0
  6
Continuous
 62
     7
370
     0
100
AcDbLine
 10
225.2203852735
 20
169.1032186371
 30
0.0
 11
221.0024712212
 21
166.6682686842
 31
0.0
  0
ARC
  5
225
330
1F
100
AcDbEntity
  8
0
  6
Continuous
 62
     7
370
     0
100
AcDbCircle
 10
219.7196016727
 20
203.5431707916
 30
0.0
 40
0.5029772359018011
100
AcDbArc
 50
54.3824225248
 51
114.3071190461
  0
LINE
  5
226
330
1F
100
AcDbEntity
  8
0
  6
Continuous
 62
     7
370
     0
100
AcDbLine
 10
232.2467218236
 20
165.0470008858
 30
0.0
 11
224.5380051272
 21
160.596853461
 31
0.0
  0
LINE
  5
227
330
1F
100
AcDbEntity
  8
0
  6
Continuous
 62
     7
370
     0
100
AcDbLine
 10
238.8922727852
 20
159.0032519722
 30
0.0
 11
224.5380051272
 21
150.7167096372
 31
0.0
  0
LINE
  5
228
330
1F
100
AcDbEntity
  8
0
  6
Continuous
 62
     7
370
     0
100
AcDbLine
 10
238.8922727852
 20
161.2106059756
 30
0.0
 11
238.8922727852
 21
159.0032519722
 31
0.0
  0
LWPOLYLINE
  5
229
330
1F
100
AcDbEntity
  8
0
  6
Continuous
 62
     7
370
     0
100
AcDbPolyline
 90
       14
 70
   128
 43
0.0
 10
210.4663682328
 20
178.5600104669
 10
210.1660597995
 20
178.593122344
 10
209.8556587803
 20
178.4715464683
 10
209.6530589038
 20
178.1832831841
 10
209.5826967051
 20
177.7631012977
 10
209.6530589038
 20
177.2616809459
 10
209.8556587803
 20
176.7395008232
 10
210.1660597995
 20
176.2595435591
 10
210.5468230175
 20
175.879699083
 10
210.9520227706
 20
175.6457822446
 10
211.3327859885
 20
175.5860068669
 10
211.6431870077
 20
175.7075827426
 10
211.8457868843
 20
175.9958460268
 10
211.8812470346
 20
176.1091029348
  0
ARC
  5
22A
330
1F
100
AcDbEntity
  8
0
  6
Continuous
 62
     7
370
     0
100
AcDbCircle
 10
235.9852475458
 20
158.5344995178
 30
0.0
 40
1.835099794819564
100
AcDbArc
 50
303.6992225128
 51
355.1929156148
  0
LINE
  5
22B
330
1F
100
AcDbEntity
  8
0
  6
Continuous
 62
     7
370
     0
100
AcDbLine
 10
235.3567388793
 20
154.7569080002
 30
0.0
 11
221.0024712212
 21
146.4703656652
 31
0.0
  0
LINE
  5
22C
330
1F
100
AcDbEntity
  8
0
  6
Continuous
 62
     7
370
     0
100
AcDbLine
 10
235.3567388793
 20
156.0571570908
 30
0.0
 11
235.3567388793
 21
154.7569080002
 31
0.0
  0
LINE
  5
22D
330
1F
100
AcDbEntity
  8
0
  6
Continuous
 62
     7
370
     0
100
AcDbLine
 10
276.7224855787
 20
130.8361436888
 30
0.0
 11
278.4902525317
 21
131.8569855788
 31
0.0
  0
LINE
  5
22E
330
1F
100
AcDbEntity
  8
0
  6
Continuous
 62
     7
370
     0
100
AcDbLine
 10
276.6729823573
 20
130.8647212902
 30
0.0
 11
276.7224855787
 21
130.8361436888
 31
0.0
  0
LINE
  5
22F
330
1F
100
AcDbEntity
  8
0
  6
Continuous
 62
     7
370
     0
100
AcDbLine
 10
238.8922727852
 20
161.2106059756
 30
0.0
 11
238.8922727852
 21
159.0032519722
 31
0.0
  0
ARC
  5
230
330
1F
100
AcDbEntity
  8
0
  6
Continuous
 62
     7
370
     0
100
AcDbCircle
 10
235.9852475458
 20
158.5344995178
 30
0.0
 40
1.835099794819564
100
AcDbArc
 50
303.6992225128
 51
355.1929156148
  0
LINE
  5
231
330
1F
100
AcDbEntity
  8
0
  6
Continuous
 62
     7
370
     0
100
AcDbLine
 10
235.3567388793
 20
156.0571570908
 30
0.0
 11
235.3567388793
 21
154.7160809596
 31
0.0
  0
LINE
  5
232
330
1F
100
AcDbEntity
  8
0
  6
Continuous
 62
     7
370
     0
100
AcDbLine
 10
235.3213777936
 20
154.7364944799
 30
0.0
 11
235.3567388793
 21
154.7160809596
 31
0.0
  0
LINE
  5
233
330
1F
100
AcDbEntity
  8
0
  6
Continuous
 62
     7
370
     0
100
AcDbLine
 10
208.8402345848
 20
198.8476237159
 30
0.0
 11
209.7124748979
 21
198.3440901012
 31
0.0
  0
LINE
  5
234
330
1F
100
AcDbEntity
  8
0
  6
Continuous
 62
     7
370
     0
100
AcDbLine
 10
208.8402345848
 20
202.9303277753
 30
0.0
 11
208.8402345848
 21
198.8476237159
 31
0.0
  0
LINE
  5
235
330
1F
100
AcDbEntity
  8
0
  6
Continuous
 62
     7
370
     0
100
AcDbLine
 10
206.7189142413
 20
206.6045623787
 30
0.0
 11
208.8402345848
 21
202.9303277753
 31
0.0
  0
LINE
  5
236
330
1F
100
AcDbEntity
  8
0
  6
Continuous
 62
     7
370
     0
100
AcDbLine
 10
206.7189142413
 20
211.0955368441
 30
0.0
 11
206.7189142413
 21
206.6045623787
 31
0.0
  0
LINE
  5
237
330
1F
100
AcDbEntity
  8
0
  6
Continuous
 62
     7
370
     0
100
AcDbLine
 10
207.779574413
 20
211.708041978
 30
0.0
 11
206.7189142413
 21
211.0955368441
 31
0.0
  0
LINE
  5
238
330
1F
100
AcDbEntity
  8
0
  6
Continuous
 62
     7
370
     0
100
AcDbLine
 10
220.5074964744
 20
204.3603689716
 30
0.0
 11
207.779574413
 21
211.708041978
 31
0.0
  0
LINE
  5
239
330
1F
100
AcDbEntity
  8
0
  6
Continuous
 62
     7
370
     0
100
AcDbLine
 10
220.861049865
 20
203.7479965377
 30
0.0
 11
220.5074964744
 21
204.3603689716
 31
0.0
  0
LINE
  5
23A
330
1F
100
AcDbEntity
  8
0
  6
Continuous
 62
     7
370
     0
100
AcDbLine
 10
242.0742533006
 20
191.5018748604
 30
0.0
 11
220.861049865
 21
203.7479965377
 31
0.0
  0
LINE
  5
23B
330
1F
100
AcDbEntity
  8
0
  6
Continuous
 62
     7
370
     0
100
AcDbLine
 10
242.4278066912
 20
191.7060432384
 30
0.0
 11
242.0742533006
 21
191.5018748604
 31
0.0
  0
LINE
  5
23C
330
1F
100
AcDbEntity
  8
0
  6
Continuous
 62
     7
370
     0
100
AcDbLine
 10
255.8628355337
 20
183.9501661761
 30
0.0
 11
242.4278066912
 21
191.7060432384
 31
0.0
  0
LINE
  5
23D
330
1F
100
AcDbEntity
  8
0
  6
Continuous
 62
     7
370
     0
100
AcDbLine
 10
256.2163889243
 20
183.3377937422
 30
0.0
 11
255.8628355337
 21
183.9501661761
 31
0.0
  0
LINE
  5
23E
330
1F
100
AcDbEntity
  8
0
  6
Continuous
 62
     7
370
     0
100
AcDbLine
 10
277.4295923599
 20
171.0916720648
 30
0.0
 11
256.2163889243
 21
183.3377937422
 31
0.0
  0
LINE
  5
23F
330
1F
100
AcDbEntity
  8
0
  6
Continuous
 62
     7
370
     0
100
AcDbLine
 10
277.7831457505
 20
171.2958404428
 30
0.0
 11
277.4295923599
 21
171.0916720648
 31
0.0
  0
LINE
  5
240
330
1F
100
AcDbEntity
  8
0
  6
Continuous
 62
     7
370
     0
100
AcDbLine
 10
290.5110678119
 20
163.9481674364
 30
0.0
 11
277.7831457505
 21
171.2958404428
 31
0.0
  0
LINE
  5
241
330
1F
100
AcDbEntity
  8
0
  6
Continuous
 62
     7
370
     0
100
AcDbLine
 10
291.5717279836
 20
162.1110501347
 30
0.0
 11
290.5110678119
 21
163.9481674364
 31
0.0
  0
LINE
  5
242
330
1F
100
AcDbEntity
  8
0
  6
Continuous
 62
     7
370
     0
100
AcDbLine
 10
291.5717279836
 20
151.0877491743
 30
0.0
 11
291.5717279836
 21
162.1110501347
 31
0.0
  0
LINE
  5
243
330
1F
100
AcDbEntity
  8
0
  6
Continuous
 62
     7
370
     0
100
AcDbLine
 10
278.9852272785
 20
158.3537813695
 30
0.0
 11
291.5717279836
 21
151.0877491743
 31
0.0
  0
LINE
  5
244
330
1F
100
AcDbEntity
  8
0
  6
Continuous
 62
     7
370
     0
100
AcDbLine
 10
278.4902525317
 20
131.9141434356
 30
0.0
 11
278.4902525317
 21
131.8569855788
 31
0.0
  0
LINE
  5
245
330
1F
100
AcDbEntity
  8
0
  6
Continuous
 62
     7
370
     0
100
AcDbLine
 10
291.5717279836
 20
162.1110501347
 30
0.0
 11
360.1610857587
 21
201.7068435581
 31
0.0
  0
LINE
  5
246
330
1F
100
AcDbEntity
  8
0
  6
Continuous
 62
     7
370
     0
100
AcDbLine
 10
290.5110678119
 20
163.9481674364
 30
0.0
 11
359.100425587
 21
203.5439608598
 31
0.0
  0
LINE
  5
247
330
1F
100
AcDbEntity
  8
0
  6
Continuous
 62
     7
370
     0
100
AcDbLine
 10
360.1610857587
 20
201.7068435581
 30
0.0
 11
359.100425587
 21
203.5439608598
 31
0.0
  0
LINE
  5
248
330
1F
100
AcDbEntity
  8
0
  6
Continuous
 62
     7
370
     0
100
AcDbLine
 10
303.5925432638
 20
146.3506845148
 30
0.0
 11
303.5925432638
 21
158.0272181248
 31
0.0
  0
LINE
  5
249
330
1F
100
AcDbEntity
  8
0
  6
Continuous
 62
     7
370
     0
100
AcDbLine
 10
291.5717279836
 20
151.0877491743
 30
0.0
 11
303.5925432638
 21
158.0272181248
 31
0.0
  0
LINE
  5
24A
330
1F
100
AcDbEntity
  8
0
  6
Continuous
 62
     7
370
     0
100
AcDbLine
 10
360.1610857587
 20
190.6835425977
 30
0.0
 11
360.1610857587
 21
201.7068435581
 31
0.0
  0
LINE
  5
24B
330
1F
100
AcDbEntity
  8
0
  6
Continuous
 62
     7
370
     0
100
AcDbLine
 10
348.1402704786
 20
183.7440736472
 30
0.0
 11
360.1610857587
 21
190.6835425977
 31
0.0
  0
LINE
  5
24C
330
1F
100
AcDbEntity
  8
0
  6
Continuous
 62
     7
370
     0
100
AcDbLine
 10
348.1402704786
 20
172.0675400372
 30
0.0
 11
348.1402704786
 21
183.7440736472
 31
0.0
  0
LINE
  5
24D
330
1F
100
AcDbEntity
  8
0
  6
Continuous
 62
     7
370
     0
100
AcDbLine
 10
303.5925432638
 20
146.3506845148
 30
0.0
 11
348.1402704786
 21
172.0675400372
 31
0.0
  0
LINE
  5
24E
330
1F
100
AcDbEntity
  8
0
  6
Continuous
 62
     7
370
     0
100
AcDbLine
 10
277.7831457505
 20
171.2958404428
 30
0.0
 11
346.3725035256
 21
210.8916338662
 31
0.0
  0
LINE
  5
24F
330
1F
100
AcDbEntity
  8
0
  6
Continuous
 62
     7
370
     0
100
AcDbLine
 10
359.100425587
 20
203.5439608598
 30
0.0
 11
346.3725035256
 21
210.8916338662
 31
0.0
  0
LWPOLYLINE
  5
250
330
1F
100
AcDbEntity
  8
0
  6
Continuous
 62
     7
370
     0
100
AcDbPolyline
 90
       36
 70
   128
 43
0.0
 10
351.392961672
 20
201.0539161188
 10
350.5534657151
 20
200.6493175053
 10
349.6023171871
 20
200.3377551109
 10
348.5700867842
 20
200.1292428074
 10
347.489951241
 20
200.0304823518
 10
346.3966270026
 20
200.0446479863
 10
345.3252544095
 20
200.1712844158
 10
344.3102682584
 20
200.4063214412
 10
343.3842910394
 20
200.7422047792
 10
342.5770844221
 20
201.168138863
 10
341.9145926915
 20
201.6704338205
 10
341.4181088768
 20
202.2329454787
 10
341.1035903764
 20
202.8375942499
 10
340.9811460736
 20
203.4649462251
 10
341.0547114292
 20
204.0948377957
 10
341.3219219919
 20
204.7070237284
 10
341.7741893945
 20
205.2818278634
 10
342.3969773906
 20
205.8007755231
 10
343.1702690615
 20
206.2471873025
 10
344.0692101766
 20
206.6067151599
 10
345.0649080289
 20
206.867803574
 10
346.12536007
 20
207.0220609484
 10
347.216482499
 20
207.0645293242
 10
348.3032057431
 20
206.9938437328
 10
349.350601623
 20
206.8122760673
 10
350.3250059735
 20
206.5256620618
 10
351.195100637
 20
206.1432137264
 10
351.932920055
 20
205.6772232651
 10
352.5147501043
 20
205.1426679949
 10
352.9218902886
 20
204.556728962
 10
353.1412547871
 20
203.9382387289
 10
353.1657930446
 20
203.3070760807
 10
352.9947163811
 20
202.6835271042
 10
352.6335233414
 20
202.0876331766
 10
352.093822967
 20
201.538546819
 10
351.392961672
 20
201.0539161188
  0
LWPOLYLINE
  5
251
330
1F
100
AcDbEntity
  8
0
  6
Continuous
 62
     7
370
     0
100
AcDbPolyline
 90
       36
 70
   128
 43
0.0
 10
294.8244191771
 20
168.3975916458
 10
293.9849232202
 20
167.9929930324
 10
293.0337746922
 20
167.681430638
 10
292.0015442893
 20
167.4729183345
 10
290.9214087461
 20
167.3741578789
 10
289.8280845076
 20
167.3883235134
 10
288.7567119145
 20
167.5149599429
 10
287.7417257635
 20
167.7499969683
 10
286.8157485444
 20
168.0858803063
 10
286.0085419272
 20
168.5118143901
 10
285.3460501966
 20
169.0141093476
 10
284.8495663819
 20
169.5766210058
 10
284.5350478815
 20
170.181269777
 10
284.4126035787
 20
170.8086217522
 10
284.4861689342
 20
171.4385133228
 10
284.753379497
 20
172.0506992555
 10
285.2056468996
 20
172.6255033905
 10
285.8284348957
 20
173.1444510502
 10
286.6017265666
 20
173.5908628296
 10
287.5006676817
 20
173.950390687
 10
288.4963655339
 20
174.2114791011
 10
289.5568175751
 20
174.3657364755
 10
290.6479400041
 20
174.4082048513
 10
291.7346632481
 20
174.3375192599
 10
292.7820591281
 20
174.1559515944
 10
293.7564634786
 20
173.8693375889
 10
294.6265581421
 20
173.4868892535
 10
295.36437756
 20
173.0208987922
 10
295.9462076094
 20
172.486343522
 10
296.3533477936
 20
171.9004044891
 10
296.5727122922
 20
171.281914256
 10
296.5972505496
 20
170.6507516078
 10
296.4261738862
 20
170.0272026313
 10
296.0649808465
 20
169.4313087037
 10
295.5252804721
 20
168.8822223461
 10
294.8244191771
 20
168.3975916458
  0
LWPOLYLINE
  5
252
330
1F
100
AcDbEntity
  8
0
  6
Continuous
 62
     7
370
     0
100
AcDbPolyline
 90
       17
 70
   128
 43
0.0
 10
294.188023074
 20
172.2754107469
 10
293.4000330236
 20
172.648735045
 10
292.5010216602
 20
172.9261400244
 10
291.5255374863
 20
173.0969651672
 10
290.5110678119
 20
173.1546457591
 10
289.4965981374
 20
173.0969651672
 10
288.5211139636
 20
172.9261400244
 10
287.6221026002
 20
172.648735045
 10
286.8341125497
 20
172.2754107469
 10
286.1874258279
 20
171.8205137736
 10
285.7068942428
 20
171.3015255604
 10
285.4109843538
 20
170.7383905336
 10
285.3110678119
 20
170.1527496562
 10
285.4109843538
 20
169.5671087788
 10
285.7068942428
 20
169.003973752
 10
286.1874258279
 20
168.4849855388
 10
286.54070186
 20
168.2142149224
  0
LWPOLYLINE
  5
253
330
1F
100
AcDbEntity
  8
0
  6
Continuous
 62
     7
370
     0
100
AcDbPolyline
 90
        9
 70
   128
 43
0.0
 10
294.4814337637
 20
168.2142149224
 10
294.8347097958
 20
168.4849855388
 10
295.3152413809
 20
169.003973752
 10
295.61115127
 20
169.5671087788
 10
295.7110678119
 20
170.1527496562
 10
295.61115127
 20
170.7383905336
 10
295.3152413809
 20
171.3015255604
 10
294.8347097958
 20
171.8205137736
 10
294.188023074
 20
172.2754107469
  0
LINE
  5
254
330
1F
100
AcDbEntity
  8
0
  6
Continuous
 62
     7
370
     0
100
AcDbLine
 10
256.2163889243
 20
183.3377937422
 30
0.0
 11
324.8057466994
 21
222.9335871656
 31
0.0
  0
LINE
  5
255
330
1F
100
AcDbEntity
  8
0
  6
Continuous
 62
     7
370
     0
100
AcDbLine
 10
346.018892668
 20
210.6874986632
 30
0.0
 11
324.8057466994
 21
222.9335871656
 31
0.0
  0
LINE
  5
256
330
1F
100
AcDbEntity
  8
0
  6
Continuous
 62
     7
370
     0
100
AcDbLine
 10
276.7224855787
 20
130.8361436888
 30
0.0
 11
345.3118433538
 21
170.4319371122
 31
0.0
  0
LINE
  5
257
330
1F
100
AcDbEntity
  8
0
  6
Continuous
 62
     7
370
     0
100
AcDbLine
 10
284.5006601718
 20
135.326720054
 30
0.0
 11
278.4902525317
 21
131.8569855788
 31
0.0
  0
ELLIPSE
  5
258
330
1F
100
AcDbEntity
  8
0
  6
Continuous
 62
     7
370
     0
100
AcDbEllipse
 10
290.5110678119
 20
138.7975824798
 30
0.0
 11
8.499999991340362
 21
4.907743161607272
 31
0.0
210
0.0
220
0.0
230
1.0
 40
0.0000703729
 41
3.926950184923812
 42
5.497746511935365
  0
LINE
  5
259
330
1F
100
AcDbEntity
  8
0
  6
Continuous
 62
     7
370
     0
100
AcDbLine
 10
303.5925432638
 20
146.3506845148
 30
0.0
 11
296.521475452
 21
142.267316955
 31
0.0
  0
LINE
  5
25A
330
1F
100
AcDbEntity
  8
0
  6
Continuous
 62
     7
370
     0
100
AcDbLine
 10
341.0692026667
 20
167.9841724775
 30
0.0
 11
348.1402704786
 21
172.0675400372
 31
0.0
  0
ELLIPSE
  5
25B
330
1F
100
AcDbEntity
  8
0
  6
Continuous
 62
     7
370
     0
100
AcDbEllipse
 10
347.0796103068
 20
171.4539069527
 30
0.0
 11
8.499999991340417
 21
4.907743161607242
 31
0.0
210
0.0
220
0.0
230
1.0
 40
0.0000703729
 41
2.356153858303915
 42
3.926950184969504
  0
LINE
  5
25C
330
1F
100
AcDbEntity
  8
0
  6
Continuous
 62
     7
370
     0
100
AcDbLine
 10
347.0796103068
 20
171.4527790022
 30
0.0
 11
341.0692026667
 21
167.9830445269
 31
0.0
  0
LINE
  5
25D
330
1F
100
AcDbEntity
  8
0
  6
Continuous
 62
     7
370
     0
100
AcDbLine
 10
345.3118433538
 20
170.4319371122
 30
0.0
 11
347.0796103068
 21
171.4527790022
 31
0.0
  0
LINE
  5
25E
330
1F
100
AcDbEntity
  8
0
  6
Continuous
 62
     7
370
     0
100
AcDbLine
 10
255.8628355337
 20
183.9501661761
 30
0.0
 11
324.4521933088
 21
223.5459595995
 31
0.0
  0
LINE
  5
25F
330
1F
100
AcDbEntity
  8
0
  6
Continuous
 62
     7
370
     0
100
AcDbLine
 10
324.8057466994
 20
222.9335871656
 30
0.0
 11
324.4521933088
 21
223.5459595995
 31
0.0
  0
LINE
  5
260
330
1F
100
AcDbEntity
  8
0
  6
Continuous
 62
     7
370
     0
100
AcDbLine
 10
242.4278066912
 20
191.7060432384
 30
0.0
 11
311.0171644663
 21
231.3018366618
 31
0.0
  0
LINE
  5
261
330
1F
100
AcDbEntity
  8
0
  6
Continuous
 62
     7
370
     0
100
AcDbLine
 10
324.4521933088
 20
223.5459595995
 30
0.0
 11
311.0171644663
 21
231.3018366618
 31
0.0
  0
LWPOLYLINE
  5
262
330
1F
100
AcDbEntity
  8
0
  6
Continuous
 62
     7
370
     0
100
AcDbPolyline
 90
       36
 70
   128
 43
0.0
 10
266.5401479296
 20
197.8699244826
 10
267.2410092246
 20
197.3852937824
 10
267.780709599
 20
196.8362074248
 10
268.1419026387
 20
196.2403134972
 10
268.3129793022
 20
195.6167645207
 10
268.2884410447
 20
194.9856018725
 10
268.0690765462
 20
194.3671116394
 10
267.6619363619
 20
193.7811726065
 10
267.0801063126
 20
193.2466173363
 10
266.3422868946
 20
192.780626875
 10
265.4721922311
 20
192.3981785396
 10
264.4977878807
 20
192.1115645341
 10
263.4503920007
 20
191.9299968686
 10
262.3636687566
 20
191.8593112772
 10
261.2725463277
 20
191.901779653
 10
260.2120942865
 20
192.0560370274
 10
259.2163964342
 20
192.3171254415
 10
258.3174553191
 20
192.6766532989
 10
257.5441636482
 20
193.1230650783
 10
256.9213756522
 20
193.642012738
 10
256.4691082495
 20
194.216816873
 10
256.2018976868
 20
194.8290028057
 10
256.1283323313
 20
195.4588943763
 10
256.250776634
 20
196.0862463515
 10
256.5652951344
 20
196.6908951227
 10
257.0617789491
 20
197.2534067809
 10
257.7242706797
 20
197.7557017384
 10
258.531477297
 20
198.1816358222
 10
259.457454516
 20
198.5175191602
 10
260.4724406671
 20
198.7525561856
 10
261.5438132602
 20
198.8791926151
 10
262.6371374986
 20
198.8933582496
 10
263.7172730418
 20
198.794597794
 10
264.7495034447
 20
198.5860854905
 10
265.7006519727
 20
198.2745230961
 10
266.5401479296
 20
197.8699244826
  0
LWPOLYLINE
  5
263
330
1F
100
AcDbEntity
  8
0
  6
Continuous
 62
     7
370
     0
100
AcDbPolyline
 90
       36
 70
   128
 43
0.0
 10
308.9665548008
 20
222.3621678373
 10
309.6674160958
 20
221.8775371371
 10
310.2071164702
 20
221.3284507795
 10
310.5683095099
 20
220.7325568518
 10
310.7393861734
 20
220.1090078754
 10
310.7148479159
 20
219.4778452272
 10
310.4954834174
 20
218.8593549941
 10
310.0883432331
 20
218.2734159612
 10
309.5065131838
 20
217.7388606909
 10
308.7686937658
 20
217.2728702297
 10
307.8985991023
 20
216.8904218943
 10
306.9241947518
 20
216.6038078888
 10
305.8767988719
 20
216.4222402233
 10
304.7900756278
 20
216.3515546319
 10
303.6989531989
 20
216.3940230077
 10
302.6385011577
 20
216.5482803821
 10
301.6428033054
 20
216.8093687962
 10
300.7438621903
 20
217.1688966535
 10
299.9705705194
 20
217.615308433
 10
299.3477825234
 20
218.1342560926
 10
298.8955151207
 20
218.7090602277
 10
298.628304558
 20
219.3212461603
 10
298.5547392025
 20
219.951137731
 10
298.6771835052
 20
220.5784897062
 10
298.9917020056
 20
221.1831384774
 10
299.4881858203
 20
221.7456501355
 10
300.1506775509
 20
222.2479450931
 10
300.9578841682
 20
222.6738791768
 10
301.8838613872
 20
223.0097625149
 10
302.8988475383
 20
223.2447995403
 10
303.9702201314
 20
223.3714359698
 10
305.0635443698
 20
223.3856016043
 10
306.143679913
 20
223.2868411486
 10
307.1759103159
 20
223.0783288451
 10
308.1270588439
 20
222.7667664508
 10
308.9665548008
 20
222.3621678373
  0
LWPOLYLINE
  5
264
330
1F
100
AcDbEntity
  8
0
  6
Continuous
 62
     7
370
     0
100
AcDbPolyline
 90
       17
 70
   128
 43
0.0
 10
265.9037518266
 20
196.7676541016
 10
265.1157617761
 20
197.1409783997
 10
264.2167504127
 20
197.418383379
 10
263.2412662389
 20
197.5892085219
 10
262.2267965644
 20
197.6468891137
 10
261.2123268899
 20
197.5892085219
 10
260.2368427161
 20
197.418383379
 10
259.3378313527
 20
197.1409783997
 10
258.5498413022
 20
196.7676541016
 10
257.9031545804
 20
196.3127571283
 10
257.4226229953
 20
195.7937689151
 10
257.1267131063
 20
195.2306338883
 10
257.0267965644
 20
194.6449930109
 10
257.1267131063
 20
194.0593521335
 10
257.4226229953
 20
193.4962171067
 10
257.9031545804
 20
192.9772288935
 10
258.2564306125
 20
192.7064582771
  0
LWPOLYLINE
  5
265
330
1F
100
AcDbEntity
  8
0
  6
Continuous
 62
     7
370
     0
100
AcDbPolyline
 90
        9
 70
   128
 43
0.0
 10
266.1971625163
 20
192.7064582771
 10
266.5504385484
 20
192.9772288935
 10
267.0309701335
 20
193.4962171067
 10
267.3268800225
 20
194.0593521335
 10
267.4267965644
 20
194.6449930109
 10
267.3268800225
 20
195.2306338883
 10
267.0309701335
 20
195.7937689151
 10
266.5504385484
 20
196.3127571283
 10
265.9037518266
 20
196.7676541016
  0
LINE
  5
266
330
1F
100
AcDbEntity
  8
0
  6
Continuous
 62
     7
370
     0
100
AcDbLine
 10
220.861049865
 20
203.7479965377
 30
0.0
 11
289.4504076401
 21
243.3437899611
 31
0.0
  0
LINE
  5
267
330
1F
100
AcDbEntity
  8
0
  6
Continuous
 62
     7
370
     0
100
AcDbLine
 10
310.6635536086
 20
231.0977014588
 30
0.0
 11
289.4504076401
 21
243.3437899611
 31
0.0
  0
LWPOLYLINE
  5
268
330
1F
100
AcDbEntity
  8
0
  6
Continuous
 62
     7
370
     0
100
AcDbPolyline
 90
       17
 70
   128
 43
0.0
 10
350.756565569
 20
204.9317352199
 10
349.9685755185
 20
205.3050595179
 10
349.0695641551
 20
205.5824644973
 10
348.0940799813
 20
205.7532896401
 10
347.0796103068
 20
205.810970232
 10
346.0651406323
 20
205.7532896401
 10
345.0896564585
 20
205.5824644973
 10
344.1906450951
 20
205.3050595179
 10
343.4026550446
 20
204.9317352199
 10
342.7559683228
 20
204.4768382465
 10
342.2754367377
 20
203.9578500334
 10
341.9795268487
 20
203.3947150065
 10
341.8796103068
 20
202.8090741291
 10
341.9795268487
 20
202.2234332518
 10
342.2754367377
 20
201.6602982249
 10
342.7559683228
 20
201.1413100118
 10
343.1092443553
 20
200.8705393951
  0
LWPOLYLINE
  5
269
330
1F
100
AcDbEntity
  8
0
  6
Continuous
 62
     7
370
     0
100
AcDbPolyline
 90
        9
 70
   128
 43
0.0
 10
351.0499762582
 20
200.870539395
 10
351.4032522908
 20
201.1413100118
 10
351.8837838758
 20
201.6602982249
 10
352.1796937649
 20
202.2234332518
 10
352.2796103068
 20
202.8090741291
 10
352.1796937649
 20
203.3947150065
 10
351.8837838758
 20
203.9578500334
 10
351.4032522908
 20
204.4768382465
 10
350.756565569
 20
204.9317352199
  0
LINE
  5
26A
330
1F
100
AcDbEntity
  8
0
  6
Continuous
 62
     7
370
     0
100
AcDbLine
 10
220.5074964744
 20
204.3603689716
 30
0.0
 11
289.0968542495
 21
243.956162395
 31
0.0
  0
LINE
  5
26B
330
1F
100
AcDbEntity
  8
0
  6
Continuous
 62
     7
370
     0
100
AcDbLine
 10
289.4504076401
 20
243.3437899611
 30
0.0
 11
289.0968542495
 21
243.956162395
 31
0.0
  0
LINE
  5
26C
330
1F
100
AcDbEntity
  8
0
  6
Continuous
 62
     7
370
     0
100
AcDbLine
 10
207.779574413
 20
211.708041978
 30
0.0
 11
276.3689321881
 21
251.3038354014
 31
0.0
  0
LWPOLYLINE
  5
26D
330
1F
100
AcDbEntity
  8
0
  6
Continuous
 62
     7
370
     0
100
AcDbPolyline
 90
       36
 70
   128
 43
0.0
 10
280.6822835534
 20
241.8743217099
 10
279.8427875965
 20
241.4697230964
 10
278.8916390684
 20
241.1581607021
 10
277.8594086656
 20
240.9496483986
 10
276.7792731224
 20
240.8508879429
 10
275.6859488839
 20
240.8650535774
 10
274.6145762908
 20
240.9916900069
 10
273.5995901397
 20
241.2267270324
 10
272.6736129207
 20
241.5626103704
 10
271.8664063035
 20
241.9885444541
 10
271.2039145728
 20
242.4908394117
 10
270.7074307582
 20
243.0533510698
 10
270.3929122578
 20
243.657999841
 10
270.270467955
 20
244.2853518163
 10
270.3440333105
 20
244.9152433869
 10
270.6112438733
 20
245.5274293195
 10
271.0635112759
 20
246.1022334546
 10
271.686299272
 20
246.6211811142
 10
272.4595909428
 20
247.0675928937
 10
273.3585320579
 20
247.427120751
 10
274.3542299102
 20
247.6882091651
 10
275.4146819514
 20
247.8424665396
 10
276.5058043803
 20
247.8849349153
 10
277.5925276244
 20
247.8142493239
 10
278.6399235044
 20
247.6326816584
 10
279.6143278549
 20
247.346067653
 10
280.4844225183
 20
246.9636193175
 10
281.2222419363
 20
246.4976288563
 10
281.8040719857
 20
245.9630735861
 10
282.2112121699
 20
245.3771345531
 10
282.4305766685
 20
244.75864432
 10
282.4551149259
 20
244.1274816718
 10
282.2840382624
 20
243.5039326954
 10
281.9228452228
 20
242.9080387678
 10
281.3831448484
 20
242.3589524102
 10
280.6822835534
 20
241.8743217099
  0
LWPOLYLINE
  5
26E
330
1F
100
AcDbEntity
  8
0
  6
Continuous
 62
     7
370
     0
100
AcDbPolyline
 90
       36
 70
   128
 43
0.0
 10
224.1137410584
 20
209.217997237
 10
223.2742451015
 20
208.8133986235
 10
222.3230965735
 20
208.5018362292
 10
221.2908661707
 20
208.2933239257
 10
220.2107306274
 20
208.19456347
 10
219.117406389
 20
208.2087291045
 10
218.0460337959
 20
208.335365534
 10
217.0310476448
 20
208.5704025594
 10
216.1050704258
 20
208.9062858975
 10
215.2978638085
 20
209.3322199812
 10
214.6353720779
 20
209.8345149388
 10
214.1388882632
 20
210.3970265969
 10
213.8243697628
 20
211.0016753681
 10
213.7019254601
 20
211.6290273434
 10
213.7754908156
 20
212.258918914
 10
214.0427013783
 20
212.8711048466
 10
214.494968781
 20
213.4459089817
 10
215.117756777
 20
213.9648566413
 10
215.8910484479
 20
214.4112684208
 10
216.789989563
 20
214.7707962781
 10
217.7856874153
 20
215.0318846922
 10
218.8461394565
 20
215.1861420667
 10
219.9372618854
 20
215.2286104424
 10
221.0239851295
 20
215.157924851
 10
222.0713810095
 20
214.9763571855
 10
223.04578536
 20
214.6897431801
 10
223.9158800234
 20
214.3072948446
 10
224.6536994414
 20
213.8413043834
 10
225.2355294908
 20
213.3067491131
 10
225.642669675
 20
212.7208100802
 10
225.8620341736
 20
212.1023198471
 10
225.886572431
 20
211.4711571989
 10
225.7154957675
 20
210.8476082225
 10
225.3543027278
 20
210.2517142949
 10
224.8146023534
 20
209.7026279373
 10
224.1137410584
 20
209.217997237
  0
LINE
  5
26F
330
1F
100
AcDbEntity
  8
0
  6
Continuous
 62
     7
370
     0
100
AcDbLine
 10
289.0968542495
 20
243.956162395
 30
0.0
 11
276.3689321881
 21
251.3038354014
 31
0.0
  0
LINE
  5
270
330
1F
100
AcDbEntity
  8
0
  6
Continuous
 62
     7
370
     0
100
AcDbLine
 10
240.8041045783
 20
160.1069289739
 30
0.0
 11
238.8922727852
 21
159.0032519722
 31
0.0
  0
LWPOLYLINE
  5
271
330
1F
100
AcDbEntity
  8
0
  6
Continuous
 62
     7
370
     0
100
AcDbPolyline
 90
       17
 70
   128
 43
0.0
 10
223.4773449554
 20
213.0958163381
 10
222.6893549049
 20
213.4691406361
 10
221.7903435415
 20
213.7465456155
 10
220.8148593677
 20
213.9173707583
 10
219.8003896932
 20
213.9750513502
 10
218.7859200187
 20
213.9173707583
 10
217.8104358449
 20
213.7465456155
 10
216.9114244815
 20
213.4691406361
 10
216.123434431
 20
213.0958163381
 10
215.4767477092
 20
212.6409193647
 10
214.9962161242
 20
212.1219311516
 10
214.7003062351
 20
211.5587961247
 10
214.6003896932
 20
210.9731552473
 10
214.7003062351
 20
210.38751437
 10
214.9962161242
 20
209.8243793431
 10
215.4767477092
 20
209.30539113
 10
215.8300237419
 20
209.0346205131
  0
LWPOLYLINE
  5
272
330
1F
100
AcDbEntity
  8
0
  6
Continuous
 62
     7
370
     0
100
AcDbPolyline
 90
        9
 70
   128
 43
0.0
 10
223.7707556446
 20
209.0346205132
 10
224.1240316772
 20
209.30539113
 10
224.6045632623
 20
209.8243793431
 10
224.9004731513
 20
210.38751437
 10
225.0003896932
 20
210.9731552473
 10
224.9004731513
 20
211.5587961247
 10
224.6045632623
 20
212.1219311516
 10
224.1240316772
 20
212.6409193647
 10
223.4773449554
 20
213.0958163381
  0
LINE
  5
273
330
1F
100
AcDbEntity
  8
0
  6
Continuous
 62
     7
370
     0
100
AcDbLine
 10
347.0796103068
 20
171.4550349032
 30
0.0
 11
347.0796103068
 21
171.4527790022
 31
0.0
  0
LWPOLYLINE
  5
274
330
1F
100
AcDbEntity
  8
0
  6
Continuous
 62
     7
370
     0
100
AcDbPolyline
 90
       17
 70
   128
 43
0.0
 10
308.3301586978
 20
221.2598974563
 10
307.5421686473
 20
221.6332217544
 10
306.6431572839
 20
221.9106267337
 10
305.6676731101
 20
222.0814518765
 10
304.6532034356
 20
222.1391324684
 10
303.6387337611
 20
222.0814518765
 10
302.6632495873
 20
221.9106267337
 10
301.7642382239
 20
221.6332217544
 10
300.9762481734
 20
221.2598974563
 10
300.3295614516
 20
220.8050004829
 10
299.8490298665
 20
220.2860122698
 10
299.5531199775
 20
219.7228772429
 10
299.4532034356
 20
219.1372363656
 10
299.5531199775
 20
218.5515954882
 10
299.8490298665
 20
217.9884604613
 10
300.3295614516
 20
217.4694722482
 10
300.6828374837
 20
217.1987016318
  0
LWPOLYLINE
  5
275
330
1F
100
AcDbEntity
  8
0
  6
Continuous
 62
     7
370
     0
100
AcDbPolyline
 90
        9
 70
   128
 43
0.0
 10
308.6235693875
 20
217.1987016318
 10
308.9768454196
 20
217.4694722482
 10
309.4573770047
 20
217.9884604613
 10
309.7532868937
 20
218.5515954882
 10
309.8532034356
 20
219.1372363656
 10
309.7532868937
 20
219.7228772429
 10
309.4573770047
 20
220.2860122698
 10
308.9768454196
 20
220.8050004829
 10
308.3301586978
 20
221.2598974563
  0
LINE
  5
276
330
1F
100
AcDbEntity
  8
0
  6
Continuous
 62
     7
370
     0
100
AcDbLine
 10
242.7495389656
 20
158.9838536074
 30
0.0
 11
235.3567388793
 21
154.7160809596
 31
0.0
  0
LWPOLYLINE
  5
277
330
1F
100
AcDbEntity
  8
0
  6
Continuous
 62
     7
370
     0
100
AcDbPolyline
 90
       17
 70
   128
 43
0.0
 10
280.0458874503
 20
245.752140811
 10
279.2578973998
 20
246.1254651091
 10
278.3588860364
 20
246.4028700884
 10
277.3834018626
 20
246.5736952312
 10
276.3689321881
 20
246.6313758231
 10
275.3544625137
 20
246.5736952312
 10
274.3789783398
 20
246.4028700884
 10
273.4799669764
 20
246.1254651091
 10
272.691976926
 20
245.752140811
 10
272.0452902042
 20
245.2972438376
 10
271.5647586191
 20
244.7782556245
 10
271.26884873
 20
244.2151205976
 10
271.1689321881
 20
243.6294797203
 10
271.26884873
 20
243.0438388429
 10
271.5647586191
 20
242.480703816
 10
272.0452902042
 20
241.9617156029
 10
272.3985662363
 20
241.6909449865
  0
LWPOLYLINE
  5
278
330
1F
100
AcDbEntity
  8
0
  6
Continuous
 62
     7
370
     0
100
AcDbPolyline
 90
        9
 70
   128
 43
0.0
 10
280.33929814
 20
241.6909449865
 10
280.6925741721
 20
241.9617156029
 10
281.1731057572
 20
242.480703816
 10
281.4690156462
 20
243.0438388429
 10
281.5689321881
 20
243.6294797203
 10
281.4690156462
 20
244.2151205976
 10
281.1731057572
 20
244.7782556245
 10
280.6925741721
 20
245.2972438376
 10
280.0458874503
 20
245.752140811
  0
LINE
  5
279
330
1F
100
AcDbEntity
  8
0
  6
Continuous
 62
     7
370
     0
100
AcDbLine
 10
361.2217459305
 20
218.198373672
 30
0.0
 11
347.4686167304
 21
210.258861182
 31
0.0
  0
LINE
  5
27A
330
1F
100
AcDbEntity
  8
0
  6
Continuous
 62
     7
370
     0
100
AcDbLine
 10
361.9288527117
 20
216.9736288042
 30
0.0
 11
348.8829452269
 21
209.4423867202
 31
0.0
  0
LINE
  5
27B
330
1F
100
AcDbEntity
  8
0
  6
Continuous
 62
     7
370
     0
100
AcDbLine
 10
302.9561471607
 20
251.8343878791
 30
0.0
 11
289.1499317914
 21
243.864229396
 31
0.0
  0
LINE
  5
27C
330
1F
100
AcDbEntity
  8
0
  6
Continuous
 62
     7
370
     0
100
AcDbLine
 10
296.521475452
 20
142.267316955
 30
0.0
 11
296.521475452
 21
153.9451775656
 31
0.0
  0
LINE
  5
27D
330
1F
100
AcDbEntity
  8
0
  6
Continuous
 62
     7
370
     0
100
AcDbLine
 10
284.5006601718
 20
135.326720054
 30
0.0
 11
284.5006601718
 21
155.1697897334
 31
0.0
  0
LINE
  5
27E
330
1F
100
AcDbEntity
  8
0
  6
Continuous
 62
     7
370
     0
100
AcDbLine
 10
341.0692026667
 20
167.9830445269
 30
0.0
 11
341.0692026667
 21
167.9841724775
 31
0.0
  0
LWPOLYLINE
  5
27F
330
1F
100
AcDbEntity
  8
0
  6
Continuous
 62
     7
370
     0
100
AcDbPolyline
 90
       17
 70
   128
 43
0.0
 10
266.4694372515
 20
186.0709163859
 10
264.5228971586
 20
186.8217578598
 10
262.2267965644
 20
187.085418323
 10
259.9306959702
 20
186.8217578598
 10
257.9841558773
 20
186.0709163859
 10
256.6835193693
 20
184.9472027092
 10
256.2267965644
 20
183.6216920504
 10
256.6835193693
 20
182.2961813917
 10
257.9841558773
 20
181.172467715
 10
259.9306959702
 20
180.421626241
 10
262.2267965644
 20
180.1579657779
 10
264.5228971586
 20
180.421626241
 10
266.4694372515
 20
181.172467715
 10
267.7700737595
 20
182.2961813917
 10
268.2267965644
 20
183.6216920504
 10
267.7700737595
 20
184.9472027092
 10
266.4694372515
 20
186.0709163859
  0
LWPOLYLINE
  5
280
330
1F
100
AcDbEntity
  8
0
  6
Continuous
 62
     7
370
     0
100
AcDbPolyline
 90
       17
 70
   128
 43
0.0
 10
308.8958441227
 20
210.5631597406
 10
306.9493040298
 20
211.3140012145
 10
304.6532034356
 20
211.5776616776
 10
302.3571028414
 20
211.3140012145
 10
300.4105627485
 20
210.5631597406
 10
299.1099262405
 20
209.4394460639
 10
298.6532034356
 20
208.1139354051
 10
299.1099262405
 20
206.7884247464
 10
300.4105627485
 20
205.6647110696
 10
302.3571028414
 20
204.9138695957
 10
304.6532034356
 20
204.6502091326
 10
306.9493040298
 20
204.9138695957
 10
308.8958441227
 20
205.6647110696
 10
310.1964806307
 20
206.7884247464
 10
310.6532034356
 20
208.1139354051
 10
310.1964806307
 20
209.4394460639
 10
308.8958441227
 20
210.5631597406
  0
LWPOLYLINE
  5
281
330
1F
100
AcDbEntity
  8
0
  6
Continuous
 62
     7
370
     0
100
AcDbPolyline
 90
       17
 70
   128
 43
0.0
 10
215.5577490061
 20
208.5239309119
 10
214.2571124981
 20
209.6476445886
 10
213.8003896932
 20
210.9731552473
 10
214.2571124981
 20
212.2986659061
 10
215.5577490061
 20
213.4223795828
 10
217.504289099
 20
214.1732210567
 10
219.8003896932
 20
214.4368815199
 10
222.0964902874
 20
214.1732210567
 10
224.0430303803
 20
213.4223795828
 10
225.3436668883
 20
212.2986659061
 10
225.8003896932
 20
210.9731552473
 10
225.3436668883
 20
209.6476445886
 10
224.0430303803
 20
208.5239309119
 10
222.0964902874
 20
207.7730894379
 10
219.8003896932
 20
207.5094289748
 10
217.504289099
 20
207.7730894379
 10
215.5577490061
 20
208.5239309119
  0
LWPOLYLINE
  5
282
330
1F
100
AcDbEntity
  8
0
  6
Continuous
 62
     7
370
     0
100
AcDbPolyline
 90
       17
 70
   128
 43
0.0
 10
286.2684271247
 20
167.7035253207
 10
284.9677906168
 20
168.8272389975
 10
284.5110678119
 20
170.1527496562
 10
284.9677906168
 20
171.4782603149
 10
286.2684271247
 20
172.6019739917
 10
288.2149672177
 20
173.3528154656
 10
290.5110678119
 20
173.6164759287
 10
292.8071684061
 20
173.3528154656
 10
294.753708499
 20
172.6019739917
 10
296.0543450069
 20
171.4782603149
 10
296.5110678119
 20
170.1527496562
 10
296.0543450069
 20
168.8272389975
 10
294.753708499
 20
167.7035253207
 10
292.8071684061
 20
166.9526838468
 10
290.5110678119
 20
166.6890233837
 10
288.2149672177
 20
166.9526838468
 10
286.2684271247
 20
167.7035253207
  0
LWPOLYLINE
  5
283
330
1F
100
AcDbEntity
  8
0
  6
Continuous
 62
     7
370
     0
100
AcDbPolyline
 90
       17
 70
   128
 43
0.0
 10
342.8369696197
 20
200.3598497936
 10
341.5363331117
 20
201.4835634704
 10
341.0796103068
 20
202.8090741291
 10
341.5363331117
 20
204.1345847879
 10
342.8369696197
 20
205.2582984646
 10
344.7835097126
 20
206.0091399385
 10
347.0796103068
 20
206.2728004016
 10
349.375710901
 20
206.0091399385
 10
351.3222509939
 20
205.2582984646
 10
352.6228875019
 20
204.1345847879
 10
353.0796103068
 20
202.8090741291
 10
352.6228875019
 20
201.4835634704
 10
351.3222509939
 20
200.3598497936
 10
349.375710901
 20
199.6090083197
 10
347.0796103068
 20
199.3453478566
 10
344.7835097126
 20
199.6090083197
 10
342.8369696197
 20
200.3598497936
  0
LWPOLYLINE
  5
284
330
1F
100
AcDbEntity
  8
0
  6
Continuous
 62
     7
370
     0
100
AcDbPolyline
 90
       17
 70
   128
 43
0.0
 10
272.126291501
 20
241.1802553848
 10
270.8256549931
 20
242.3039690615
 10
270.3689321881
 20
243.6294797203
 10
270.8256549931
 20
244.954990379
 10
272.126291501
 20
246.0787040557
 10
274.0728315939
 20
246.8295455296
 10
276.3689321881
 20
247.0932059928
 10
278.6650327823
 20
246.8295455296
 10
280.6115728753
 20
246.0787040557
 10
281.9122093832
 20
244.954990379
 10
282.3689321881
 20
243.6294797203
 10
281.9122093832
 20
242.3039690615
 10
280.6115728753
 20
241.1802553848
 10
278.6650327823
 20
240.4294139109
 10
276.3689321881
 20
240.1657534477
 10
274.0728315939
 20
240.4294139109
 10
272.126291501
 20
241.1802553848
  0
LWPOLYLINE
  5
285
330
1F
100
AcDbEntity
  8
0
  6
Continuous
 62
     7
370
     0
100
AcDbPolyline
 90
       17
 70
   128
 43
0.0
 10
235.4274495574
 20
170.7636889294
 10
234.6156554072
 20
171.4187941221
 10
233.9274495574
 20
172.3470982976
 10
233.4676051101
 20
173.4072755604
 10
233.3061292139
 20
174.4379235328
 10
233.4676051101
 20
175.2821354038
 10
233.9274495574
 20
175.8113875688
 10
234.6156554072
 20
175.9451061834
 10
235.4274495574
 20
175.6629338007
 10
236.2392437077
 20
175.0078286081
 10
236.9274495574
 20
174.0795244326
 10
237.3872940047
 20
173.0193471697
 10
237.548769901
 20
171.9886991973
 10
237.3872940047
 20
171.1444873264
 10
236.9274495574
 20
170.6152351614
 10
236.2392437077
 20
170.4815165467
 10
235.4274495574
 20
170.7636889294
  0
LWPOLYLINE
  5
286
330
1F
100
AcDbEntity
  8
0
  6
Continuous
 62
     7
370
     0
100
AcDbPolyline
 90
       17
 70
   128
 43
0.0
 10
331.4525504426
 20
226.1977997222
 10
332.2643445928
 20
225.9156273395
 10
332.9525504426
 20
226.0493459541
 10
333.4123948899
 20
226.5785981191
 10
333.5738707861
 20
227.4228099901
 10
333.4123948899
 20
228.4534579625
 10
332.9525504426
 20
229.5136352253
 10
332.2643445928
 20
230.4419394009
 10
331.4525504426
 20
231.0970445935
 10
330.6407562923
 20
231.3792169762
 10
329.9525504426
 20
231.2454983616
 10
329.4927059953
 20
230.7162461966
 10
329.331230099
 20
229.8720343256
 10
329.4927059953
 20
228.8413863532
 10
329.9525504426
 20
227.7812090904
 10
330.6407562923
 20
226.8529049148
 10
331.4525504426
 20
226.1977997222
  0
LWPOLYLINE
  5
287
330
1F
100
AcDbEntity
  8
0
  6
Continuous
 62
     7
370
     0
100
AcDbPolyline
 90
       17
 70
   128
 43
0.0
 10
260.1054762208
 20
146.9638398791
 10
259.5642801207
 20
147.4005766741
 10
259.1054762208
 20
148.0194461245
 10
258.798913256
 20
148.7262309664
 10
258.6912626585
 20
149.4133296146
 10
258.798913256
 20
149.9761375286
 10
259.1054762208
 20
150.3289723053
 10
259.5642801207
 20
150.4181180484
 10
260.1054762208
 20
150.2300031266
 10
260.646672321
 20
149.7932663315
 10
261.1054762208
 20
149.1743968811
 10
261.4120391857
 20
148.4676120393
 10
261.5196897832
 20
147.780513391
 10
261.4120391857
 20
147.217705477
 10
261.1054762208
 20
146.8648707003
 10
260.646672321
 20
146.7757249573
 10
260.1054762208
 20
146.9638398791
  0
LWPOLYLINE
  5
288
330
1F
100
AcDbEntity
  8
0
  6
Continuous
 62
     7
370
     0
100
AcDbPolyline
 90
       17
 70
   128
 43
0.0
 10
356.130577106
 20
202.3979506718
 10
356.6717732061
 20
202.20983575
 10
357.130577106
 20
202.2989814931
 10
357.4371400709
 20
202.6518162698
 10
357.5447906684
 20
203.2146241838
 10
357.4371400709
 20
203.901722832
 10
357.130577106
 20
204.6085076739
 10
356.6717732061
 20
205.2273771243
 10
356.130577106
 20
205.6641139194
 10
355.5893810058
 20
205.8522288412
 10
355.130577106
 20
205.7630830981
 10
354.8240141411
 20
205.4102483214
 10
354.7163635436
 20
204.8474404074
 10
354.8240141411
 20
204.1603417592
 10
355.130577106
 20
203.4535569173
 10
355.5893810058
 20
202.8346874669
 10
356.130577106
 20
202.3979506718
  0
LWPOLYLINE
  5
289
330
1F
100
AcDbEntity
  8
0
  6
Continuous
 62
     7
370
     0
100
AcDbPolyline
 90
       17
 70
   128
 43
0.0
 10
210.749422894
 20
175.4564829817
 10
210.2082267939
 20
175.8932197768
 10
209.749422894
 20
176.5120892271
 10
209.4428599291
 20
177.218874069
 10
209.3352093316
 20
177.9059727173
 10
209.4428599291
 20
178.4687806312
 10
209.749422894
 20
178.8216154079
 10
210.2082267939
 20
178.910761151
 10
210.749422894
 20
178.7226462292
 10
211.2906189942
 20
178.2859094341
 10
211.749422894
 20
177.6670399838
 10
212.0559858589
 20
176.9602551419
 10
212.1636364564
 20
176.2731564936
 10
212.0559858589
 20
175.7103485796
 10
211.749422894
 20
175.357513803
 10
211.2906189942
 20
175.2683680599
 10
210.749422894
 20
175.4564829817
  0
LWPOLYLINE
  5
28A
330
1F
100
AcDbEntity
  8
0
  6
Continuous
 62
     7
370
     0
100
AcDbPolyline
 90
       17
 70
   128
 43
0.0
 10
306.7745237792
 20
230.8905937744
 10
307.3157198793
 20
230.7024788526
 10
307.7745237792
 20
230.7916245957
 10
308.081086744
 20
231.1444593724
 10
308.1887373415
 20
231.7072672864
 10
308.081086744
 20
232.3943659346
 10
307.7745237792
 20
233.1011507765
 10
307.3157198793
 20
233.7200202269
 10
306.7745237792
 20
234.156757022
 10
306.233327679
 20
234.3448719438
 10
305.7745237792
 20
234.2557262007
 10
305.4679608143
 20
233.902891424
 10
305.3603102168
 20
233.34008351
 10
305.4679608143
 20
232.6529848618
 10
305.7745237792
 20
231.9462000199
 10
306.233327679
 20
231.3273305695
 10
306.7745237792
 20
230.8905937744
  0
LWPOLYLINE
  5
28B
330
1F
100
AcDbEntity
  8
0
  6
HIDDEN
 62
     7
370
     0
100
AcDbPolyline
 90
       17
 70
   128
 43
0.0
 10
210.1837374691
 20
192.3580815873
 10
210.3452133653
 20
191.5138697163
 10
210.8050578126
 20
190.9846175513
 10
211.4932636624
 20
190.8508989367
 10
212.3050578126
 20
191.1330713194
 10
213.1168519629
 20
191.788176512
 10
213.8050578126
 20
192.7164806876
 10
214.2649022599
 20
193.7766579504
 10
214.4263781562
 20
194.8073059228
 10
214.2649022599
 20
195.6515177938
 10
213.8050578126
 20
196.1807699588
 10
213.1168519629
 20
196.3144885734
 10
212.3050578126
 20
196.0323161907
 10
211.4932636624
 20
195.3772109981
 10
210.8050578126
 20
194.4489068225
 10
210.3452133653
 20
193.3887295597
 10
210.1837374691
 20
192.3580815873
  0
LWPOLYLINE
  5
28C
330
1F
100
AcDbEntity
  8
0
  6
HIDDEN
 62
     7
370
     0
100
AcDbPolyline
 90
       17
 70
   128
 43
0.0
 10
298.2892424049
 20
243.2203069539
 10
298.1277665087
 20
244.0645188249
 10
297.6679220614
 20
244.5937709899
 10
296.9797162116
 20
244.7274896045
 10
296.1679220614
 20
244.4453172218
 10
295.3561279111
 20
243.7902120292
 10
294.6679220614
 20
242.8619078536
 10
294.208077614
 20
241.8017305908
 10
294.0466017178
 20
240.7710826184
 10
294.208077614
 20
239.9268707474
 10
294.6679220614
 20
239.3976185824
 10
295.3561279111
 20
239.2638999678
 10
296.1679220614
 20
239.5460723505
 10
296.9797162116
 20
240.2011775431
 10
297.6679220614
 20
241.1294817187
 10
298.1277665087
 20
242.1896589815
 10
298.2892424049
 20
243.2203069539
  0
LWPOLYLINE
  5
28D
330
1F
100
AcDbEntity
  8
0
  6
Continuous
 62
     7
370
     0
100
AcDbPolyline
 90
       17
 70
   128
 43
0.0
 10
272.8333982822
 20
161.0896509045
 10
272.671922386
 20
160.0590029321
 10
272.2120779386
 20
158.9988256693
 10
271.5238720889
 20
158.0705214938
 10
270.7120779386
 20
157.4154163011
 10
269.9002837884
 20
157.1332439184
 10
269.2120779386
 20
157.2669625331
 10
268.7522334913
 20
157.7962146981
 10
268.5907575951
 20
158.640426569
 10
268.7522334913
 20
159.6710745414
 10
269.2120779386
 20
160.7312518043
 10
269.9002837884
 20
161.6595559798
 10
270.7120779386
 20
162.3146611724
 10
271.5238720889
 20
162.5968335551
 10
272.2120779386
 20
162.4631149405
 10
272.671922386
 20
161.9338627755
 10
272.8333982822
 20
161.0896509045
  0
LWPOLYLINE
  5
28E
330
1F
100
AcDbEntity
  8
0
  6
Continuous
 62
     7
370
     0
100
AcDbPolyline
 90
       17
 70
   128
 43
0.0
 10
352.4536218438
 20
207.0534276001
 10
352.6150977401
 20
208.0840755725
 10
353.0749421874
 20
209.1442528353
 10
353.7631480371
 20
210.0725570109
 10
354.5749421874
 20
210.7276622035
 10
355.3867363376
 20
211.0098345862
 10
356.0749421874
 20
210.8761159716
 10
356.5347866347
 20
210.3468638066
 10
356.6962625309
 20
209.5026519356
 10
356.5347866347
 20
208.4720039632
 10
356.0749421874
 20
207.4118267004
 10
355.3867363376
 20
206.4835225248
 10
354.5749421874
 20
205.8284173322
 10
353.7631480371
 20
205.5462449495
 10
353.0749421874
 20
205.6799635641
 10
352.6150977401
 20
206.2092157292
 10
352.4536218438
 20
207.0534276001
  0
LWPOLYLINE
  5
28F
330
1F
100
AcDbEntity
  8
0
  6
HIDDEN
 62
     7
370
     0
100
AcDbPolyline
 90
       17
 70
   128
 43
0.0
 10
356.130577106
 20
205.6641139194
 10
355.5893810058
 20
205.8522288412
 10
355.130577106
 20
205.7630830981
 10
354.8240141411
 20
205.4102483214
 10
354.7163635436
 20
204.8474404074
 10
354.8240141411
 20
204.1603417592
 10
355.130577106
 20
203.4535569173
 10
355.5893810058
 20
202.8346874669
 10
356.130577106
 20
202.3979506718
 10
356.6717732061
 20
202.20983575
 10
357.130577106
 20
202.2989814931
 10
357.4371400709
 20
202.6518162698
 10
357.5447906684
 20
203.2146241838
 10
357.4371400709
 20
203.901722832
 10
357.130577106
 20
204.6085076739
 10
356.6717732061
 20
205.2273771243
 10
356.130577106
 20
205.6641139194
  0
LWPOLYLINE
  5
290
330
1F
100
AcDbEntity
  8
0
  6
HIDDEN
 62
     7
370
     0
100
AcDbPolyline
 90
       17
 70
   128
 43
0.0
 10
306.7745237792
 20
234.156757022
 10
306.233327679
 20
234.3448719438
 10
305.7745237792
 20
234.2557262007
 10
305.4679608143
 20
233.902891424
 10
305.3603102168
 20
233.34008351
 10
305.4679608143
 20
232.6529848618
 10
305.7745237792
 20
231.9462000199
 10
306.233327679
 20
231.3273305695
 10
306.7745237792
 20
230.8905937744
 10
307.3157198793
 20
230.7024788526
 10
307.7745237792
 20
230.7916245957
 10
308.081086744
 20
231.1444593724
 10
308.1887373415
 20
231.7072672864
 10
308.081086744
 20
232.3943659346
 10
307.7745237792
 20
233.1011507765
 10
307.3157198793
 20
233.7200202269
 10
306.7745237792
 20
234.156757022
  0
LWPOLYLINE
  5
291
330
1F
100
AcDbEntity
  8
0
  6
HIDDEN
 62
     7
370
     0
100
AcDbPolyline
 90
       17
 70
   128
 43
0.0
 10
294.0466017178
 20
240.7710826184
 10
294.208077614
 20
239.9268707474
 10
294.6679220614
 20
239.3976185824
 10
295.3561279111
 20
239.2638999678
 10
296.1679220614
 20
239.5460723505
 10
296.9797162116
 20
240.2011775431
 10
297.6679220614
 20
241.1294817187
 10
298.1277665087
 20
242.1896589815
 10
298.2892424049
 20
243.2203069539
 10
298.1277665087
 20
244.0645188249
 10
297.6679220614
 20
244.5937709899
 10
296.9797162116
 20
244.7274896045
 10
296.1679220614
 20
244.4453172218
 10
295.3561279111
 20
243.7902120292
 10
294.6679220614
 20
242.8619078536
 10
294.208077614
 20
241.8017305908
 10
294.0466017178
 20
240.7710826184
  0
LWPOLYLINE
  5
292
330
1F
100
AcDbEntity
  8
0
  6
HIDDEN
 62
     7
370
     0
100
AcDbPolyline
 90
       17
 70
   128
 43
0.0
 10
331.4525504426
 20
231.0970445935
 10
330.6407562923
 20
231.3792169762
 10
329.9525504426
 20
231.2454983616
 10
329.4927059953
 20
230.7162461966
 10
329.331230099
 20
229.8720343256
 10
329.4927059953
 20
228.8413863532
 10
329.9525504426
 20
227.7812090904
 10
330.6407562923
 20
226.8529049148
 10
331.4525504426
 20
226.1977997222
 10
332.2643445928
 20
225.9156273395
 10
332.9525504426
 20
226.0493459541
 10
333.4123948899
 20
226.5785981191
 10
333.5738707861
 20
227.4228099901
 10
333.4123948899
 20
228.4534579625
 10
332.9525504426
 20
229.5136352253
 10
332.2643445928
 20
230.4419394009
 10
331.4525504426
 20
231.0970445935
  0
LWPOLYLINE
  5
293
330
1F
100
AcDbEntity
  8
0
  6
Continuous
 62
     7
370
     0
100
AcDbPolyline
 90
       17
 70
   128
 43
0.0
 10
356.6962625309
 20
209.5026519356
 10
356.5347866347
 20
208.4720039632
 10
356.0749421874
 20
207.4118267004
 10
355.3867363376
 20
206.4835225248
 10
354.5749421874
 20
205.8284173322
 10
353.7631480371
 20
205.5462449495
 10
353.0749421874
 20
205.6799635641
 10
352.6150977401
 20
206.2092157292
 10
352.4536218438
 20
207.0534276001
 10
352.6150977401
 20
208.0840755725
 10
353.0749421874
 20
209.1442528353
 10
353.7631480371
 20
210.0725570109
 10
354.5749421874
 20
210.7276622035
 10
355.3867363376
 20
211.0098345862
 10
356.0749421874
 20
210.8761159716
 10
356.5347866347
 20
210.3468638066
 10
356.6962625309
 20
209.5026519356
  0
ENDSEC
  0
SECTION
  2
OBJECTS
  0
DICTIONARY
  5
C
330
0
100
AcDbDictionary
281
     1
  3
ACAD_GROUP
350
D
  3
ACAD_LAYOUT
350
1A
  3
ACAD_MLEADERSTYLE
350
295
  3
ACAD_MLINESTYLE
350
17
  3
ACAD_PLOTSETTINGS
350
19
  3
ACAD_PLOTSTYLENAME
350
E
  3
ACAD_TABLESTYLE
350
294
  3
ACAD_VISUALSTYLE
350
2A
  3
AcDbVariableDictionary
350
296
  0
DICTIONARY
  5
D
102
{ACAD_REACTORS
330
C
102
}
330
C
100
AcDbDictionary
281
     1
  0
DICTIONARY
  5
1A
102
{ACAD_REACTORS
330
C
102
}
330
C
100
AcDbDictionary
281
     1
  3
Layout1
350
1E
  3
Layout2
350
26
  3
Model
350
22
  0
DICTIONARY
  5
295
102
{ACAD_REACTORS
330
C
102
}
330
C
100
AcDbDictionary
281
     1
  0
DICTIONARY
  5
17
102
{ACAD_REACTORS
330
C
102
}
330
C
100
AcDbDictionary
281
     1
  3
Standard
350
18
  0
DICTIONARY
  5
19
102
{ACAD_REACTORS
330
C
102
}
330
C
100
AcDbDictionary
281
     1
  0
ACDBDICTIONARYWDFLT
  5
E
102
{ACAD_REACTORS
330
C
102
}
330
C
100
AcDbDictionary
281
     1
  3
Normal
350
F
100
AcDbDictionaryWithDefault
340
F
  0
DICTIONARY
  5
294
102
{ACAD_REACTORS
330
C
102
}
330
C
100
AcDbDictionary
281
     1
  0
DICTIONARY
  5
2A
102
{ACAD_REACTORS
330
C
102
}
330
C
100
AcDbDictionary
281
     1
  3
2dWireframe
350
2F
  3
3D Hidden
350
31
  3
3dWireframe
350
30
  3
Basic
350
32
  3
Brighten
350
36
  3
ColorChange
350
3A
  3
Conceptual
350
34
  3
Dim
350
35
  3
Facepattern
350
39
  3
Flat
350
2B
  3
FlatWithEdges
350
2C
  3
Gouraud
350
2D
  3
GouraudWithEdges
350
2E
  3
Linepattern
350
38
  3
Realistic
350
33
  3
Thicken
350
37
  0
DICTIONARY
  5
296
102
{ACAD_REACTORS
330
C
102
}
330
C
100
AcDbDictionary
281
     1
  3
PSOLHEIGHT
350
298
  3
PSOLWIDTH
350
297
  0
LAYOUT
  5
1E
102
{ACAD_REACTORS
330
1A
102
}
330
1A
100
AcDbPlotSettings
  1

  2
none_device
  4

  6

 40
0.0
 41
0.0
 42
0.0
 43
0.0
 44
0.0
 45
0.0
 46
0.0
 47
0.0
 48
0.0
 49
0.0
140
0.0
141
0.0
142
1.0
143
1.0
 70
   688
 72
     0
 73
     0
 74
     5
  7

 75
    16
147
1.0
148
0.0
149
0.0
100
AcDbLayout
  1
Layout1
 70
     1
 71
     1
 10
0.0
 20
0.0
 11
420.0
 21
297.0
 12
0.0
 22
0.0
 32
0.0
 14
1.0000000000E+20
 24
1.0000000000E+20
 34
1.0000000000E+20
 15
-1.0000000000E+20
 25
-1.0000000000E+20
 35
-1.0000000000E+20
146
0.0
 13
0.0
 23
0.0
 33
0.0
 16
1.0
 26
0.0
 36
0.0
 17
0.0
 27
1.0
 37
0.0
 76
     0
330
1B
  0
LAYOUT
  5
26
102
{ACAD_REACTORS
330
1A
102
}
330
1A
100
AcDbPlotSettings
  1

  2
none_device
  4

  6

 40
0.0
 41
0.0
 42
0.0
 43
0.0
 44
0.0
 45
0.0
 46
0.0
 47
0.0
 48
0.0
 49
0.0
140
0.0
141
0.0
142
1.0
143
1.0
 70
   688
 72
     0
 73
     0
 74
     5
  7

 75
    16
147
1.0
148
0.0
149
0.0
100
AcDbLayout
  1
Layout2
 70
     1
 71
     2
 10
0.0
 20
0.0
 11
0.0
 21
0.0
 12
0.0
 22
0.0
 32
0.0
 14
0.0
 24
0.0
 34
0.0
 15
0.0
 25
0.0
 35
0.0
146
0.0
 13
0.0
 23
0.0
 33
0.0
 16
1.0
 26
0.0
 36
0.0
 17
0.0
 27
1.0
 37
0.0
 76
     0
330
23
  0
LAYOUT
  5
22
102
{ACAD_REACTORS
330
1A
102
}
330
1A
100
AcDbPlotSettings
  1

  2
none_device
  4

  6

 40
0.0
 41
0.0
 42
0.0
 43
0.0
 44
0.0
 45
0.0
 46
0.0
 47
0.0
 48
0.0
 49
0.0
140
0.0
141
0.0
142
1.0
143
1.0
 70
  1712
 72
     0
 73
     0
 74
     0
  7

 75
     0
147
1.0
148
0.0
149
0.0
100
AcDbLayout
  1
Model
 70
     1
 71
     0
 10
0.0
 20
0.0
 11
420.0
 21
297.0
 12
0.0
 22
0.0
 32
0.0
 14
0.0
 24
0.0
 34
0.0
 15
420.0
 25
297.0
 35
0.0
146
0.0
 13
0.0
 23
0.0
 33
0.0
 16
1.0
 26
0.0
 36
0.0
 17
0.0
 27
1.0
 37
0.0
 76
     0
330
1F
331
29
  0
MLINESTYLE
  5
18
102
{ACAD_REACTORS
330
17
102
}
330
17
100
AcDbMlineStyle
  2
Standard
 70
     0
  3

 62
   256
 51
90.0
 52
90.0
 71
     2
 49
0.5
 62
   256
  6
BYLAYER
 49
-0.5
 62
   256
  6
BYLAYER
  0
ACDBPLACEHOLDER
  5
F
102
{ACAD_REACTORS
330
E
102
}
330
E
  0
VISUALSTYLE
  5
2F
102
{ACAD_REACTORS
330
2A
102
}
330
2A
100
AcDbVisualStyle
  2
2dWireframe
 70
     4
 71
     0
 72
     2
 73
     0
 90
        0
 40
-0.6
 41
-30.0
 62
     5
 63
     7
 74
     1
 91
        4
 64
     7
 65
   257
 75
     1
175
     1
 42
1.0
 92
        0
 66
   257
 43
1.0
 76
     1
 77
     6
 78
     2
 67
     7
 79
     5
170
     0
171
     0
290
     0
174
     0
 93
        1
 44
0.0
173
     0
291
     0
 45
0.0
1001
ACAD
1000
AcDbSavedByObjectVersion
1070
     0
  0
VISUALSTYLE
  5
31
102
{ACAD_REACTORS
330
2A
102
}
330
2A
100
AcDbVisualStyle
  2
3D Hidden
 70
     6
 71
     1
 72
     2
 73
     2
 90
        0
 40
-0.6
 41
-30.0
 62
     5
 63
     7
 74
     2
 91
        2
 64
     7
 65
   257
 75
     2
175
     1
 42
40.0
 92
        0
 66
   257
 43
1.0
 76
     1
 77
     6
 78
     2
 67
     7
 79
     3
170
     0
171
     0
290
     0
174
     0
 93
        1
 44
0.0
173
     0
291
     0
 45
0.0
1001
ACAD
1000
AcDbSavedByObjectVersion
1070
     0
  0
VISUALSTYLE
  5
30
102
{ACAD_REACTORS
330
2A
102
}
330
2A
100
AcDbVisualStyle
  2
3dWireframe
 70
     5
 71
     0
 72
     2
 73
     0
 90
        0
 40
-0.6
 41
-30.0
 62
     5
 63
     7
 74
     1
 91
        4
 64
     7
 65
   257
 75
     1
175
     1
 42
1.0
 92
        0
 66
   257
 43
1.0
 76
     1
 77
     6
 78
     2
 67
     7
 79
     5
170
     0
171
     0
290
     0
174
     0
 93
        1
 44
0.0
173
     0
291
     0
 45
0.0
1001
ACAD
1000
AcDbSavedByObjectVersion
1070
     0
  0
VISUALSTYLE
  5
32
102
{ACAD_REACTORS
330
2A
102
}
330
2A
100
AcDbVisualStyle
  2
Basic
 70
     7
 71
     1
 72
     0
 73
     1
 90
        0
 40
-0.6
 41
-30.0
 62
     5
 63
     7
 74
     0
 91
        4
 64
     7
 65
   257
 75
     1
175
     1
 42
1.0
 92
        8
 66
     7
 43
1.0
 76
     1
 77
     6
 78
     2
 67
     7
 79
     5
170
     0
171
     0
290
     0
174
     0
 93
        1
 44
0.0
173
     0
291
     1
 45
0.0
1001
ACAD
1000
AcDbSavedByObjectVersion
1070
     0
  0
VISUALSTYLE
  5
36
102
{ACAD_REACTORS
330
2A
102
}
330
2A
100
AcDbVisualStyle
  2
Brighten
 70
    12
 71
     2
 72
     2
 73
     0
 90
        0
 40
-0.6
 41
-30.0
 62
     5
 63
     7
 74
     1
 91
        4
 64
     7
 65
   257
 75
     1
175
     1
 42
1.0
 92
        8
 66
     7
 43
1.0
 76
     1
 77
     6
 78
     2
 67
     7
 79
     5
170
     0
171
     0
290
     0
174
     0
 93
        1
 44
50.0
173
     0
291
     1
 45
0.0
1001
ACAD
1000
AcDbSavedByObjectVersion
1070
     0
  0
VISUALSTYLE
  5
3A
102
{ACAD_REACTORS
330
2A
102
}
330
2A
100
AcDbVisualStyle
  2
ColorChange
 70
    16
 71
     2
 72
     2
 73
     3
 90
        0
 40
-0.6
 41
-30.0
 62
     5
 63
     8
 74
     1
 91
        4
 64
     7
 65
   257
 75
     1
175
     1
 42
1.0
 92
        8
 66
     8
 43
1.0
 76
     1
 77
     6
 78
     2
 67
     7
 79
     5
170
     0
171
     0
290
     0
174
     0
 93
        1
 44
0.0
173
     0
291
     1
 45
0.0
1001
ACAD
1000
AcDbSavedByObjectVersion
1070
     0
  0
VISUALSTYLE
  5
34
102
{ACAD_REACTORS
330
2A
102
}
330
2A
100
AcDbVisualStyle
  2
Conceptual
 70
     9
 71
     3
 72
     2
 73
     0
 90
        0
 40
-0.6
 41
-30.0
 62
     5
 63
     7
 74
     2
 91
        2
 64
     7
 65
   257
 75
     1
175
     1
 42
40.0
 92
        8
 66
     7
 43
1.0
 76
     1
 77
     6
 78
     2
 67
     7
 79
     3
170
     0
171
     0
290
     0
174
     0
 93
        1
 44
0.0
173
     0
291
     0
 45
0.0
1001
ACAD
1000
AcDbSavedByObjectVersion
1070
     0
  0
VISUALSTYLE
  5
35
102
{ACAD_REACTORS
330
2A
102
}
330
2A
100
AcDbVisualStyle
  2
Dim
 70
    11
 71
     2
 72
     2
 73
     0
 90
        0
 40
-0.6
 41
-30.0
 62
     5
 63
     7
 74
     1
 91
        4
 64
     7
 65
   257
 75
     1
175
     1
 42
1.0
 92
        8
 66
     7
 43
1.0
 76
     1
 77
     6
 78
     2
 67
     7
 79
     5
170
     0
171
     0
290
     0
174
     0
 93
        1
 44
-50.0
173
     0
291
     1
 45
0.0
1001
ACAD
1000
AcDbSavedByObjectVersion
1070
     0
  0
VISUALSTYLE
  5
39
102
{ACAD_REACTORS
330
2A
102
}
330
2A
100
AcDbVisualStyle
  2
Facepattern
 70
    15
 71
     2
 72
     2
 73
     0
 90
        0
 40
-0.6
 41
-30.0
 62
     5
 63
     7
 74
     1
 91
        4
 64
     7
 65
   257
 75
     1
175
     1
 42
1.0
 92
        8
 66
     7
 43
1.0
 76
     1
 77
     6
 78
     2
 67
     7
 79
     5
170
     0
171
     0
290
     0
174
     0
 93
        1
 44
0.0
173
     0
291
     1
 45
0.0
1001
ACAD
1000
AcDbSavedByObjectVersion
1070
     0
  0
VISUALSTYLE
  5
2B
102
{ACAD_REACTORS
330
2A
102
}
330
2A
100
AcDbVisualStyle
  2
Flat
 70
     0
 71
     2
 72
     1
 73
     1
 90
        2
 40
-0.6
 41
30.0
 62
     5
 63
     7
 74
     0
 91
        4
 64
     7
 65
   257
 75
     1
175
     1
 42
1.0
 92
        8
 66
     7
 43
1.0
 76
     1
 77
     6
 78
     2
 67
     7
 79
     5
170
     0
171
     0
290
     0
174
     0
 93
       13
 44
0.0
173
     0
291
     1
 45
0.0
1001
ACAD
1000
AcDbSavedByObjectVersion
1070
     0
  0
VISUALSTYLE
  5
2C
102
{ACAD_REACTORS
330
2A
102
}
330
2A
100
AcDbVisualStyle
  2
FlatWithEdges
 70
     1
 71
     2
 72
     1
 73
     1
 90
        2
 40
-0.6
 41
30.0
 62
     5
 63
     7
 74
     1
 91
        4
 64
     7
 65
   257
 75
     1
175
     1
 42
1.0
 92
        0
 66
   257
 43
1.0
 76
     1
 77
     6
 78
     2
 67
     7
 79
     5
170
     0
171
     0
290
     0
174
     0
 93
       13
 44
0.0
173
     0
291
     1
 45
0.0
1001
ACAD
1000
AcDbSavedByObjectVersion
1070
     0
  0
VISUALSTYLE
  5
2D
102
{ACAD_REACTORS
330
2A
102
}
330
2A
100
AcDbVisualStyle
  2
Gouraud
 70
     2
 71
     2
 72
     2
 73
     1
 90
        2
 40
-0.6
 41
30.0
 62
     5
 63
     7
 74
     0
 91
        4
 64
     7
 65
   257
 75
     1
175
     1
 42
1.0
 92
        0
 66
     7
 43
1.0
 76
     1
 77
     6
 78
     2
 67
     7
 79
     5
170
     0
171
     0
290
     0
174
     0
 93
       13
 44
0.0
173
     0
291
     1
 45
0.0
1001
ACAD
1000
AcDbSavedByObjectVersion
1070
     0
  0
VISUALSTYLE
  5
2E
102
{ACAD_REACTORS
330
2A
102
}
330
2A
100
AcDbVisualStyle
  2
GouraudWithEdges
 70
     3
 71
     2
 72
     2
 73
     1
 90
        2
 40
-0.6
 41
30.0
 62
     5
 63
     7
 74
     1
 91
        4
 64
     7
 65
   257
 75
     1
175
     1
 42
1.0
 92
        0
 66
   257
 43
1.0
 76
     1
 77
     6
 78
     2
 67
     7
 79
     5
170
     0
171
     0
290
     0
174
     0
 93
       13
 44
0.0
173
     0
291
     1
 45
0.0
1001
ACAD
1000
AcDbSavedByObjectVersion
1070
     0
  0
VISUALSTYLE
  5
38
102
{ACAD_REACTORS
330
2A
102
}
330
2A
100
AcDbVisualStyle
  2
Linepattern
 70
    14
 71
     2
 72
     2
 73
     0
 90
        0
 40
-0.6
 41
-30.0
 62
     5
 63
     7
 74
     1
 91
        4
 64
     7
 65
   257
 75
     7
175
     7
 42
1.0
 92
        8
 66
     7
 43
1.0
 76
     1
 77
     6
 78
     2
 67
     7
 79
     5
170
     0
171
     0
290
     0
174
     0
 93
        1
 44
0.0
173
     0
291
     1
 45
0.0
1001
ACAD
1000
AcDbSavedByObjectVersion
1070
     0
  0
VISUALSTYLE
  5
33
102
{ACAD_REACTORS
330
2A
102
}
330
2A
100
AcDbVisualStyle
  2
Realistic
 70
     8
 71
     2
 72
     2
 73
     0
 90
        0
 40
-0.6
 41
-30.0
 62
     5
 63
     7
 74
     1
 91
        0
 64
     7
 65
   257
 75
     1
175
     1
 42
1.0
 92
        8
 66
     8
 43
1.0
 76
     1
 77
     6
 78
     2
 67
     7
 79
     5
170
     0
171
     0
290
     0
174
     0
 93
       13
 44
0.0
173
     0
291
     0
 45
0.0
1001
ACAD
1000
AcDbSavedByObjectVersion
1070
     0
  0
VISUALSTYLE
  5
37
102
{ACAD_REACTORS
330
2A
102
}
330
2A
100
AcDbVisualStyle
  2
Thicken
 70
    13
 71
     2
 72
     2
 73
     0
 90
        0
 40
-0.6
 41
-30.0
 62
     5
 63
     7
 74
     1
 91
        4
 64
     7
 65
   257
 75
     1
175
     1
 42
1.0
 92
       12
 66
     7
 43
1.0
 76
     1
 77
     6
 78
     2
 67
     7
 79
     5
170
     0
171
     0
290
     0
174
     0
 93
        1
 44
0.0
173
     0
291
     1
 45
0.0
1001
ACAD
1000
AcDbSavedByObjectVersion
1070
     0
  0
DICTIONARYVAR
  5
298
102
{ACAD_REACTORS
330
296
102
}
330
296
100
DictionaryVariables
280
     0
  1
80.000000
  0
DICTIONARYVAR
  5
297
102
{ACAD_REACTORS
330
296
102
}
330
296
100
DictionaryVariables
280
     0
  1
5.000000
  0
ENDSEC
  0
EOF
