  0
SECTION
  2
HEADER
  9
$ACADVER
  1
AC1015
  9
$ACADMAINTVER
 70
     6
  9
$DWGCODEPAGE
  3
ANSI_1252
  9
$INSBASE
 10
0.0
 20
0.0
 30
0.0
  9
$EXTMIN
 10
0.0
 20
0.0
 30
0.0
  9
$EXTMAX
 10
420.0
 20
297.0
 30
0.0
  9
$LIMMIN
 10
0.0
 20
0.0
  9
$LIMMAX
 10
0.0
 20
0.0
  9
$ORTHOMODE
 70
     0
  9
$REGENMODE
 70
     1
  9
$FILLMODE
 70
     1
  9
$QTEXTMODE
 70
     0
  9
$MIRRTEXT
 70
     1
  9
$LTSCALE
 40
1.0
  9
$ATTMODE
 70
     1
  9
$TEXTSIZE
 40
3.5
  9
$TRACEWID
 40
1.0
  9
$TEXTSTYLE
  7
Standard
  9
$CLAYER
  8
0
  9
$CELTYPE
  6
ByLayer
  9
$CECOLOR
 62
   256
  9
$CELTSCALE
 40
1.0
  9
$DISPSILH
 70
     0
  9
$DIMSCALE
 40
1.0
  9
$DIMASZ
 40
6.0
  9
$DIMEXO
 40
1.0
  9
$DIMDLI
 40
3.75
  9
$DIMRND
 40
0.0
  9
$DIMDLE
 40
0.0
  9
$DIMEXE
 40
1.0
  9
$DIMTP
 40
0.0
  9
$DIMTM
 40
0.0
  9
$DIMTXT
 40
3.5
  9
$DIMCEN
 40
2.5
  9
$DIMTSZ
 40
0.0
  9
$DIMTOL
 70
     0
  9
$DIMLIM
 70
     0
  9
$DIMTIH
 70
     1
  9
$DIMTOH
 70
     1
  9
$DIMSE1
 70
     0
  9
$DIMSE2
 70
     0
  9
$DIMTAD
 70
     1
  9
$DIMZIN
 70
     0
  9
$DIMBLK
  1

  9
$DIMASO
 70
     1
  9
$DIMSHO
 70
     1
  9
$DIMPOST
  1

  9
$DIMAPOST
  1

  9
$DIMALT
 70
     0
  9
$DIMALTD
 70
     3
  9
$DIMALTF
 40
0.0393700787
  9
$DIMLFAC
 40
1.0
  9
$DIMTOFL
 70
     1
  9
$DIMTVP
 40
0.0
  9
$DIMTIX
 70
     0
  9
$DIMSOXD
 70
     0
  9
$DIMSAH
 70
     0
  9
$DIMBLK1
  1

  9
$DIMBLK2
  1

  9
$DIMSTYLE
  2
ISO-25
  9
$DIMCLRD
 70
     0
  9
$DIMCLRE
 70
     0
  9
$DIMCLRT
 70
     0
  9
$DIMTFAC
 40
1.0
  9
$DIMGAP
 40
1.524
  9
$DIMJUST
 70
     0
  9
$DIMSD1
 70
     0
  9
$DIMSD2
 70
     0
  9
$DIMTOLJ
 70
     0
  9
$DIMTZIN
 70
     0
  9
$DIMALTZ
 70
     0
  9
$DIMALTTZ
 70
     0
  9
$DIMUPT
 70
     0
  9
$DIMDEC
 70
     2
  9
$DIMTDEC
 70
     2
  9
$DIMALTU
 70
     2
  9
$DIMALTTD
 70
     3
  9
$DIMTXSTY
  7
Standard
  9
$DIMAUNIT
 70
     0
  9
$DIMADEC
 70
     0
  9
$DIMALTRND
 40
0.0
  9
$DIMAZIN
 70
     0
  9
$DIMDSEP
 70
    44
  9
$DIMATFIT
 70
     3
  9
$DIMFRAC
 70
     0
  9
$DIMLDRBLK
  1

  9
$DIMLUNIT
 70
     2
  9
$DIMLWD
 70
    -2
  9
$DIMLWE
 70
    -2
  9
$DIMTMOVE
 70
     0
  9
$LUNITS
 70
     2
  9
$LUPREC
 70
     2
  9
$SKETCHINC
 40
1.0
  9
$FILLETRAD
 40
10.0
  9
$AUNITS
 70
     0
  9
$AUPREC
 70
     0
  9
$MENU
  1
.
  9
$ELEVATION
 40
0.0
  9
$PELEVATION
 40
0.0
  9
$THICKNESS
 40
0.0
  9
$LIMCHECK
 70
     0
  9
$CHAMFERA
 40
10.0
  9
$CHAMFERB
 40
10.0
  9
$CHAMFERC
 40
20.0
  9
$CHAMFERD
 40
0.0
  9
$SKPOLY
 70
     0
  9
$TDCREATE
 40
2454263.193442916
  9
$TDUCREATE
 40
2454263.360109583
  9
$TDUPDATE
 40
2454263.193442928
  9
$TDUUPDATE
 40
2454263.360109595
  9
$TDINDWG
 40
0.0000000116
  9
$TDUSRTIMER
 40
0.0000000116
  9
$USRTIMER
 70
     1
  9
$ANGBASE
 50
0.0
  9
$ANGDIR
 70
     0
  9
$PDMODE
 70
     0
  9
$PDSIZE
 40
-1.0
  9
$PLINEWID
 40
0.0
  9
$SPLFRAME
 70
     0
  9
$SPLINETYPE
 70
     6
  9
$SPLINESEGS
 70
     8
  9
$HANDSEED
  5
1F1
  9
$SURFTAB1
 70
     6
  9
$SURFTAB2
 70
     6
  9
$SURFTYPE
 70
     6
  9
$SURFU
 70
     6
  9
$SURFV
 70
     6
  9
$UCSBASE
  2

  9
$UCSNAME
  2

  9
$UCSORG
 10
0.0
 20
0.0
 30
0.0
  9
$UCSXDIR
 10
1.0
 20
0.0
 30
0.0
  9
$UCSYDIR
 10
0.0
 20
1.0
 30
0.0
  9
$UCSORTHOREF
  2

  9
$UCSORTHOVIEW
 70
     0
  9
$UCSORGTOP
 10
0.0
 20
0.0
 30
0.0
  9
$UCSORGBOTTOM
 10
0.0
 20
0.0
 30
0.0
  9
$UCSORGLEFT
 10
0.0
 20
0.0
 30
0.0
  9
$UCSORGRIGHT
 10
0.0
 20
0.0
 30
0.0
  9
$UCSORGFRONT
 10
0.0
 20
0.0
 30
0.0
  9
$UCSORGBACK
 10
0.0
 20
0.0
 30
0.0
  9
$PUCSBASE
  2

  9
$PUCSNAME
  2

  9
$PUCSORG
 10
0.0
 20
0.0
 30
0.0
  9
$PUCSXDIR
 10
1.0
 20
0.0
 30
0.0
  9
$PUCSYDIR
 10
0.0
 20
1.0
 30
0.0
  9
$PUCSORTHOREF
  2

  9
$PUCSORTHOVIEW
 70
     0
  9
$PUCSORGTOP
 10
0.0
 20
0.0
 30
0.0
  9
$PUCSORGBOTTOM
 10
0.0
 20
0.0
 30
0.0
  9
$PUCSORGLEFT
 10
0.0
 20
0.0
 30
0.0
  9
$PUCSORGRIGHT
 10
0.0
 20
0.0
 30
0.0
  9
$PUCSORGFRONT
 10
0.0
 20
0.0
 30
0.0
  9
$PUCSORGBACK
 10
0.0
 20
0.0
 30
0.0
  9
$USERI1
 70
     0
  9
$USERI2
 70
     0
  9
$USERI3
 70
     0
  9
$USERI4
 70
     0
  9
$USERI5
 70
     0
  9
$USERR1
 40
0.0
  9
$USERR2
 40
0.0
  9
$USERR3
 40
0.0
  9
$USERR4
 40
0.0
  9
$USERR5
 40
0.0
  9
$WORLDVIEW
 70
     1
  9
$SHADEDGE
 70
     3
  9
$SHADEDIF
 70
    70
  9
$TILEMODE
 70
     1
  9
$MAXACTVP
 70
    64
  9
$PINSBASE
 10
0.0
 20
0.0
 30
0.0
  9
$PLIMCHECK
 70
     0
  9
$PEXTMIN
 10
1.0000000000E+20
 20
1.0000000000E+20
 30
1.0000000000E+20
  9
$PEXTMAX
 10
-1.0000000000E+20
 20
-1.0000000000E+20
 30
-1.0000000000E+20
  9
$PLIMMIN
 10
0.0
 20
0.0
  9
$PLIMMAX
 10
420.0
 20
297.0
  9
$UNITMODE
 70
     0
  9
$VISRETAIN
 70
     1
  9
$PLINEGEN
 70
     0
  9
$PSLTSCALE
 70
     1
  9
$TREEDEPTH
 70
  3020
  9
$CMLSTYLE
  2
Standard
  9
$CMLJUST
 70
     0
  9
$CMLSCALE
 40
20.0
  9
$PROXYGRAPHICS
 70
     1
  9
$MEASUREMENT
 70
     1
  9
$CELWEIGHT
370
    -1
  9
$ENDCAPS
280
     0
  9
$JOINSTYLE
280
     0
  9
$LWDISPLAY
290
     1
  9
$INSUNITS
 70
     4
  9
$HYPERLINKBASE
  1

  9
$STYLESHEET
  1

  9
$XEDIT
290
     1
  9
$CEPSNTYPE
380
     0
  9
$PSTYLEMODE
290
     1
  9
$FINGERPRINTGUID
  2
{293A2850-38B9-4CF8-B923-A8C60B2031BA}
  9
$VERSIONGUID
  2
{FAEB1C32-E019-11D5-929B-00C0DF256EC4}
  9
$EXTNAMES
290
     1
  9
$PSVPSCALE
 40
0.0
  9
$OLESTARTUP
290
     0
  0
ENDSEC
  0
SECTION
  2
CLASSES
  0
CLASS
  1
ACDBDICTIONARYWDFLT
  2
AcDbDictionaryWithDefault
  3
ObjectDBX Classes
 90
        0
280
     0
281
     0
  0
CLASS
  1
ACDBPLACEHOLDER
  2
AcDbPlaceHolder
  3
ObjectDBX Classes
 90
        0
280
     0
281
     0
  0
CLASS
  1
LAYOUT
  2
AcDbLayout
  3
ObjectDBX Classes
 90
        0
280
     0
281
     0
  0
ENDSEC
  0
SECTION
  2
TABLES
  0
TABLE
  2
VPORT
  5
8
330
0
100
AcDbSymbolTable
 70
     1
  0
VPORT
  5
29
330
8
100
AcDbSymbolTableRecord
100
AcDbViewportTableRecord
  2
*Active
 70
     0
 10
0.0
 20
0.0
 11
1.0
 21
1.0
 12
210.0
 22
148.5
 13
0.0
 23
0.0
 14
10.0
 24
10.0
 15
10.0
 25
10.0
 16
0.0
 26
0.0
 36
1.0
 17
0.0
 27
0.0
 37
0.0
 40
297.0
 41
1.4141414141
 42
50.0
 43
0.0
 44
0.0
 50
0.0
 51
0.0
 71
     0
 72
  2000
 73
     1
 74
     3
 75
     0
 76
     0
 77
     0
 78
     0
281
     0
 65
     1
110
0.0
120
0.0
130
0.0
111
1.0
121
0.0
131
0.0
112
0.0
122
1.0
132
0.0
 79
     0
146
0.0
  0
ENDTAB
  0
TABLE
  2
LTYPE
  5
5
330
0
100
AcDbSymbolTable
 70
     6
  0
LTYPE
  5
14
330
5
100
AcDbSymbolTableRecord
100
AcDbLinetypeTableRecord
  2
ByBlock
 70
     0
  3

 72
    65
 73
     0
 40
0.0
  0
LTYPE
  5
15
330
5
100
AcDbSymbolTableRecord
100
AcDbLinetypeTableRecord
  2
ByLayer
 70
     0
  3

 72
    65
 73
     0
 40
0.0
  0
LTYPE
  5
16
330
5
100
AcDbSymbolTableRecord
100
AcDbLinetypeTableRecord
  2
Continuous
 70
     0
  3
Solid line
 72
    65
 73
     0
 40
0.0
  0
LTYPE
  5
2A
330
5
100
AcDbSymbolTableRecord
100
AcDbLinetypeTableRecord
  2
HIDDEN
 70
     0
  3
Hidden __ __ __ __ __ __ __ __ __ __ __ __ __ __
 72
    65
 73
     2
 40
1.905
 49
1.27
 74
     0
 49
-0.635
 74
     0
  0
LTYPE
  5
2B
330
5
100
AcDbSymbolTableRecord
100
AcDbLinetypeTableRecord
  2
PHANTOM
 70
     0
  3
Phantom ______  __  __  ______  __  __  ______
 72
    65
 73
     6
 40
12.7
 49
6.35
 74
     0
 49
-1.27
 74
     0
 49
1.27
 74
     0
 49
-1.27
 74
     0
 49
1.27
 74
     0
 49
-1.27
 74
     0
  0
LTYPE
  5
2C
330
5
100
AcDbSymbolTableRecord
100
AcDbLinetypeTableRecord
  2
CENTER
 70
     0
  3
Center ____ _ ____ _ ____ _ ____ _ ____ _ ____
 72
    65
 73
     4
 40
10.16
 49
6.35
 74
     0
 49
-1.27
 74
     0
 49
1.27
 74
     0
 49
-1.27
 74
     0
  0
LTYPE
  5
2D
330
5
100
AcDbSymbolTableRecord
100
AcDbLinetypeTableRecord
  2
CENTERX2
 70
     0
  3
Center (2x) ________  __  ________  __  _____
 72
    65
 73
     4
 40
20.32
 49
12.7
 74
     0
 49
-2.54
 74
     0
 49
2.54
 74
     0
 49
-2.54
 74
     0
  0
LTYPE
  5
2E
330
5
100
AcDbSymbolTableRecord
100
AcDbLinetypeTableRecord
  2
DOT2
 70
     0
  3
Dot (.5x) ........................................
 72
    65
 73
     2
 40
0.635
 49
0.0
 74
     0
 49
-0.635
 74
     0
  0
ENDTAB
  0
TABLE
  2
LAYER
  5
2
330
0
100
AcDbSymbolTable
 70
     1
  0
LAYER
  5
10
330
2
100
AcDbSymbolTableRecord
100
AcDbLayerTableRecord
  2
0
 70
     0
 62
     7
  6
Continuous
370
    -3
390
F
  0
ENDTAB
  0
TABLE
  2
STYLE
  5
3
330
0
100
AcDbSymbolTable
 70
     1
  0
STYLE
  5
11
330
3
100
AcDbSymbolTableRecord
100
AcDbTextStyleTableRecord
  2
Standard
 70
     0
 40
0.0
 41
1.0
 50
0.0
 71
     0
 42
2.5
  3
txt
  4

  0
ENDTAB
  0
TABLE
  2
VIEW
  5
6
330
0
100
AcDbSymbolTable
 70
     0
  0
ENDTAB
  0
TABLE
  2
UCS
  5
7
330
0
100
AcDbSymbolTable
 70
     0
  0
ENDTAB
  0
TABLE
  2
APPID
  5
9
330
0
100
AcDbSymbolTable
 70
     1
  0
APPID
  5
12
330
9
100
AcDbSymbolTableRecord
100
AcDbRegAppTableRecord
  2
ACAD
 70
     0
  0
ENDTAB
  0
TABLE
  2
DIMSTYLE
  5
A
330
0
100
AcDbSymbolTable
 70
     1
100
AcDbDimStyleTable
  0
DIMSTYLE
105
27
330
A
100
AcDbSymbolTableRecord
100
AcDbDimStyleTableRecord
  2
ISO-25
 70
     0
 41
2.5
 42
0.625
 43
3.75
 44
1.25
 73
     0
 74
     0
 77
     1
 78
     8
140
2.5
141
2.5
143
0.0393700787
147
0.625
171
     3
172
     1
271
     2
272
     2
274
     3
278
    44
283
     0
284
     8
340
11
  0
ENDTAB
  0
TABLE
  2
BLOCK_RECORD
  5
1
330
0
100
AcDbSymbolTable
 70
    14
  0
BLOCK_RECORD
  5
1F
330
1
100
AcDbSymbolTableRecord
100
AcDbBlockTableRecord
  2
*Model_Space
340
22
  0
BLOCK_RECORD
  5
1B
330
1
100
AcDbSymbolTableRecord
100
AcDbBlockTableRecord
  2
*Paper_Space
340
1E
  0
BLOCK_RECORD
  5
23
330
1
100
AcDbSymbolTableRecord
100
AcDbBlockTableRecord
  2
*Paper_Space0
340
26
  0
BLOCK_RECORD
  5
62
330
1
100
AcDbSymbolTableRecord
100
AcDbBlockTableRecord
  2
SW_CENTERMARKSYMBOL_0
340
0
102
{BLKREFS
331
6D
102
}
1001
ACAD
1000
DesignCenter Data
1002
{
1070
     1
1070
     0
1002
}
  0
BLOCK_RECORD
  5
6E
330
1
100
AcDbSymbolTableRecord
100
AcDbBlockTableRecord
  2
SW_CENTERMARKSYMBOL_1
340
0
102
{BLKREFS
331
79
102
}
1001
ACAD
1000
DesignCenter Data
1002
{
1070
     1
1070
     0
1002
}
  0
BLOCK_RECORD
  5
7A
330
1
100
AcDbSymbolTableRecord
100
AcDbBlockTableRecord
  2
SW_CENTERMARKSYMBOL_2
340
0
102
{BLKREFS
331
85
102
}
1001
ACAD
1000
DesignCenter Data
1002
{
1070
     1
1070
     0
1002
}
  0
BLOCK_RECORD
  5
AC
330
1
100
AcDbSymbolTableRecord
100
AcDbBlockTableRecord
  2
SW_CENTERMARKSYMBOL_3
340
0
102
{BLKREFS
331
B7
102
}
1001
ACAD
1000
DesignCenter Data
1002
{
1070
     1
1070
     0
1002
}
  0
BLOCK_RECORD
  5
B8
330
1
100
AcDbSymbolTableRecord
100
AcDbBlockTableRecord
  2
SW_CENTERMARKSYMBOL_4
340
0
102
{BLKREFS
331
C3
102
}
1001
ACAD
1000
DesignCenter Data
1002
{
1070
     1
1070
     0
1002
}
  0
BLOCK_RECORD
  5
FA
330
1
100
AcDbSymbolTableRecord
100
AcDbBlockTableRecord
  2
SW_CENTERMARKSYMBOL_5
340
0
102
{BLKREFS
331
105
102
}
1001
ACAD
1000
DesignCenter Data
1002
{
1070
     1
1070
     0
1002
}
  0
BLOCK_RECORD
  5
106
330
1
100
AcDbSymbolTableRecord
100
AcDbBlockTableRecord
  2
SW_CENTERMARKSYMBOL_6
340
0
102
{BLKREFS
331
111
102
}
1001
ACAD
1000
DesignCenter Data
1002
{
1070
     1
1070
     0
1002
}
  0
BLOCK_RECORD
  5
112
330
1
100
AcDbSymbolTableRecord
100
AcDbBlockTableRecord
  2
SW_CENTERMARKSYMBOL_7
340
0
102
{BLKREFS
331
11D
102
}
1001
ACAD
1000
DesignCenter Data
1002
{
1070
     1
1070
     0
1002
}
  0
BLOCK_RECORD
  5
11E
330
1
100
AcDbSymbolTableRecord
100
AcDbBlockTableRecord
  2
SW_CENTERMARKSYMBOL_8
340
0
102
{BLKREFS
331
129
102
}
1001
ACAD
1000
DesignCenter Data
1002
{
1070
     1
1070
     0
1002
}
  0
BLOCK_RECORD
  5
12A
330
1
100
AcDbSymbolTableRecord
100
AcDbBlockTableRecord
  2
SW_CENTERMARKSYMBOL_9
340
0
102
{BLKREFS
331
135
102
}
1001
ACAD
1000
DesignCenter Data
1002
{
1070
     1
1070
     0
1002
}
  0
BLOCK_RECORD
  5
136
330
1
100
AcDbSymbolTableRecord
100
AcDbBlockTableRecord
  2
SW_CENTERMARKSYMBOL_10
340
0
102
{BLKREFS
331
141
102
}
1001
ACAD
1000
DesignCenter Data
1002
{
1070
     1
1070
     0
1002
}
  0
BLOCK_RECORD
  5
142
330
1
100
AcDbSymbolTableRecord
100
AcDbBlockTableRecord
  2
SW_CENTERMARKSYMBOL_11
340
0
102
{BLKREFS
331
14D
102
}
1001
ACAD
1000
DesignCenter Data
1002
{
1070
     1
1070
     0
1002
}
  0
BLOCK_RECORD
  5
14E
330
1
100
AcDbSymbolTableRecord
100
AcDbBlockTableRecord
  2
SW_CENTERMARKSYMBOL_12
340
0
102
{BLKREFS
331
159
102
}
1001
ACAD
1000
DesignCenter Data
1002
{
1070
     1
1070
     0
1002
}
  0
ENDTAB
  0
ENDSEC
  0
SECTION
  2
BLOCKS
  0
BLOCK
  5
20
330
1F
100
AcDbEntity
  8
0
100
AcDbBlockBegin
  2
*Model_Space
 70
     0
 71
     0
 10
0.0
 20
0.0
 30
0.0
  3
*Model_Space
  1

  0
ENDBLK
  5
21
330
1F
100
AcDbEntity
  8
0
100
AcDbBlockEnd
  0
BLOCK
  5
1C
330
1B
100
AcDbEntity
 67
     1
  8
0
100
AcDbBlockBegin
  2
*Paper_Space
 70
     0
 71
     0
 10
0.0
 20
0.0
 30
0.0
  3
*Paper_Space
  1

  0
ENDBLK
  5
1D
330
1B
100
AcDbEntity
 67
     1
  8
0
100
AcDbBlockEnd
  0
BLOCK
  5
24
330
23
100
AcDbEntity
  8
0
100
AcDbBlockBegin
  2
*Paper_Space0
 70
     0
 71
     0
 10
0.0
 20
0.0
 30
0.0
  3
*Paper_Space0
  1

  0
ENDBLK
  5
25
330
23
100
AcDbEntity
  8
0
100
AcDbBlockEnd
  0
BLOCK
  5
63
330
62
100
AcDbEntity
  8
0
100
AcDbBlockBegin
  2
SW_CENTERMARKSYMBOL_0
 70
     0
 71
     0
 10
0.0
 20
0.0
 30
0.0
  3
SW_CENTERMARKSYMBOL_0
  1

  0
LINE
  5
65
330
62
100
AcDbEntity
  8
0
  6
Continuous
 62
     0
370
     0
100
AcDbLine
 10
0.0
 20
0.0
 30
0.0
 11
0.0
 21
2.5
 31
0.0
  0
LINE
  5
66
330
62
100
AcDbEntity
  8
0
  6
Continuous
 62
     0
370
     0
100
AcDbLine
 10
0.0
 20
0.0
 30
0.0
 11
-2.5
 21
0.0
 31
0.0
  0
LINE
  5
67
330
62
100
AcDbEntity
  8
0
  6
Continuous
 62
     0
370
     0
100
AcDbLine
 10
0.0
 20
0.0
 30
0.0
 11
0.0
 21
-2.5
 31
0.0
  0
LINE
  5
68
330
62
100
AcDbEntity
  8
0
  6
Continuous
 62
     0
370
     0
100
AcDbLine
 10
0.0
 20
0.0
 30
0.0
 11
2.5
 21
0.0
 31
0.0
  0
LINE
  5
69
330
62
100
AcDbEntity
  8
0
  6
Continuous
 62
     0
370
     0
100
AcDbLine
 10
0.0
 20
2.5
 30
0.0
 11
0.0
 21
3.75
 31
0.0
  0
LINE
  5
6A
330
62
100
AcDbEntity
  8
0
  6
Continuous
 62
     0
370
     0
100
AcDbLine
 10
-2.5
 20
0.0
 30
0.0
 11
-3.75
 21
0.0
 31
0.0
  0
LINE
  5
6B
330
62
100
AcDbEntity
  8
0
  6
Continuous
 62
     0
370
     0
100
AcDbLine
 10
0.0
 20
-2.5
 30
0.0
 11
0.0
 21
-3.75
 31
0.0
  0
LINE
  5
6C
330
62
100
AcDbEntity
  8
0
  6
Continuous
 62
     0
370
     0
100
AcDbLine
 10
2.5
 20
0.0
 30
0.0
 11
3.75
 21
0.0
 31
0.0
  0
ENDBLK
  5
64
330
62
100
AcDbEntity
  8
0
100
AcDbBlockEnd
  0
BLOCK
  5
6F
330
6E
100
AcDbEntity
  8
0
100
AcDbBlockBegin
  2
SW_CENTERMARKSYMBOL_1
 70
     0
 71
     0
 10
0.0
 20
0.0
 30
0.0
  3
SW_CENTERMARKSYMBOL_1
  1

  0
LINE
  5
71
330
6E
100
AcDbEntity
  8
0
  6
Continuous
 62
     0
370
     0
100
AcDbLine
 10
0.0
 20
0.0
 30
0.0
 11
0.0
 21
2.5
 31
0.0
  0
LINE
  5
72
330
6E
100
AcDbEntity
  8
0
  6
Continuous
 62
     0
370
     0
100
AcDbLine
 10
0.0
 20
0.0
 30
0.0
 11
-2.5
 21
0.0
 31
0.0
  0
LINE
  5
73
330
6E
100
AcDbEntity
  8
0
  6
Continuous
 62
     0
370
     0
100
AcDbLine
 10
0.0
 20
0.0
 30
0.0
 11
0.0
 21
-2.5
 31
0.0
  0
LINE
  5
74
330
6E
100
AcDbEntity
  8
0
  6
Continuous
 62
     0
370
     0
100
AcDbLine
 10
0.0
 20
0.0
 30
0.0
 11
2.5
 21
0.0
 31
0.0
  0
LINE
  5
75
330
6E
100
AcDbEntity
  8
0
  6
Continuous
 62
     0
370
     0
100
AcDbLine
 10
0.0
 20
2.5
 30
0.0
 11
0.0
 21
3.75
 31
0.0
  0
LINE
  5
76
330
6E
100
AcDbEntity
  8
0
  6
Continuous
 62
     0
370
     0
100
AcDbLine
 10
-2.5
 20
0.0
 30
0.0
 11
-3.75
 21
0.0
 31
0.0
  0
LINE
  5
77
330
6E
100
AcDbEntity
  8
0
  6
Continuous
 62
     0
370
     0
100
AcDbLine
 10
0.0
 20
-2.5
 30
0.0
 11
0.0
 21
-3.75
 31
0.0
  0
LINE
  5
78
330
6E
100
AcDbEntity
  8
0
  6
Continuous
 62
     0
370
     0
100
AcDbLine
 10
2.5
 20
0.0
 30
0.0
 11
3.75
 21
0.0
 31
0.0
  0
ENDBLK
  5
70
330
6E
100
AcDbEntity
  8
0
100
AcDbBlockEnd
  0
BLOCK
  5
7B
330
7A
100
AcDbEntity
  8
0
100
AcDbBlockBegin
  2
SW_CENTERMARKSYMBOL_2
 70
     0
 71
     0
 10
0.0
 20
0.0
 30
0.0
  3
SW_CENTERMARKSYMBOL_2
  1

  0
LINE
  5
7D
330
7A
100
AcDbEntity
  8
0
  6
Continuous
 62
     0
370
     0
100
AcDbLine
 10
0.0
 20
0.0
 30
0.0
 11
0.0
 21
2.5
 31
0.0
  0
LINE
  5
7E
330
7A
100
AcDbEntity
  8
0
  6
Continuous
 62
     0
370
     0
100
AcDbLine
 10
0.0
 20
0.0
 30
0.0
 11
-2.5
 21
0.0
 31
0.0
  0
LINE
  5
7F
330
7A
100
AcDbEntity
  8
0
  6
Continuous
 62
     0
370
     0
100
AcDbLine
 10
0.0
 20
0.0
 30
0.0
 11
0.0
 21
-2.5
 31
0.0
  0
LINE
  5
80
330
7A
100
AcDbEntity
  8
0
  6
Continuous
 62
     0
370
     0
100
AcDbLine
 10
0.0
 20
0.0
 30
0.0
 11
2.5
 21
0.0
 31
0.0
  0
LINE
  5
81
330
7A
100
AcDbEntity
  8
0
  6
Continuous
 62
     0
370
     0
100
AcDbLine
 10
0.0
 20
2.5
 30
0.0
 11
0.0
 21
5.0
 31
0.0
  0
LINE
  5
82
330
7A
100
AcDbEntity
  8
0
  6
Continuous
 62
     0
370
     0
100
AcDbLine
 10
-2.5
 20
0.0
 30
0.0
 11
-5.0
 21
0.0
 31
0.0
  0
LINE
  5
83
330
7A
100
AcDbEntity
  8
0
  6
Continuous
 62
     0
370
     0
100
AcDbLine
 10
0.0
 20
-2.5
 30
0.0
 11
0.0
 21
-5.0
 31
0.0
  0
LINE
  5
84
330
7A
100
AcDbEntity
  8
0
  6
Continuous
 62
     0
370
     0
100
AcDbLine
 10
2.5
 20
0.0
 30
0.0
 11
5.0
 21
0.0
 31
0.0
  0
ENDBLK
  5
7C
330
7A
100
AcDbEntity
  8
0
100
AcDbBlockEnd
  0
BLOCK
  5
AD
330
AC
100
AcDbEntity
  8
0
100
AcDbBlockBegin
  2
SW_CENTERMARKSYMBOL_3
 70
     0
 71
     0
 10
0.0
 20
0.0
 30
0.0
  3
SW_CENTERMARKSYMBOL_3
  1

  0
LINE
  5
AF
330
AC
100
AcDbEntity
  8
0
  6
Continuous
 62
     0
370
     0
100
AcDbLine
 10
0.0
 20
0.0
 30
0.0
 11
0.0
 21
2.5
 31
0.0
  0
LINE
  5
B0
330
AC
100
AcDbEntity
  8
0
  6
Continuous
 62
     0
370
     0
100
AcDbLine
 10
0.0
 20
0.0
 30
0.0
 11
-2.5
 21
0.0
 31
0.0
  0
LINE
  5
B1
330
AC
100
AcDbEntity
  8
0
  6
Continuous
 62
     0
370
     0
100
AcDbLine
 10
0.0
 20
0.0
 30
0.0
 11
0.0
 21
-2.5
 31
0.0
  0
LINE
  5
B2
330
AC
100
AcDbEntity
  8
0
  6
Continuous
 62
     0
370
     0
100
AcDbLine
 10
0.0
 20
0.0
 30
0.0
 11
2.5
 21
0.0
 31
0.0
  0
LINE
  5
B3
330
AC
100
AcDbEntity
  8
0
  6
Continuous
 62
     0
370
     0
100
AcDbLine
 10
0.0
 20
2.5
 30
0.0
 11
0.0
 21
5.0
 31
0.0
  0
LINE
  5
B4
330
AC
100
AcDbEntity
  8
0
  6
Continuous
 62
     0
370
     0
100
AcDbLine
 10
-2.5
 20
0.0
 30
0.0
 11
-5.0
 21
0.0
 31
0.0
  0
LINE
  5
B5
330
AC
100
AcDbEntity
  8
0
  6
Continuous
 62
     0
370
     0
100
AcDbLine
 10
0.0
 20
-2.5
 30
0.0
 11
0.0
 21
-5.0
 31
0.0
  0
LINE
  5
B6
330
AC
100
AcDbEntity
  8
0
  6
Continuous
 62
     0
370
     0
100
AcDbLine
 10
2.5
 20
0.0
 30
0.0
 11
5.0
 21
0.0
 31
0.0
  0
ENDBLK
  5
AE
330
AC
100
AcDbEntity
  8
0
100
AcDbBlockEnd
  0
BLOCK
  5
B9
330
B8
100
AcDbEntity
  8
0
100
AcDbBlockBegin
  2
SW_CENTERMARKSYMBOL_4
 70
     0
 71
     0
 10
0.0
 20
0.0
 30
0.0
  3
SW_CENTERMARKSYMBOL_4
  1

  0
LINE
  5
BB
330
B8
100
AcDbEntity
  8
0
  6
Continuous
 62
     0
370
     0
100
AcDbLine
 10
0.0
 20
0.0
 30
0.0
 11
0.0
 21
2.5
 31
0.0
  0
LINE
  5
BC
330
B8
100
AcDbEntity
  8
0
  6
Continuous
 62
     0
370
     0
100
AcDbLine
 10
0.0
 20
0.0
 30
0.0
 11
-2.5
 21
0.0
 31
0.0
  0
LINE
  5
BD
330
B8
100
AcDbEntity
  8
0
  6
Continuous
 62
     0
370
     0
100
AcDbLine
 10
0.0
 20
0.0
 30
0.0
 11
0.0
 21
-2.5
 31
0.0
  0
LINE
  5
BE
330
B8
100
AcDbEntity
  8
0
  6
Continuous
 62
     0
370
     0
100
AcDbLine
 10
0.0
 20
0.0
 30
0.0
 11
2.5
 21
0.0
 31
0.0
  0
LINE
  5
BF
330
B8
100
AcDbEntity
  8
0
  6
Continuous
 62
     0
370
     0
100
AcDbLine
 10
0.0
 20
2.5
 30
0.0
 11
0.0
 21
5.0
 31
0.0
  0
LINE
  5
C0
330
B8
100
AcDbEntity
  8
0
  6
Continuous
 62
     0
370
     0
100
AcDbLine
 10
-2.5
 20
0.0
 30
0.0
 11
-5.0
 21
0.0
 31
0.0
  0
LINE
  5
C1
330
B8
100
AcDbEntity
  8
0
  6
Continuous
 62
     0
370
     0
100
AcDbLine
 10
0.0
 20
-2.5
 30
0.0
 11
0.0
 21
-5.0
 31
0.0
  0
LINE
  5
C2
330
B8
100
AcDbEntity
  8
0
  6
Continuous
 62
     0
370
     0
100
AcDbLine
 10
2.5
 20
0.0
 30
0.0
 11
5.0
 21
0.0
 31
0.0
  0
ENDBLK
  5
BA
330
B8
100
AcDbEntity
  8
0
100
AcDbBlockEnd
  0
BLOCK
  5
FB
330
FA
100
AcDbEntity
  8
0
100
AcDbBlockBegin
  2
SW_CENTERMARKSYMBOL_5
 70
     0
 71
     0
 10
0.0
 20
0.0
 30
0.0
  3
SW_CENTERMARKSYMBOL_5
  1

  0
LINE
  5
FD
330
FA
100
AcDbEntity
  8
0
  6
Continuous
 62
     0
370
     0
100
AcDbLine
 10
0.0
 20
0.0
 30
0.0
 11
0.0
 21
2.5
 31
0.0
  0
LINE
  5
FE
330
FA
100
AcDbEntity
  8
0
  6
Continuous
 62
     0
370
     0
100
AcDbLine
 10
0.0
 20
0.0
 30
0.0
 11
-2.5
 21
0.0
 31
0.0
  0
LINE
  5
FF
330
FA
100
AcDbEntity
  8
0
  6
Continuous
 62
     0
370
     0
100
AcDbLine
 10
0.0
 20
0.0
 30
0.0
 11
0.0
 21
-2.5
 31
0.0
  0
LINE
  5
100
330
FA
100
AcDbEntity
  8
0
  6
Continuous
 62
     0
370
     0
100
AcDbLine
 10
0.0
 20
0.0
 30
0.0
 11
2.5
 21
0.0
 31
0.0
  0
LINE
  5
101
330
FA
100
AcDbEntity
  8
0
  6
Continuous
 62
     0
370
     0
100
AcDbLine
 10
0.0
 20
5.0
 30
0.0
 11
0.0
 21
6.0
 31
0.0
  0
LINE
  5
102
330
FA
100
AcDbEntity
  8
0
  6
Continuous
 62
     0
370
     0
100
AcDbLine
 10
-5.0
 20
0.0
 30
0.0
 11
-6.0
 21
0.0
 31
0.0
  0
LINE
  5
103
330
FA
100
AcDbEntity
  8
0
  6
Continuous
 62
     0
370
     0
100
AcDbLine
 10
0.0
 20
-5.0
 30
0.0
 11
0.0
 21
-6.0
 31
0.0
  0
LINE
  5
104
330
FA
100
AcDbEntity
  8
0
  6
Continuous
 62
     0
370
     0
100
AcDbLine
 10
5.0
 20
0.0
 30
0.0
 11
6.0
 21
0.0
 31
0.0
  0
ENDBLK
  5
FC
330
FA
100
AcDbEntity
  8
0
100
AcDbBlockEnd
  0
BLOCK
  5
107
330
106
100
AcDbEntity
  8
0
100
AcDbBlockBegin
  2
SW_CENTERMARKSYMBOL_6
 70
     0
 71
     0
 10
0.0
 20
0.0
 30
0.0
  3
SW_CENTERMARKSYMBOL_6
  1

  0
LINE
  5
109
330
106
100
AcDbEntity
  8
0
  6
Continuous
 62
     0
370
     0
100
AcDbLine
 10
0.0
 20
0.0
 30
0.0
 11
0.0
 21
2.5
 31
0.0
  0
LINE
  5
10A
330
106
100
AcDbEntity
  8
0
  6
Continuous
 62
     0
370
     0
100
AcDbLine
 10
0.0
 20
0.0
 30
0.0
 11
-2.5
 21
0.0
 31
0.0
  0
LINE
  5
10B
330
106
100
AcDbEntity
  8
0
  6
Continuous
 62
     0
370
     0
100
AcDbLine
 10
0.0
 20
0.0
 30
0.0
 11
0.0
 21
-2.5
 31
0.0
  0
LINE
  5
10C
330
106
100
AcDbEntity
  8
0
  6
Continuous
 62
     0
370
     0
100
AcDbLine
 10
0.0
 20
0.0
 30
0.0
 11
2.5
 21
0.0
 31
0.0
  0
LINE
  5
10D
330
106
100
AcDbEntity
  8
0
  6
Continuous
 62
     0
370
     0
100
AcDbLine
 10
0.0
 20
5.0
 30
0.0
 11
0.0
 21
6.0
 31
0.0
  0
LINE
  5
10E
330
106
100
AcDbEntity
  8
0
  6
Continuous
 62
     0
370
     0
100
AcDbLine
 10
-5.0
 20
0.0
 30
0.0
 11
-6.0
 21
0.0
 31
0.0
  0
LINE
  5
10F
330
106
100
AcDbEntity
  8
0
  6
Continuous
 62
     0
370
     0
100
AcDbLine
 10
0.0
 20
-5.0
 30
0.0
 11
0.0
 21
-6.0
 31
0.0
  0
LINE
  5
110
330
106
100
AcDbEntity
  8
0
  6
Continuous
 62
     0
370
     0
100
AcDbLine
 10
5.0
 20
0.0
 30
0.0
 11
6.0
 21
0.0
 31
0.0
  0
ENDBLK
  5
108
330
106
100
AcDbEntity
  8
0
100
AcDbBlockEnd
  0
BLOCK
  5
113
330
112
100
AcDbEntity
  8
0
100
AcDbBlockBegin
  2
SW_CENTERMARKSYMBOL_7
 70
     0
 71
     0
 10
0.0
 20
0.0
 30
0.0
  3
SW_CENTERMARKSYMBOL_7
  1

  0
LINE
  5
115
330
112
100
AcDbEntity
  8
0
  6
Continuous
 62
     0
370
     0
100
AcDbLine
 10
0.0
 20
0.0
 30
0.0
 11
0.0
 21
2.5
 31
0.0
  0
LINE
  5
116
330
112
100
AcDbEntity
  8
0
  6
Continuous
 62
     0
370
     0
100
AcDbLine
 10
0.0
 20
0.0
 30
0.0
 11
-2.5
 21
0.0
 31
0.0
  0
LINE
  5
117
330
112
100
AcDbEntity
  8
0
  6
Continuous
 62
     0
370
     0
100
AcDbLine
 10
0.0
 20
0.0
 30
0.0
 11
0.0
 21
-2.5
 31
0.0
  0
LINE
  5
118
330
112
100
AcDbEntity
  8
0
  6
Continuous
 62
     0
370
     0
100
AcDbLine
 10
0.0
 20
0.0
 30
0.0
 11
2.5
 21
0.0
 31
0.0
  0
LINE
  5
119
330
112
100
AcDbEntity
  8
0
  6
Continuous
 62
     0
370
     0
100
AcDbLine
 10
0.0
 20
5.0
 30
0.0
 11
0.0
 21
6.0
 31
0.0
  0
LINE
  5
11A
330
112
100
AcDbEntity
  8
0
  6
Continuous
 62
     0
370
     0
100
AcDbLine
 10
-5.0
 20
0.0
 30
0.0
 11
-6.0
 21
0.0
 31
0.0
  0
LINE
  5
11B
330
112
100
AcDbEntity
  8
0
  6
Continuous
 62
     0
370
     0
100
AcDbLine
 10
0.0
 20
-5.0
 30
0.0
 11
0.0
 21
-6.0
 31
0.0
  0
LINE
  5
11C
330
112
100
AcDbEntity
  8
0
  6
Continuous
 62
     0
370
     0
100
AcDbLine
 10
5.0
 20
0.0
 30
0.0
 11
6.0
 21
0.0
 31
0.0
  0
ENDBLK
  5
114
330
112
100
AcDbEntity
  8
0
100
AcDbBlockEnd
  0
BLOCK
  5
11F
330
11E
100
AcDbEntity
  8
0
100
AcDbBlockBegin
  2
SW_CENTERMARKSYMBOL_8
 70
     0
 71
     0
 10
0.0
 20
0.0
 30
0.0
  3
SW_CENTERMARKSYMBOL_8
  1

  0
LINE
  5
121
330
11E
100
AcDbEntity
  8
0
  6
Continuous
 62
     0
370
     0
100
AcDbLine
 10
0.0
 20
0.0
 30
0.0
 11
0.0
 21
2.5
 31
0.0
  0
LINE
  5
122
330
11E
100
AcDbEntity
  8
0
  6
Continuous
 62
     0
370
     0
100
AcDbLine
 10
0.0
 20
0.0
 30
0.0
 11
-2.5
 21
0.0
 31
0.0
  0
LINE
  5
123
330
11E
100
AcDbEntity
  8
0
  6
Continuous
 62
     0
370
     0
100
AcDbLine
 10
0.0
 20
0.0
 30
0.0
 11
0.0
 21
-2.5
 31
0.0
  0
LINE
  5
124
330
11E
100
AcDbEntity
  8
0
  6
Continuous
 62
     0
370
     0
100
AcDbLine
 10
0.0
 20
0.0
 30
0.0
 11
2.5
 21
0.0
 31
0.0
  0
LINE
  5
125
330
11E
100
AcDbEntity
  8
0
  6
Continuous
 62
     0
370
     0
100
AcDbLine
 10
0.0
 20
5.0
 30
0.0
 11
0.0
 21
6.0
 31
0.0
  0
LINE
  5
126
330
11E
100
AcDbEntity
  8
0
  6
Continuous
 62
     0
370
     0
100
AcDbLine
 10
-5.0
 20
0.0
 30
0.0
 11
-6.0
 21
0.0
 31
0.0
  0
LINE
  5
127
330
11E
100
AcDbEntity
  8
0
  6
Continuous
 62
     0
370
     0
100
AcDbLine
 10
0.0
 20
-5.0
 30
0.0
 11
0.0
 21
-6.0
 31
0.0
  0
LINE
  5
128
330
11E
100
AcDbEntity
  8
0
  6
Continuous
 62
     0
370
     0
100
AcDbLine
 10
5.0
 20
0.0
 30
0.0
 11
6.0
 21
0.0
 31
0.0
  0
ENDBLK
  5
120
330
11E
100
AcDbEntity
  8
0
100
AcDbBlockEnd
  0
BLOCK
  5
12B
330
12A
100
AcDbEntity
  8
0
100
AcDbBlockBegin
  2
SW_CENTERMARKSYMBOL_9
 70
     0
 71
     0
 10
0.0
 20
0.0
 30
0.0
  3
SW_CENTERMARKSYMBOL_9
  1

  0
LINE
  5
12D
330
12A
100
AcDbEntity
  8
0
  6
Continuous
 62
     0
370
     0
100
AcDbLine
 10
0.0
 20
0.0
 30
0.0
 11
0.0
 21
2.5
 31
0.0
  0
LINE
  5
12E
330
12A
100
AcDbEntity
  8
0
  6
Continuous
 62
     0
370
     0
100
AcDbLine
 10
0.0
 20
0.0
 30
0.0
 11
-2.5
 21
0.0
 31
0.0
  0
LINE
  5
12F
330
12A
100
AcDbEntity
  8
0
  6
Continuous
 62
     0
370
     0
100
AcDbLine
 10
0.0
 20
0.0
 30
0.0
 11
0.0
 21
-2.5
 31
0.0
  0
LINE
  5
130
330
12A
100
AcDbEntity
  8
0
  6
Continuous
 62
     0
370
     0
100
AcDbLine
 10
0.0
 20
0.0
 30
0.0
 11
2.5
 21
0.0
 31
0.0
  0
LINE
  5
131
330
12A
100
AcDbEntity
  8
0
  6
Continuous
 62
     0
370
     0
100
AcDbLine
 10
0.0
 20
5.0
 30
0.0
 11
0.0
 21
6.1
 31
0.0
  0
LINE
  5
132
330
12A
100
AcDbEntity
  8
0
  6
Continuous
 62
     0
370
     0
100
AcDbLine
 10
-5.0
 20
0.0
 30
0.0
 11
-6.1
 21
0.0
 31
0.0
  0
LINE
  5
133
330
12A
100
AcDbEntity
  8
0
  6
Continuous
 62
     0
370
     0
100
AcDbLine
 10
0.0
 20
-5.0
 30
0.0
 11
0.0
 21
-6.1
 31
0.0
  0
LINE
  5
134
330
12A
100
AcDbEntity
  8
0
  6
Continuous
 62
     0
370
     0
100
AcDbLine
 10
5.0
 20
0.0
 30
0.0
 11
6.1
 21
0.0
 31
0.0
  0
ENDBLK
  5
12C
330
12A
100
AcDbEntity
  8
0
100
AcDbBlockEnd
  0
BLOCK
  5
137
330
136
100
AcDbEntity
  8
0
100
AcDbBlockBegin
  2
SW_CENTERMARKSYMBOL_10
 70
     0
 71
     0
 10
0.0
 20
0.0
 30
0.0
  3
SW_CENTERMARKSYMBOL_10
  1

  0
LINE
  5
139
330
136
100
AcDbEntity
  8
0
  6
Continuous
 62
     0
370
     0
100
AcDbLine
 10
0.0
 20
0.0
 30
0.0
 11
0.0
 21
2.5
 31
0.0
  0
LINE
  5
13A
330
136
100
AcDbEntity
  8
0
  6
Continuous
 62
     0
370
     0
100
AcDbLine
 10
0.0
 20
0.0
 30
0.0
 11
-2.5
 21
0.0
 31
0.0
  0
LINE
  5
13B
330
136
100
AcDbEntity
  8
0
  6
Continuous
 62
     0
370
     0
100
AcDbLine
 10
0.0
 20
0.0
 30
0.0
 11
0.0
 21
-2.5
 31
0.0
  0
LINE
  5
13C
330
136
100
AcDbEntity
  8
0
  6
Continuous
 62
     0
370
     0
100
AcDbLine
 10
0.0
 20
0.0
 30
0.0
 11
2.5
 21
0.0
 31
0.0
  0
LINE
  5
13D
330
136
100
AcDbEntity
  8
0
  6
Continuous
 62
     0
370
     0
100
AcDbLine
 10
0.0
 20
2.5
 30
0.0
 11
0.0
 21
3.0
 31
0.0
  0
LINE
  5
13E
330
136
100
AcDbEntity
  8
0
  6
Continuous
 62
     0
370
     0
100
AcDbLine
 10
-2.5
 20
0.0
 30
0.0
 11
-3.0
 21
0.0
 31
0.0
  0
LINE
  5
13F
330
136
100
AcDbEntity
  8
0
  6
Continuous
 62
     0
370
     0
100
AcDbLine
 10
0.0
 20
-2.5
 30
0.0
 11
0.0
 21
-3.0
 31
0.0
  0
LINE
  5
140
330
136
100
AcDbEntity
  8
0
  6
Continuous
 62
     0
370
     0
100
AcDbLine
 10
2.5
 20
0.0
 30
0.0
 11
3.0
 21
0.0
 31
0.0
  0
ENDBLK
  5
138
330
136
100
AcDbEntity
  8
0
100
AcDbBlockEnd
  0
BLOCK
  5
143
330
142
100
AcDbEntity
  8
0
100
AcDbBlockBegin
  2
SW_CENTERMARKSYMBOL_11
 70
     0
 71
     0
 10
0.0
 20
0.0
 30
0.0
  3
SW_CENTERMARKSYMBOL_11
  1

  0
LINE
  5
145
330
142
100
AcDbEntity
  8
0
  6
Continuous
 62
     0
370
     0
100
AcDbLine
 10
0.0
 20
0.0
 30
0.0
 11
0.0
 21
2.5
 31
0.0
  0
LINE
  5
146
330
142
100
AcDbEntity
  8
0
  6
Continuous
 62
     0
370
     0
100
AcDbLine
 10
0.0
 20
0.0
 30
0.0
 11
-2.5
 21
0.0
 31
0.0
  0
LINE
  5
147
330
142
100
AcDbEntity
  8
0
  6
Continuous
 62
     0
370
     0
100
AcDbLine
 10
0.0
 20
0.0
 30
0.0
 11
0.0
 21
-2.5
 31
0.0
  0
LINE
  5
148
330
142
100
AcDbEntity
  8
0
  6
Continuous
 62
     0
370
     0
100
AcDbLine
 10
0.0
 20
0.0
 30
0.0
 11
2.5
 21
0.0
 31
0.0
  0
LINE
  5
149
330
142
100
AcDbEntity
  8
0
  6
Continuous
 62
     0
370
     0
100
AcDbLine
 10
0.0
 20
5.0
 30
0.0
 11
0.0
 21
6.1
 31
0.0
  0
LINE
  5
14A
330
142
100
AcDbEntity
  8
0
  6
Continuous
 62
     0
370
     0
100
AcDbLine
 10
-5.0
 20
0.0
 30
0.0
 11
-6.1
 21
0.0
 31
0.0
  0
LINE
  5
14B
330
142
100
AcDbEntity
  8
0
  6
Continuous
 62
     0
370
     0
100
AcDbLine
 10
0.0
 20
-5.0
 30
0.0
 11
0.0
 21
-6.1
 31
0.0
  0
LINE
  5
14C
330
142
100
AcDbEntity
  8
0
  6
Continuous
 62
     0
370
     0
100
AcDbLine
 10
5.0
 20
0.0
 30
0.0
 11
6.1
 21
0.0
 31
0.0
  0
ENDBLK
  5
144
330
142
100
AcDbEntity
  8
0
100
AcDbBlockEnd
  0
BLOCK
  5
14F
330
14E
100
AcDbEntity
  8
0
100
AcDbBlockBegin
  2
SW_CENTERMARKSYMBOL_12
 70
     0
 71
     0
 10
0.0
 20
0.0
 30
0.0
  3
SW_CENTERMARKSYMBOL_12
  1

  0
LINE
  5
151
330
14E
100
AcDbEntity
  8
0
  6
Continuous
 62
     0
370
     0
100
AcDbLine
 10
0.0
 20
0.0
 30
0.0
 11
0.0
 21
2.5
 31
0.0
  0
LINE
  5
152
330
14E
100
AcDbEntity
  8
0
  6
Continuous
 62
     0
370
     0
100
AcDbLine
 10
0.0
 20
0.0
 30
0.0
 11
-2.5
 21
0.0
 31
0.0
  0
LINE
  5
153
330
14E
100
AcDbEntity
  8
0
  6
Continuous
 62
     0
370
     0
100
AcDbLine
 10
0.0
 20
0.0
 30
0.0
 11
0.0
 21
-2.5
 31
0.0
  0
LINE
  5
154
330
14E
100
AcDbEntity
  8
0
  6
Continuous
 62
     0
370
     0
100
AcDbLine
 10
0.0
 20
0.0
 30
0.0
 11
2.5
 21
0.0
 31
0.0
  0
LINE
  5
155
330
14E
100
AcDbEntity
  8
0
  6
Continuous
 62
     0
370
     0
100
AcDbLine
 10
0.0
 20
2.5
 30
0.0
 11
0.0
 21
3.0
 31
0.0
  0
LINE
  5
156
330
14E
100
AcDbEntity
  8
0
  6
Continuous
 62
     0
370
     0
100
AcDbLine
 10
-2.5
 20
0.0
 30
0.0
 11
-3.0
 21
0.0
 31
0.0
  0
LINE
  5
157
330
14E
100
AcDbEntity
  8
0
  6
Continuous
 62
     0
370
     0
100
AcDbLine
 10
0.0
 20
-2.5
 30
0.0
 11
0.0
 21
-3.0
 31
0.0
  0
LINE
  5
158
330
14E
100
AcDbEntity
  8
0
  6
Continuous
 62
     0
370
     0
100
AcDbLine
 10
2.5
 20
0.0
 30
0.0
 11
3.0
 21
0.0
 31
0.0
  0
ENDBLK
  5
150
330
14E
100
AcDbEntity
  8
0
100
AcDbBlockEnd
  0
ENDSEC
  0
SECTION
  2
ENTITIES
  0
CIRCLE
  5
2F
330
1F
100
AcDbEntity
  8
0
  6
Continuous
 62
     7
370
     0
100
AcDbCircle
 10
161.7436129979
 20
82.66
 30
0.0
 40
1.249999999999972
  0
CIRCLE
  5
30
330
1F
100
AcDbEntity
  8
0
  6
Continuous
 62
     7
370
     0
100
AcDbCircle
 10
161.7436129979
 20
82.66
 30
0.0
 40
1.549999999999983
  0
CIRCLE
  5
31
330
1F
100
AcDbEntity
  8
0
  6
Continuous
 62
     7
370
     0
100
AcDbCircle
 10
103.7436129979
 20
82.66
 30
0.0
 40
1.25
  0
CIRCLE
  5
32
330
1F
100
AcDbEntity
  8
0
  6
Continuous
 62
     7
370
     0
100
AcDbCircle
 10
103.7436129979
 20
82.66
 30
0.0
 40
1.549999999999997
  0
CIRCLE
  5
33
330
1F
100
AcDbEntity
  8
0
  6
Continuous
 62
     7
370
     0
100
AcDbCircle
 10
132.7436129979
 20
93.11
 30
0.0
 40
2.5
  0
CIRCLE
  5
34
330
1F
100
AcDbEntity
  8
0
  6
Continuous
 62
     7
370
     0
100
AcDbCircle
 10
132.7436129979
 20
93.11
 30
0.0
 40
3.099999999999994
  0
LINE
  5
35
330
1F
100
AcDbEntity
  8
0
  6
Continuous
 62
     7
370
     0
100
AcDbLine
 10
98.5436129979
 20
62.8807106781
 30
0.0
 11
101.764323676
 21
59.66
 31
0.0
  0
LINE
  5
36
330
1F
100
AcDbEntity
  8
0
  6
Continuous
 62
     7
370
     0
100
AcDbLine
 10
98.5436129979
 20
98.41
 30
0.0
 11
98.5436129979
 21
62.8807106781
 31
0.0
  0
LINE
  5
37
330
1F
100
AcDbEntity
  8
0
  6
Continuous
 62
     7
370
     0
100
AcDbLine
 10
141.7436129979
 20
99.41
 30
0.0
 11
141.4936129979
 21
99.66
 31
0.0
  0
LINE
  5
38
330
1F
100
AcDbEntity
  8
0
  6
Continuous
 62
     7
370
     0
100
AcDbLine
 10
165.9436129979
 20
99.41
 30
0.0
 11
141.7436129979
 21
99.41
 31
0.0
  0
LINE
  5
39
330
1F
100
AcDbEntity
  8
0
  6
Continuous
 62
     7
370
     0
100
AcDbLine
 10
101.764323676
 20
59.66
 30
0.0
 11
117.2436129879
 21
59.66
 31
0.0
  0
ARC
  5
3A
330
1F
100
AcDbEntity
  8
0
  6
Continuous
 62
     7
370
     0
100
AcDbCircle
 10
116.6976129744
 20
65.056
 30
0.0
 40
3.24000000000003
100
AcDbArc
 50
279.701694
 51
359.010314
  0
LINE
  5
3B
330
1F
100
AcDbEntity
  8
0
  6
Continuous
 62
     7
370
     0
100
AcDbLine
 10
120.9936129879
 20
65.61
 30
0.0
 11
119.9371296332
 21
65.0000373582
 31
0.0
  0
ARC
  5
3C
330
1F
100
AcDbEntity
  8
0
  6
Continuous
 62
     7
370
     0
100
AcDbCircle
 10
99.5436129979
 20
98.41
 30
0.0
 40
1.000000000000014
100
AcDbArc
 50
90.0
 51
180.0
  0
LINE
  5
3D
330
1F
100
AcDbEntity
  8
0
  6
Continuous
 62
     7
370
     0
100
AcDbLine
 10
123.7436129979
 20
99.41
 30
0.0
 11
99.5436129979
 21
99.41
 31
0.0
  0
LINE
  5
3E
330
1F
100
AcDbEntity
  8
0
  6
Continuous
 62
     7
370
     0
100
AcDbLine
 10
123.9936129979
 20
99.66
 30
0.0
 11
123.7436129979
 21
99.41
 31
0.0
  0
LINE
  5
3F
330
1F
100
AcDbEntity
  8
0
  6
Continuous
 62
     7
370
     0
100
AcDbLine
 10
141.4936129979
 20
99.66
 30
0.0
 11
123.9936129979
 21
99.66
 31
0.0
  0
LINE
  5
40
330
1F
100
AcDbEntity
  8
0
  6
Continuous
 62
     7
370
     0
100
AcDbLine
 10
117.6486639879
 20
81.975051
 30
0.0
 11
117.2436129879
 21
81.57
 31
0.0
  0
LINE
  5
41
330
1F
100
AcDbEntity
  8
0
  6
Continuous
 62
     7
370
     0
100
AcDbLine
 10
117.0632089879
 20
84.16
 30
0.0
 11
117.6486639879
 21
81.975051
 31
0.0
  0
ARC
  5
42
330
1F
100
AcDbEntity
  8
0
  6
Continuous
 62
     7
370
     0
100
AcDbCircle
 10
165.9436129979
 20
98.41
 30
0.0
 40
1.0
100
AcDbArc
 50
0.0
 51
90.0
  0
LINE
  5
43
330
1F
100
AcDbEntity
  8
0
  6
Continuous
 62
     7
370
     0
100
AcDbLine
 10
166.9436129979
 20
62.8807106781
 30
0.0
 11
166.9436129979
 21
98.41
 31
0.0
  0
LINE
  5
44
330
1F
100
AcDbEntity
  8
0
  6
Continuous
 62
     7
370
     0
100
AcDbLine
 10
163.7229023198
 20
59.66
 30
0.0
 11
166.9436129979
 21
62.8807106781
 31
0.0
  0
LINE
  5
45
330
1F
100
AcDbEntity
  8
0
  6
Continuous
 62
     7
370
     0
100
AcDbLine
 10
148.2436130043
 20
59.66
 30
0.0
 11
163.7229023198
 21
59.66
 31
0.0
  0
LINE
  5
46
330
1F
100
AcDbEntity
  8
0
  6
Continuous
 62
     7
370
     0
100
AcDbLine
 10
144.4936114628
 20
75.4100013092
 30
0.0
 11
145.5500974628
 21
76.0199633092
 31
0.0
  0
LINE
  5
47
330
1F
100
AcDbEntity
  8
0
  6
Continuous
 62
     7
370
     0
100
AcDbLine
 10
144.4936114628
 20
65.6100013092
 30
0.0
 11
144.4936114628
 21
75.4100013092
 31
0.0
  0
LINE
  5
48
330
1F
100
AcDbEntity
  8
0
  6
Continuous
 62
     7
370
     0
100
AcDbLine
 10
145.5500974628
 20
65.0000383092
 30
0.0
 11
144.4936114628
 21
65.6100013092
 31
0.0
  0
ARC
  5
49
330
1F
100
AcDbEntity
  8
0
  6
Continuous
 62
     7
370
     0
100
AcDbCircle
 10
148.7896127954
 20
65.056001332
 30
0.0
 40
3.239998680625344
100
AcDbArc
 50
180.9896931412
 51
260.298306
  0
LINE
  5
4A
330
1F
100
AcDbEntity
  8
0
  6
Continuous
 62
     7
370
     0
100
AcDbLine
 10
148.4240169879
 20
84.16
 30
0.0
 11
117.0632089879
 21
84.16
 31
0.0
  0
LINE
  5
4B
330
1F
100
AcDbEntity
  8
0
  6
Continuous
 62
     7
370
     0
100
AcDbLine
 10
148.2436130043
 20
59.66
 30
0.0
 11
148.2436130043
 21
61.8623395343
 31
0.0
  0
LINE
  5
4C
330
1F
100
AcDbEntity
  8
0
  6
Continuous
 62
     7
370
     0
100
AcDbLine
 10
117.2436129879
 20
61.8623369017
 30
0.0
 11
117.2436129879
 21
59.66
 31
0.0
  0
LINE
  5
4D
330
1F
100
AcDbEntity
  8
0
  6
Continuous
 62
     7
370
     0
100
AcDbLine
 10
120.9936129879
 20
75.41
 30
0.0
 11
120.9936129879
 21
65.61
 31
0.0
  0
LINE
  5
4E
330
1F
100
AcDbEntity
  8
0
  6
Continuous
 62
     7
370
     0
100
AcDbLine
 10
119.9371296332
 20
76.0199626418
 30
0.0
 11
120.9936129879
 21
75.41
 31
0.0
  0
ARC
  5
4F
330
1F
100
AcDbEntity
  8
0
  6
Continuous
 62
     7
370
     0
100
AcDbCircle
 10
116.6976129744
 20
75.964
 30
0.0
 40
3.24000000000003
100
AcDbArc
 50
0.989686
 51
80.298306
  0
LINE
  5
50
330
1F
100
AcDbEntity
  8
0
  6
Continuous
 62
     7
370
     0
100
AcDbLine
 10
117.2436129879
 20
81.57
 30
0.0
 11
117.2436129879
 21
79.1576630983
 31
0.0
  0
LINE
  5
51
330
1F
100
AcDbEntity
  8
0
  6
Continuous
 62
     7
370
     0
100
AcDbLine
 10
147.8385619879
 20
81.975051
 30
0.0
 11
148.4240169879
 21
84.16
 31
0.0
  0
LINE
  5
52
330
1F
100
AcDbEntity
  8
0
  6
Continuous
 62
     7
370
     0
100
AcDbLine
 10
148.2436129879
 20
81.57
 30
0.0
 11
147.8385619879
 21
81.975051
 31
0.0
  0
LINE
  5
53
330
1F
100
AcDbEntity
  8
0
  6
Continuous
 62
     7
370
     0
100
AcDbLine
 10
148.2436129879
 20
79.157663
 30
0.0
 11
148.2436129879
 21
81.57
 31
0.0
  0
ARC
  5
54
330
1F
100
AcDbEntity
  8
0
  6
Continuous
 62
     7
370
     0
100
AcDbCircle
 10
148.7896127763
 20
75.9640012378
 30
0.0
 40
3.23999864506247
100
AcDbArc
 50
99.7016940579
 51
179.0103236746
  0
LINE
  5
55
330
1F
100
AcDbEntity
  8
0
  6
Continuous
 62
     7
370
     0
100
AcDbLine
 10
98.1436129979
 20
91.61
 30
0.0
 11
98.1436129979
 21
63.21
 31
0.0
  0
LINE
  5
56
330
1F
100
AcDbEntity
  8
0
  6
Continuous
 62
     7
370
     0
100
AcDbLine
 10
97.7436129979
 20
92.01
 30
0.0
 11
98.1436129979
 21
91.61
 31
0.0
  0
LINE
  5
57
330
1F
100
AcDbEntity
  8
0
  6
Continuous
 62
     7
370
     0
100
AcDbLine
 10
97.7436129979
 20
98.51
 30
0.0
 11
97.7436129979
 21
92.01
 31
0.0
  0
LINE
  5
58
330
1F
100
AcDbEntity
  8
0
  6
Continuous
 62
     7
370
     0
100
AcDbLine
 10
99.2436129979
 20
100.01
 30
0.0
 11
97.7436129979
 21
98.51
 31
0.0
  0
LINE
  5
59
330
1F
100
AcDbEntity
  8
0
  6
Continuous
 62
     7
370
     0
100
AcDbLine
 10
166.2436129979
 20
100.01
 30
0.0
 11
99.2436129979
 21
100.01
 31
0.0
  0
LINE
  5
5A
330
1F
100
AcDbEntity
  8
0
  6
Continuous
 62
     7
370
     0
100
AcDbLine
 10
167.7436129979
 20
63.61
 30
0.0
 11
167.7436129979
 21
98.51
 31
0.0
  0
LINE
  5
5B
330
1F
100
AcDbEntity
  8
0
  6
Continuous
 62
     7
370
     0
100
AcDbLine
 10
163.7436129979
 20
59.61
 30
0.0
 11
167.7436129979
 21
63.61
 31
0.0
  0
LINE
  5
5C
330
1F
100
AcDbEntity
  8
0
  6
Continuous
 62
     7
370
     0
100
AcDbLine
 10
148.2436130043
 20
59.61
 30
0.0
 11
163.7436129979
 21
59.61
 31
0.0
  0
LINE
  5
5D
330
1F
100
AcDbEntity
  8
0
  6
Continuous
 62
     7
370
     0
100
AcDbLine
 10
98.1436129979
 20
63.21
 30
0.0
 11
101.7436129979
 21
59.61
 31
0.0
  0
LINE
  5
5E
330
1F
100
AcDbEntity
  8
0
  6
Continuous
 62
     7
370
     0
100
AcDbLine
 10
101.7436129979
 20
59.61
 30
0.0
 11
117.2436129879
 21
59.61
 31
0.0
  0
LINE
  5
5F
330
1F
100
AcDbEntity
  8
0
  6
Continuous
 62
     7
370
     0
100
AcDbLine
 10
167.7436129979
 20
98.51
 30
0.0
 11
166.2436129979
 21
100.01
 31
0.0
  0
LINE
  5
60
330
1F
100
AcDbEntity
  8
0
  6
Continuous
 62
     7
370
     0
100
AcDbLine
 10
148.2436130043
 20
59.66
 30
0.0
 11
148.2436130043
 21
59.61
 31
0.0
  0
LINE
  5
61
330
1F
100
AcDbEntity
  8
0
  6
Continuous
 62
     7
370
     0
100
AcDbLine
 10
117.2436129879
 20
59.61
 30
0.0
 11
117.2436129879
 21
59.66
 31
0.0
  0
INSERT
  5
6D
330
1F
100
AcDbEntity
  8
0
  6
Continuous
 62
     7
370
     0
100
AcDbBlockReference
  2
SW_CENTERMARKSYMBOL_0
 10
103.7436129979
 20
82.66
 30
0.0
  0
INSERT
  5
79
330
1F
100
AcDbEntity
  8
0
  6
Continuous
 62
     7
370
     0
100
AcDbBlockReference
  2
SW_CENTERMARKSYMBOL_1
 10
161.7436129979
 20
82.66
 30
0.0
  0
INSERT
  5
85
330
1F
100
AcDbEntity
  8
0
  6
Continuous
 62
     7
370
     0
100
AcDbBlockReference
  2
SW_CENTERMARKSYMBOL_2
 10
132.7436129979
 20
93.11
 30
0.0
  0
ARC
  5
86
330
1F
100
AcDbEntity
  8
0
  6
Continuous
 62
     7
370
     0
100
AcDbCircle
 10
161.7436129979
 20
82.66
 30
0.0
 40
1.500000000000004
100
AcDbArc
 50
255.0
 51
195.0
  0
ARC
  5
87
330
1F
100
AcDbEntity
  8
0
  6
Continuous
 62
     7
370
     0
100
AcDbCircle
 10
103.7436129979
 20
82.66
 30
0.0
 40
1.500000000000011
100
AcDbArc
 50
255.0
 51
195.0
  0
ARC
  5
88
330
1F
100
AcDbEntity
  8
0
  6
HIDDEN
 62
     7
370
     0
100
AcDbCircle
 10
103.7436129979
 20
82.66
 30
0.0
 40
1.500000000000011
100
AcDbArc
 50
255.0
 51
195.0
  0
ARC
  5
89
330
1F
100
AcDbEntity
  8
0
  6
HIDDEN
 62
     7
370
     0
100
AcDbCircle
 10
161.7436129979
 20
82.66
 30
0.0
 40
1.500000000000004
100
AcDbArc
 50
255.0
 51
195.0
  0
ARC
  5
8A
330
1F
100
AcDbEntity
  8
0
  6
Continuous
 62
     7
370
     0
100
AcDbCircle
 10
132.7436129979
 20
93.11
 30
0.0
 40
2.999999999999994
100
AcDbArc
 50
255.0
 51
195.0
  0
ARC
  5
8B
330
1F
100
AcDbEntity
  8
0
  6
HIDDEN
 62
     7
370
     0
100
AcDbCircle
 10
132.7436129979
 20
93.11
 30
0.0
 40
2.999999999999994
100
AcDbArc
 50
255.0
 51
195.0
  0
LINE
  5
8C
330
1F
100
AcDbEntity
  8
0
  6
Continuous
 62
     7
370
     0
100
AcDbLine
 10
305.1236129979
 20
62.8807106781
 30
0.0
 11
288.3736129979
 21
62.8807106781
 31
0.0
  0
LINE
  5
8D
330
1F
100
AcDbEntity
  8
0
  6
Continuous
 62
     7
370
     0
100
AcDbLine
 10
305.1236129979
 20
62.8807106781
 30
0.0
 11
305.1236129979
 21
59.66
 31
0.0
  0
LINE
  5
8E
330
1F
100
AcDbEntity
  8
0
  6
Continuous
 62
     7
370
     0
100
AcDbLine
 10
305.1236129979
 20
59.66
 30
0.0
 11
288.3736129979
 21
59.66
 31
0.0
  0
LINE
  5
8F
330
1F
100
AcDbEntity
  8
0
  6
Continuous
 62
     7
370
     0
100
AcDbLine
 10
305.1236129979
 20
98.41
 30
0.0
 11
288.3736129979
 21
98.41
 31
0.0
  0
CIRCLE
  5
90
330
1F
100
AcDbEntity
  8
0
  6
Continuous
 62
     7
370
     0
100
AcDbCircle
 10
296.8736129979
 20
93.11
 30
0.0
 40
3.100000000000023
  0
LINE
  5
91
330
1F
100
AcDbEntity
  8
0
  6
Continuous
 62
     7
370
     0
100
AcDbLine
 10
305.1236129979
 20
98.41
 30
0.0
 11
305.1236129979
 21
62.8807106781
 31
0.0
  0
LINE
  5
92
330
1F
100
AcDbEntity
  8
0
  6
Continuous
 62
     7
370
     0
100
AcDbLine
 10
305.1236129979
 20
99.41
 30
0.0
 11
288.3736129979
 21
99.41
 31
0.0
  0
LINE
  5
93
330
1F
100
AcDbEntity
  8
0
  6
Continuous
 62
     7
370
     0
100
AcDbLine
 10
305.1236129979
 20
99.41
 30
0.0
 11
305.1236129979
 21
98.41
 31
0.0
  0
CIRCLE
  5
94
330
1F
100
AcDbEntity
  8
0
  6
Continuous
 62
     7
370
     0
100
AcDbCircle
 10
296.8736129979
 20
93.11
 30
0.0
 40
2.5
  0
LINE
  5
95
330
1F
100
AcDbEntity
  8
0
  6
Continuous
 62
     7
370
     0
100
AcDbLine
 10
305.1236129979
 20
99.66
 30
0.0
 11
288.3736129979
 21
99.66
 31
0.0
  0
LINE
  5
96
330
1F
100
AcDbEntity
  8
0
  6
Continuous
 62
     7
370
     0
100
AcDbLine
 10
305.1236129979
 20
99.66
 30
0.0
 11
305.1236129979
 21
99.41
 31
0.0
  0
LINE
  5
97
330
1F
100
AcDbEntity
  8
0
  6
Continuous
 62
     7
370
     0
100
AcDbLine
 10
194.6236129979
 20
62.8807106781
 30
0.0
 11
211.3736129979
 21
62.8807106781
 31
0.0
  0
LINE
  5
98
330
1F
100
AcDbEntity
  8
0
  6
Continuous
 62
     7
370
     0
100
AcDbLine
 10
194.6236129979
 20
62.8807106781
 30
0.0
 11
194.6236129979
 21
98.41
 31
0.0
  0
LINE
  5
99
330
1F
100
AcDbEntity
  8
0
  6
Continuous
 62
     7
370
     0
100
AcDbLine
 10
194.6236129979
 20
98.41
 30
0.0
 11
211.3736129979
 21
98.41
 31
0.0
  0
CIRCLE
  5
9A
330
1F
100
AcDbEntity
  8
0
  6
Continuous
 62
     7
370
     0
100
AcDbCircle
 10
202.8736129979
 20
93.11
 30
0.0
 40
3.100000000000023
  0
LINE
  5
9B
330
1F
100
AcDbEntity
  8
0
  6
Continuous
 62
     7
370
     0
100
AcDbLine
 10
194.6236129979
 20
59.66
 30
0.0
 11
211.3736129979
 21
59.66
 31
0.0
  0
LINE
  5
9C
330
1F
100
AcDbEntity
  8
0
  6
Continuous
 62
     7
370
     0
100
AcDbLine
 10
194.6236129979
 20
59.66
 30
0.0
 11
194.6236129979
 21
62.8807106781
 31
0.0
  0
LINE
  5
9D
330
1F
100
AcDbEntity
  8
0
  6
Continuous
 62
     7
370
     0
100
AcDbLine
 10
194.6236129979
 20
98.41
 30
0.0
 11
194.6236129979
 21
99.41
 31
0.0
  0
LINE
  5
9E
330
1F
100
AcDbEntity
  8
0
  6
Continuous
 62
     7
370
     0
100
AcDbLine
 10
194.6236129979
 20
99.41
 30
0.0
 11
211.3736129979
 21
99.41
 31
0.0
  0
CIRCLE
  5
9F
330
1F
100
AcDbEntity
  8
0
  6
Continuous
 62
     7
370
     0
100
AcDbCircle
 10
202.8736129979
 20
93.11
 30
0.0
 40
2.5
  0
LINE
  5
A0
330
1F
100
AcDbEntity
  8
0
  6
Continuous
 62
     7
370
     0
100
AcDbLine
 10
194.6236129979
 20
99.66
 30
0.0
 11
211.3736129979
 21
99.66
 31
0.0
  0
LINE
  5
A1
330
1F
100
AcDbEntity
  8
0
  6
Continuous
 62
     7
370
     0
100
AcDbLine
 10
194.6236129979
 20
99.41
 30
0.0
 11
194.6236129979
 21
99.66
 31
0.0
  0
LINE
  5
A2
330
1F
100
AcDbEntity
  8
0
  6
Continuous
 62
     7
370
     0
100
AcDbLine
 10
211.3736129979
 20
98.51
 30
0.0
 11
288.3736129979
 21
98.51
 31
0.0
  0
LINE
  5
A3
330
1F
100
AcDbEntity
  8
0
  6
Continuous
 62
     7
370
     0
100
AcDbLine
 10
211.3736129979
 20
98.51
 30
0.0
 11
211.3736129979
 21
100.01
 31
0.0
  0
LINE
  5
A4
330
1F
100
AcDbEntity
  8
0
  6
Continuous
 62
     7
370
     0
100
AcDbLine
 10
211.3736129979
 20
100.01
 30
0.0
 11
288.3736129979
 21
100.01
 31
0.0
  0
LINE
  5
A5
330
1F
100
AcDbEntity
  8
0
  6
Continuous
 62
     7
370
     0
100
AcDbLine
 10
288.3736129979
 20
98.51
 30
0.0
 11
288.3736129979
 21
100.01
 31
0.0
  0
LINE
  5
A6
330
1F
100
AcDbEntity
  8
0
  6
Continuous
 62
     7
370
     0
100
AcDbLine
 10
211.3736129979
 20
59.61
 30
0.0
 11
288.3736129979
 21
59.61
 31
0.0
  0
LINE
  5
A7
330
1F
100
AcDbEntity
  8
0
  6
Continuous
 62
     7
370
     0
100
AcDbLine
 10
211.3736129979
 20
59.61
 30
0.0
 11
211.3736129979
 21
63.61
 31
0.0
  0
LINE
  5
A8
330
1F
100
AcDbEntity
  8
0
  6
Continuous
 62
     7
370
     0
100
AcDbLine
 10
211.3736129979
 20
63.61
 30
0.0
 11
288.3736129979
 21
63.61
 31
0.0
  0
LINE
  5
A9
330
1F
100
AcDbEntity
  8
0
  6
Continuous
 62
     7
370
     0
100
AcDbLine
 10
288.3736129979
 20
59.61
 30
0.0
 11
288.3736129979
 21
63.61
 31
0.0
  0
LINE
  5
AA
330
1F
100
AcDbEntity
  8
0
  6
Continuous
 62
     7
370
     0
100
AcDbLine
 10
211.3736129979
 20
63.61
 30
0.0
 11
211.3736129979
 21
98.51
 31
0.0
  0
LINE
  5
AB
330
1F
100
AcDbEntity
  8
0
  6
Continuous
 62
     7
370
     0
100
AcDbLine
 10
288.3736129979
 20
63.61
 30
0.0
 11
288.3736129979
 21
98.51
 31
0.0
  0
INSERT
  5
B7
330
1F
100
AcDbEntity
  8
0
  6
Continuous
 62
     7
370
     0
100
AcDbBlockReference
  2
SW_CENTERMARKSYMBOL_3
 10
296.8736129979
 20
93.11
 30
0.0
  0
INSERT
  5
C3
330
1F
100
AcDbEntity
  8
0
  6
Continuous
 62
     7
370
     0
100
AcDbBlockReference
  2
SW_CENTERMARKSYMBOL_4
 10
202.8736129979
 20
93.11
 30
0.0
  0
ARC
  5
C4
330
1F
100
AcDbEntity
  8
0
  6
Continuous
 62
     7
370
     0
100
AcDbCircle
 10
296.8736129979
 20
93.11
 30
0.0
 40
3.000000000000022
100
AcDbArc
 50
255.0
 51
195.0
  0
ARC
  5
C5
330
1F
100
AcDbEntity
  8
0
  6
Continuous
 62
     7
370
     0
100
AcDbCircle
 10
202.8736129979
 20
93.11
 30
0.0
 40
3.000000000000001
100
AcDbArc
 50
255.0
 51
195.0
  0
LINE
  5
C6
330
1F
100
AcDbEntity
  8
0
  6
Continuous
 62
     7
370
     0
100
AcDbLine
 10
141.4936129979
 20
237.39
 30
0.0
 11
141.4936129979
 21
220.64
 31
0.0
  0
LINE
  5
C7
330
1F
100
AcDbEntity
  8
0
  6
Continuous
 62
     7
370
     0
100
AcDbLine
 10
141.4936129979
 20
237.39
 30
0.0
 11
141.7436129979
 21
237.39
 31
0.0
  0
LINE
  5
C8
330
1F
100
AcDbEntity
  8
0
  6
Continuous
 62
     7
370
     0
100
AcDbLine
 10
141.7436129979
 20
237.39
 30
0.0
 11
141.7436129979
 21
220.64
 31
0.0
  0
LINE
  5
C9
330
1F
100
AcDbEntity
  8
0
  6
Continuous
 62
     7
370
     0
100
AcDbLine
 10
123.9936129979
 20
237.39
 30
0.0
 11
123.9936129979
 21
220.64
 31
0.0
  0
CIRCLE
  5
CA
330
1F
100
AcDbEntity
  8
0
  6
Continuous
 62
     7
370
     0
100
AcDbCircle
 10
132.7436129979
 20
227.64
 30
0.0
 40
3.599999999999994
  0
LINE
  5
CB
330
1F
100
AcDbEntity
  8
0
  6
Continuous
 62
     7
370
     0
100
AcDbLine
 10
123.9936129979
 20
237.39
 30
0.0
 11
141.4936129979
 21
237.39
 31
0.0
  0
LINE
  5
CC
330
1F
100
AcDbEntity
  8
0
  6
Continuous
 62
     7
370
     0
100
AcDbLine
 10
123.7436129979
 20
237.39
 30
0.0
 11
123.7436129979
 21
220.64
 31
0.0
  0
LINE
  5
CD
330
1F
100
AcDbEntity
  8
0
  6
Continuous
 62
     7
370
     0
100
AcDbLine
 10
123.7436129979
 20
237.39
 30
0.0
 11
123.9936129979
 21
237.39
 31
0.0
  0
LINE
  5
CE
330
1F
100
AcDbEntity
  8
0
  6
Continuous
 62
     7
370
     0
100
AcDbLine
 10
165.9436129979
 20
237.39
 30
0.0
 11
165.9436129979
 21
220.64
 31
0.0
  0
LINE
  5
CF
330
1F
100
AcDbEntity
  8
0
  6
Continuous
 62
     7
370
     0
100
AcDbLine
 10
141.7436129979
 20
237.39
 30
0.0
 11
165.9436129979
 21
237.39
 31
0.0
  0
LINE
  5
D0
330
1F
100
AcDbEntity
  8
0
  6
Continuous
 62
     7
370
     0
100
AcDbLine
 10
166.9436129979
 20
237.39
 30
0.0
 11
166.9436129979
 21
220.64
 31
0.0
  0
LINE
  5
D1
330
1F
100
AcDbEntity
  8
0
  6
Continuous
 62
     7
370
     0
100
AcDbLine
 10
165.9436129979
 20
237.39
 30
0.0
 11
166.9436129979
 21
237.39
 31
0.0
  0
LINE
  5
D2
330
1F
100
AcDbEntity
  8
0
  6
Continuous
 62
     7
370
     0
100
AcDbLine
 10
98.5436129979
 20
237.39
 30
0.0
 11
98.5436129979
 21
220.64
 31
0.0
  0
LINE
  5
D3
330
1F
100
AcDbEntity
  8
0
  6
Continuous
 62
     7
370
     0
100
AcDbLine
 10
99.5436129979
 20
237.39
 30
0.0
 11
99.5436129979
 21
220.64
 31
0.0
  0
LINE
  5
D4
330
1F
100
AcDbEntity
  8
0
  6
Continuous
 62
     7
370
     0
100
AcDbLine
 10
98.5436129979
 20
237.39
 30
0.0
 11
99.5436129979
 21
237.39
 31
0.0
  0
LINE
  5
D5
330
1F
100
AcDbEntity
  8
0
  6
Continuous
 62
     7
370
     0
100
AcDbLine
 10
99.5436129979
 20
237.39
 30
0.0
 11
123.7436129979
 21
237.39
 31
0.0
  0
CIRCLE
  5
D6
330
1F
100
AcDbEntity
  8
0
  6
Continuous
 62
     7
370
     0
100
AcDbCircle
 10
132.7436129979
 20
226.44
 30
0.0
 40
0.5
  0
LINE
  5
D7
330
1F
100
AcDbEntity
  8
0
  6
Continuous
 62
     7
370
     0
100
AcDbLine
 10
141.4936129979
 20
126.89
 30
0.0
 11
141.4936129979
 21
143.64
 31
0.0
  0
LINE
  5
D8
330
1F
100
AcDbEntity
  8
0
  6
Continuous
 62
     7
370
     0
100
AcDbLine
 10
141.4936129979
 20
126.89
 30
0.0
 11
123.9936129979
 21
126.89
 31
0.0
  0
LINE
  5
D9
330
1F
100
AcDbEntity
  8
0
  6
Continuous
 62
     7
370
     0
100
AcDbLine
 10
123.9936129979
 20
126.89
 30
0.0
 11
123.9936129979
 21
143.64
 31
0.0
  0
CIRCLE
  5
DA
330
1F
100
AcDbEntity
  8
0
  6
Continuous
 62
     7
370
     0
100
AcDbCircle
 10
132.7436129979
 20
136.64
 30
0.0
 40
3.599999999999994
  0
LINE
  5
DB
330
1F
100
AcDbEntity
  8
0
  6
Continuous
 62
     7
370
     0
100
AcDbLine
 10
141.7436129979
 20
126.89
 30
0.0
 11
141.7436129979
 21
143.64
 31
0.0
  0
LINE
  5
DC
330
1F
100
AcDbEntity
  8
0
  6
Continuous
 62
     7
370
     0
100
AcDbLine
 10
141.7436129979
 20
126.89
 30
0.0
 11
141.4936129979
 21
126.89
 31
0.0
  0
LINE
  5
DD
330
1F
100
AcDbEntity
  8
0
  6
Continuous
 62
     7
370
     0
100
AcDbLine
 10
123.9936129979
 20
126.89
 30
0.0
 11
123.7436129979
 21
126.89
 31
0.0
  0
LINE
  5
DE
330
1F
100
AcDbEntity
  8
0
  6
Continuous
 62
     7
370
     0
100
AcDbLine
 10
123.7436129979
 20
126.89
 30
0.0
 11
123.7436129979
 21
143.64
 31
0.0
  0
LINE
  5
DF
330
1F
100
AcDbEntity
  8
0
  6
Continuous
 62
     7
370
     0
100
AcDbLine
 10
165.9436129979
 20
126.89
 30
0.0
 11
165.9436129979
 21
143.64
 31
0.0
  0
LINE
  5
E0
330
1F
100
AcDbEntity
  8
0
  6
Continuous
 62
     7
370
     0
100
AcDbLine
 10
165.9436129979
 20
126.89
 30
0.0
 11
141.7436129979
 21
126.89
 31
0.0
  0
LINE
  5
E1
330
1F
100
AcDbEntity
  8
0
  6
Continuous
 62
     7
370
     0
100
AcDbLine
 10
166.9436129979
 20
126.89
 30
0.0
 11
166.9436129979
 21
143.64
 31
0.0
  0
LINE
  5
E2
330
1F
100
AcDbEntity
  8
0
  6
Continuous
 62
     7
370
     0
100
AcDbLine
 10
166.9436129979
 20
126.89
 30
0.0
 11
165.9436129979
 21
126.89
 31
0.0
  0
LINE
  5
E3
330
1F
100
AcDbEntity
  8
0
  6
Continuous
 62
     7
370
     0
100
AcDbLine
 10
99.5436129979
 20
126.89
 30
0.0
 11
99.5436129979
 21
143.64
 31
0.0
  0
LINE
  5
E4
330
1F
100
AcDbEntity
  8
0
  6
Continuous
 62
     7
370
     0
100
AcDbLine
 10
98.5436129979
 20
126.89
 30
0.0
 11
98.5436129979
 21
143.64
 31
0.0
  0
LINE
  5
E5
330
1F
100
AcDbEntity
  8
0
  6
Continuous
 62
     7
370
     0
100
AcDbLine
 10
99.5436129979
 20
126.89
 30
0.0
 11
98.5436129979
 21
126.89
 31
0.0
  0
LINE
  5
E6
330
1F
100
AcDbEntity
  8
0
  6
Continuous
 62
     7
370
     0
100
AcDbLine
 10
123.7436129979
 20
126.89
 30
0.0
 11
99.5436129979
 21
126.89
 31
0.0
  0
CIRCLE
  5
E7
330
1F
100
AcDbEntity
  8
0
  6
Continuous
 62
     7
370
     0
100
AcDbCircle
 10
132.7436129979
 20
137.64
 30
0.0
 40
0.5
  0
LINE
  5
E8
330
1F
100
AcDbEntity
  8
0
  6
Continuous
 62
     7
370
     0
100
AcDbLine
 10
99.2436129979
 20
143.64
 30
0.0
 11
99.2436129979
 21
220.64
 31
0.0
  0
LINE
  5
E9
330
1F
100
AcDbEntity
  8
0
  6
Continuous
 62
     7
370
     0
100
AcDbLine
 10
99.2436129979
 20
143.64
 30
0.0
 11
97.7436129979
 21
143.64
 31
0.0
  0
LINE
  5
EA
330
1F
100
AcDbEntity
  8
0
  6
Continuous
 62
     7
370
     0
100
AcDbLine
 10
97.7436129979
 20
143.64
 30
0.0
 11
97.7436129979
 21
220.64
 31
0.0
  0
LINE
  5
EB
330
1F
100
AcDbEntity
  8
0
  6
Continuous
 62
     7
370
     0
100
AcDbLine
 10
99.2436129979
 20
220.64
 30
0.0
 11
97.7436129979
 21
220.64
 31
0.0
  0
LINE
  5
EC
330
1F
100
AcDbEntity
  8
0
  6
Continuous
 62
     7
370
     0
100
AcDbLine
 10
166.2436129979
 20
143.64
 30
0.0
 11
166.2436129979
 21
220.64
 31
0.0
  0
LINE
  5
ED
330
1F
100
AcDbEntity
  8
0
  6
Continuous
 62
     7
370
     0
100
AcDbLine
 10
166.2436129979
 20
143.64
 30
0.0
 11
99.2436129979
 21
143.64
 31
0.0
  0
CIRCLE
  5
EE
330
1F
100
AcDbEntity
  8
0
  6
Continuous
 62
     7
370
     0
100
AcDbCircle
 10
107.7436129979
 20
207.14
 30
0.0
 40
4.000000000000227
  0
CIRCLE
  5
EF
330
1F
100
AcDbEntity
  8
0
  6
Continuous
 62
     7
370
     0
100
AcDbCircle
 10
157.7436129979
 20
207.14
 30
0.0
 40
3.999999999999773
  0
CIRCLE
  5
F0
330
1F
100
AcDbEntity
  8
0
  6
Continuous
 62
     7
370
     0
100
AcDbCircle
 10
157.7436129979
 20
157.14
 30
0.0
 40
3.999999999999744
  0
CIRCLE
  5
F1
330
1F
100
AcDbEntity
  8
0
  6
Continuous
 62
     7
370
     0
100
AcDbCircle
 10
107.7436129979
 20
157.14
 30
0.0
 40
4.000000000000227
  0
LINE
  5
F2
330
1F
100
AcDbEntity
  8
0
  6
Continuous
 62
     7
370
     0
100
AcDbLine
 10
166.2436129979
 20
220.64
 30
0.0
 11
99.2436129979
 21
220.64
 31
0.0
  0
CIRCLE
  5
F3
330
1F
100
AcDbEntity
  8
0
  6
Continuous
 62
     7
370
     0
100
AcDbCircle
 10
107.7436129979
 20
207.14
 30
0.0
 40
3.5
  0
CIRCLE
  5
F4
330
1F
100
AcDbEntity
  8
0
  6
Continuous
 62
     7
370
     0
100
AcDbCircle
 10
107.7436129979
 20
157.14
 30
0.0
 40
3.5
  0
CIRCLE
  5
F5
330
1F
100
AcDbEntity
  8
0
  6
Continuous
 62
     7
370
     0
100
AcDbCircle
 10
157.7436129979
 20
207.14
 30
0.0
 40
3.5
  0
LINE
  5
F6
330
1F
100
AcDbEntity
  8
0
  6
Continuous
 62
     7
370
     0
100
AcDbLine
 10
167.7436129979
 20
143.64
 30
0.0
 11
167.7436129979
 21
220.64
 31
0.0
  0
LINE
  5
F7
330
1F
100
AcDbEntity
  8
0
  6
Continuous
 62
     7
370
     0
100
AcDbLine
 10
167.7436129979
 20
143.64
 30
0.0
 11
166.2436129979
 21
143.64
 31
0.0
  0
LINE
  5
F8
330
1F
100
AcDbEntity
  8
0
  6
Continuous
 62
     7
370
     0
100
AcDbLine
 10
167.7436129979
 20
220.64
 30
0.0
 11
166.2436129979
 21
220.64
 31
0.0
  0
CIRCLE
  5
F9
330
1F
100
AcDbEntity
  8
0
  6
Continuous
 62
     7
370
     0
100
AcDbCircle
 10
157.7436129979
 20
157.14
 30
0.0
 40
3.499999999999972
  0
INSERT
  5
105
330
1F
100
AcDbEntity
  8
0
  6
Continuous
 62
     7
370
     0
100
AcDbBlockReference
  2
SW_CENTERMARKSYMBOL_5
 10
107.7436129979
 20
157.14
 30
0.0
  0
INSERT
  5
111
330
1F
100
AcDbEntity
  8
0
  6
Continuous
 62
     7
370
     0
100
AcDbBlockReference
  2
SW_CENTERMARKSYMBOL_6
 10
157.7436129979
 20
157.14
 30
0.0
  0
INSERT
  5
11D
330
1F
100
AcDbEntity
  8
0
  6
Continuous
 62
     7
370
     0
100
AcDbBlockReference
  2
SW_CENTERMARKSYMBOL_7
 10
157.7436129979
 20
207.14
 30
0.0
  0
INSERT
  5
129
330
1F
100
AcDbEntity
  8
0
  6
Continuous
 62
     7
370
     0
100
AcDbBlockReference
  2
SW_CENTERMARKSYMBOL_8
 10
107.7436129979
 20
207.14
 30
0.0
  0
INSERT
  5
135
330
1F
100
AcDbEntity
  8
0
  6
Continuous
 62
     7
370
     0
100
AcDbBlockReference
  2
SW_CENTERMARKSYMBOL_9
 10
132.7436129979
 20
227.64
 30
0.0
  0
INSERT
  5
141
330
1F
100
AcDbEntity
  8
0
  6
Continuous
 62
     7
370
     0
100
AcDbBlockReference
  2
SW_CENTERMARKSYMBOL_10
 10
132.7436129979
 20
226.44
 30
0.0
  0
INSERT
  5
14D
330
1F
100
AcDbEntity
  8
0
  6
Continuous
 62
     7
370
     0
100
AcDbBlockReference
  2
SW_CENTERMARKSYMBOL_11
 10
132.7436129979
 20
136.64
 30
0.0
  0
INSERT
  5
159
330
1F
100
AcDbEntity
  8
0
  6
Continuous
 62
     7
370
     0
100
AcDbBlockReference
  2
SW_CENTERMARKSYMBOL_12
 10
132.7436129979
 20
137.64
 30
0.0
  0
ARC
  5
15A
330
1F
100
AcDbEntity
  8
0
  6
Continuous
 62
     7
370
     0
100
AcDbCircle
 10
107.7436129979
 20
157.14
 30
0.0
 40
4.000000000000021
100
AcDbArc
 50
255.0
 51
195.0
  0
ARC
  5
15B
330
1F
100
AcDbEntity
  8
0
  6
Continuous
 62
     7
370
     0
100
AcDbCircle
 10
157.7436129979
 20
157.14
 30
0.0
 40
4.000000000000025
100
AcDbArc
 50
255.0
 51
195.0
  0
ARC
  5
15C
330
1F
100
AcDbEntity
  8
0
  6
Continuous
 62
     7
370
     0
100
AcDbCircle
 10
157.7436129979
 20
207.14
 30
0.0
 40
4.000000000000044
100
AcDbArc
 50
255.0
 51
195.0
  0
ARC
  5
15D
330
1F
100
AcDbEntity
  8
0
  6
Continuous
 62
     7
370
     0
100
AcDbCircle
 10
107.7436129979
 20
207.14
 30
0.0
 40
4.000000000000049
100
AcDbArc
 50
255.0
 51
195.0
  0
LINE
  5
15E
330
1F
100
AcDbEntity
  8
0
  6
Continuous
 62
     7
370
     0
100
AcDbLine
 10
273.5317451588
 20
232.3838971549
 30
0.0
 11
262.3191394107
 21
225.9109976361
 31
0.0
  0
LINE
  5
15F
330
1F
100
AcDbEntity
  8
0
  6
Continuous
 62
     7
370
     0
100
AcDbLine
 10
230.3325054408
 20
151.4990567278
 30
0.0
 11
229.0987179242
 21
150.7868063552
 31
0.0
  0
LINE
  5
160
330
1F
100
AcDbEntity
  8
0
  6
Continuous
 62
     7
370
     0
100
AcDbLine
 10
207.2404844226
 20
194.1147669132
 30
0.0
 11
195.3964458377
 21
187.2773489767
 31
0.0
  0
LINE
  5
161
330
1F
100
AcDbEntity
  8
0
  6
Continuous
 62
     7
370
     0
100
AcDbLine
 10
209.6459832588
 20
149.3680671951
 30
0.0
 11
221.4900218437
 21
156.2054851316
 31
0.0
  0
LINE
  5
162
330
1F
100
AcDbEntity
  8
0
  6
Continuous
 62
     7
370
     0
100
AcDbLine
 10
221.4900218437
 20
156.2054851316
 30
0.0
 11
224.777141888
 21
158.1030991413
 31
0.0
  0
ARC
  5
163
330
1F
100
AcDbEntity
  8
0
  6
Continuous
 62
     7
370
     0
100
AcDbCircle
 10
320.1554854758
 20
203.9350340718
 30
0.0
 40
1.536804807572132
100
AcDbArc
 50
2.6054784857
 51
57.39452166
  0
LINE
  5
164
330
1F
100
AcDbEntity
  8
0
  6
Continuous
 62
     7
370
     0
100
AcDbLine
 10
321.6907015771
 20
204.0048949241
 30
0.0
 11
321.6907015771
 21
174.9937801755
 31
0.0
  0
LINE
  5
165
330
1F
100
AcDbEntity
  8
0
  6
Continuous
 62
     7
370
     0
100
AcDbLine
 10
321.6907015771
 20
174.9937801755
 30
0.0
 11
310.4123484172
 21
168.4829254837
 31
0.0
  0
LWPOLYLINE
  5
166
330
1F
100
AcDbEntity
  8
0
  6
Continuous
 62
     7
370
     0
100
AcDbPolyline
 90
       30
 70
   128
 43
0.0
 10
315.8570706323
 20
193.778268643
 10
315.3858487587
 20
193.565417884
 10
314.9366606961
 20
193.4808794665
 10
314.5305099791
 20
193.528606313
 10
314.186387764
 20
193.7063667691
 10
313.9203848229
 20
194.0058489536
 10
313.7449391578
 20
194.4130494124
 10
313.668254413
 20
194.9089279044
 10
313.6939162819
 20
195.4702977027
 10
313.8207248441
 20
196.0709097793
 10
314.0427506721
 20
196.6826801811
 10
314.3496120849
 20
197.277003204
 10
314.7269605841
 20
197.826088964
 10
315.157151773
 20
198.3042628212
 10
315.6200703899
 20
198.6891658976
 10
316.0940708748
 20
198.962800553
 10
316.5569894917
 20
199.1123719351
 10
316.9871806806
 20
199.1308862523
 10
317.3645291797
 20
199.0174777958
 10
317.6713905926
 20
198.7774494188
 10
317.8934164206
 20
198.4220245816
 10
318.0202249828
 20
197.9678225544
 10
318.0458868517
 20
197.4360813193
 10
317.9692021069
 20
196.8516645055
 10
317.7937564418
 20
196.2418987936
 10
317.5277535007
 20
195.6352961506
 10
317.1836312856
 20
195.0602206418
 10
316.7774805686
 20
194.5435621591
 10
316.328292506
 20
194.1094790786
 10
315.8570706323
 20
193.778268643
  0
LINE
  5
167
330
1F
100
AcDbEntity
  8
0
  6
Continuous
 62
     7
370
     0
100
AcDbLine
 10
303.8716106912
 20
215.108177945
 30
0.0
 11
292.4519051355
 21
208.515722252
 31
0.0
  0
LINE
  5
168
330
1F
100
AcDbEntity
  8
0
  6
Continuous
 62
     7
370
     0
100
AcDbLine
 10
303.8716106912
 20
215.108177945
 30
0.0
 11
320.983594796
 21
205.2296397919
 31
0.0
  0
LWPOLYLINE
  5
169
330
1F
100
AcDbEntity
  8
0
  6
Continuous
 62
     7
370
     0
100
AcDbPolyline
 90
       21
 70
   128
 43
0.0
 10
313.6764660891
 20
195.3088284059
 10
313.7164077055
 20
195.0750841065
 10
313.8675266632
 20
194.7021871504
 10
314.1096139991
 20
194.4369380008
 10
314.4286004772
 20
194.2947519742
 10
314.805947763
 20
194.2838924057
 10
315.2197258037
 20
194.4049904139
 10
315.6458873236
 20
194.6510082227
 10
316.0596653643
 20
195.0076481714
 10
316.4370126501
 20
195.4541836424
 10
316.7559991282
 20
195.9646636173
 10
316.9980864641
 20
196.5094208554
 10
317.1492054217
 20
197.0567960462
 10
317.2005735166
 20
197.5749777332
 10
317.1492054217
 20
198.0338510802
 10
316.9980864641
 20
198.4067480364
 10
316.7559991282
 20
198.671997186
 10
316.4370126501
 20
198.8141832125
 10
316.0596653643
 20
198.825042781
 10
315.6458873236
 20
198.7039447729
 10
315.6331903301
 20
198.6983414688
  0
LINE
  5
16A
330
1F
100
AcDbEntity
  8
0
  6
Continuous
 62
     7
370
     0
100
AcDbLine
 10
303.6948339959
 20
215.4143641619
 30
0.0
 11
292.0983230114
 21
208.7198408675
 31
0.0
  0
LINE
  5
16B
330
1F
100
AcDbEntity
  8
0
  6
Continuous
 62
     7
370
     0
100
AcDbLine
 10
303.6948339959
 20
215.4143641619
 30
0.0
 11
303.8716106912
 21
215.108177945
 31
0.0
  0
LINE
  5
16C
330
1F
100
AcDbEntity
  8
0
  6
Continuous
 62
     7
370
     0
100
AcDbLine
 10
291.3204653252
 20
222.5579351404
 30
0.0
 11
279.7239543406
 21
215.8634118459
 31
0.0
  0
LWPOLYLINE
  5
16D
330
1F
100
AcDbEntity
  8
0
  6
Continuous
 62
     7
370
     0
100
AcDbPolyline
 90
       33
 70
   128
 43
0.0
 10
288.0677741317
 20
216.4756947073
 10
287.6200679397
 20
216.1607660334
 10
287.2873922269
 20
215.8014665012
 10
287.0825315345
 20
215.4116037903
 10
287.013358544
 20
215.006160106
 10
287.0825315345
 20
214.6007164217
 10
287.2873922269
 20
214.2108537107
 10
287.6200679397
 20
213.8515541786
 10
288.0677741317
 20
213.5366255047
 10
288.6133057051
 20
213.2781702214
 10
289.2356981875
 20
213.0861206204
 10
289.9110333847
 20
212.9678570599
 10
290.613358544
 20
212.9279243425
 10
291.3156837032
 20
212.9678570599
 10
291.9910189005
 20
213.0861206204
 10
292.6134113829
 20
213.2781702214
 10
293.1589429563
 20
213.5366255047
 10
293.6066491483
 20
213.8515541786
 10
293.939324861
 20
214.2108537107
 10
294.1441855534
 20
214.6007164217
 10
294.213358544
 20
215.006160106
 10
294.1441855534
 20
215.4116037903
 10
293.939324861
 20
215.8014665012
 10
293.6066491483
 20
216.1607660334
 10
293.1589429563
 20
216.4756947073
 10
292.6134113829
 20
216.7341499905
 10
291.9910189005
 20
216.9261995916
 10
291.3156837032
 20
217.044463152
 10
290.613358544
 20
217.0843958695
 10
289.9110333847
 20
217.044463152
 10
289.2356981875
 20
216.9261995916
 10
288.6133057051
 20
216.7341499905
 10
288.0677741317
 20
216.4756947073
  0
LINE
  5
16E
330
1F
100
AcDbEntity
  8
0
  6
Continuous
 62
     7
370
     0
100
AcDbLine
 10
291.3204653252
 20
222.5579351404
 30
0.0
 11
303.6948339959
 21
215.4143641619
 31
0.0
  0
ARC
  5
16F
330
1F
100
AcDbEntity
  8
0
  6
Continuous
 62
     7
370
     0
100
AcDbCircle
 10
288.8605663264
 20
214.4461261101
 30
0.0
 40
1.878447738507833
100
AcDbArc
 50
114.9638558434
 51
167.8073880958
  0
LWPOLYLINE
  5
170
330
1F
100
AcDbEntity
  8
0
  6
Continuous
 62
     7
370
     0
100
AcDbPolyline
 90
       13
 70
   128
 43
0.0
 10
294.2022266094
 20
214.8428519436
 10
294.1441855534
 20
215.0849874656
 10
293.939324861
 20
215.4748501765
 10
293.6066491483
 20
215.8341497086
 10
293.1589429563
 20
216.1490783825
 10
292.6134113829
 20
216.4075336658
 10
291.9910189005
 20
216.5995832669
 10
291.3156837032
 20
216.7178468273
 10
290.613358544
 20
216.7577795447
 10
289.9110333847
 20
216.7178468273
 10
289.2356981875
 20
216.5995832669
 10
288.6133057051
 20
216.4075336658
 10
288.0677741317
 20
216.1490783825
  0
LWPOLYLINE
  5
171
330
1F
100
AcDbEntity
  8
0
  6
Continuous
 62
     7
370
     0
100
AcDbPolyline
 90
       17
 70
   128
 43
0.0
 10
289.411277016
 20
214.3938009421
 10
289.3028906403
 20
214.3001581357
 10
289.2648304066
 20
214.1896989141
 10
289.3028906403
 20
214.0792396926
 10
289.411277016
 20
213.9855968862
 10
289.5734886904
 20
213.9230267634
 10
289.7648304066
 20
213.9010550581
 10
289.9561721227
 20
213.9230267634
 10
290.1183837972
 20
213.9855968862
 10
290.2267701728
 20
214.0792396926
 10
290.2648304066
 20
214.1896989141
 10
290.2267701728
 20
214.3001581357
 10
290.1183837972
 20
214.3938009421
 10
289.9561721227
 20
214.4563710649
 10
289.7648304066
 20
214.4783427702
 10
289.5734886904
 20
214.4563710649
 10
289.411277016
 20
214.3938009421
  0
LINE
  5
172
330
1F
100
AcDbEntity
  8
0
  6
Continuous
 62
     7
370
     0
100
AcDbLine
 10
319.4133152164
 20
173.6786456253
 30
0.0
 11
310.4123484172
 21
168.4824980952
 31
0.0
  0
LINE
  5
173
330
1F
100
AcDbEntity
  8
0
  6
Continuous
 62
     7
370
     0
100
AcDbLine
 10
321.6907015771
 20
174.9937801755
 30
0.0
 11
319.4133152164
 21
173.6786456253
 31
0.0
  0
LINE
  5
174
330
1F
100
AcDbEntity
  8
0
  6
Continuous
 62
     7
370
     0
100
AcDbLine
 10
274.0317045252
 20
232.3343891044
 30
0.0
 11
291.1436598964
 21
222.4558675389
 31
0.0
  0
ARC
  5
175
330
1F
100
AcDbEntity
  8
0
  6
Continuous
 62
     7
370
     0
100
AcDbCircle
 10
273.7387844703
 20
231.9255077753
 30
0.0
 40
0.5029772359017093
100
AcDbArc
 50
54.3824225248
 51
114.3071190461
  0
LWPOLYLINE
  5
176
330
1F
100
AcDbEntity
  8
0
  6
Continuous
 62
     7
370
     0
100
AcDbPolyline
 90
       22
 70
   128
 43
0.0
 10
197.7702381742
 20
172.469041579
 10
197.8189310682
 20
172.8139851952
 10
197.9606831727
 20
173.0720594387
 10
198.1828991913
 20
173.2203332803
 10
198.4658342556
 20
173.2456319386
 10
198.7843483433
 20
173.1457075168
 10
199.1101400801
 20
172.9294387381
 10
199.4142614405
 20
172.6160420328
 10
199.6696899068
 20
172.2333640733
 10
199.853729539
 20
171.8154074757
 10
199.9500276082
 20
171.399309518
 10
199.9500276082
 20
171.0220423296
 10
199.853729539
 20
170.7171277559
 10
199.6696899068
 20
170.5116587948
 10
199.4142614405
 20
170.4238922652
 10
199.1101400801
 20
170.4616266084
 10
198.7843483433
 20
170.6215089625
 10
198.4658342556
 20
170.8893330786
 10
198.1828991913
 20
171.2413016086
 10
197.9606831727
 20
171.6461406043
 10
197.8189310682
 20
172.067878344
 10
197.7702381742
 20
172.469041579
  0
LWPOLYLINE
  5
177
330
1F
100
AcDbEntity
  8
0
  6
Continuous
 62
     7
370
     0
100
AcDbPolyline
 90
       22
 70
   128
 43
0.0
 10
238.782431483
 20
148.7932063361
 10
238.831124377
 20
149.1381499524
 10
238.9728764815
 20
149.3962241958
 10
239.1950925002
 20
149.5444980375
 10
239.4780275644
 20
149.5697966958
 10
239.7965416522
 20
149.4698722739
 10
240.122333389
 20
149.2536034953
 10
240.4264547493
 20
148.9402067899
 10
240.6818832156
 20
148.5575288304
 10
240.8659228479
 20
148.1395722329
 10
240.962220917
 20
147.7234742751
 10
240.962220917
 20
147.3462070867
 10
240.8659228479
 20
147.041292513
 10
240.6818832156
 20
146.8358235519
 10
240.4264547493
 20
146.7480570223
 10
240.122333389
 20
146.7857913655
 10
239.7965416522
 20
146.9456737196
 10
239.4780275644
 20
147.2134978357
 10
239.1950925002
 20
147.5654663658
 10
238.9728764815
 20
147.9703053614
 10
238.831124377
 20
148.3920431011
 10
238.782431483
 20
148.7932063361
  0
LWPOLYLINE
  5
178
330
1F
100
AcDbEntity
  8
0
  6
Continuous
 62
     7
370
     0
100
AcDbPolyline
 90
       30
 70
   128
 43
0.0
 10
217.1803193178
 20
169.7966917284
 10
217.2315677849
 20
170.3112562452
 10
217.382916865
 20
170.7425900763
 10
217.6272896433
 20
171.0705245313
 10
217.9532595202
 20
171.2797257595
 10
218.3455845066
 20
171.360411744
 10
218.7859199222
 20
171.3088096978
 10
219.2536761723
 20
171.1273324752
 10
219.7269814946
 20
170.8244657496
 10
220.1837046583
 20
170.4143712322
 10
220.6024897957
 20
169.9162244871
 10
220.9637549793
 20
169.3533183023
 10
221.2506078508
 20
168.7519735455
 10
221.4496354885
 20
168.1403084291
 10
221.5515315814
 20
167.5469237341
 10
221.5515315814
 20
166.9995654693
 10
221.4496354885
 20
166.523827499
 10
221.2506078508
 20
166.1419548018
 10
220.9637549793
 20
165.8718033207
 10
220.6024897957
 20
165.7260050385
 10
220.1837046583
 20
165.7113773211
 10
219.7269814946
 20
165.8286041441
 10
219.2536761723
 20
166.0722041117
 10
218.7859199222
 20
166.4307867601
 10
218.3455845066
 20
166.8875851631
 10
217.9532595202
 20
167.4212399352
 10
217.6272896433
 20
168.0067979723
 10
217.382916865
 20
168.6168792314
 10
217.2315677849
 20
169.2229569909
 10
217.1803193178
 20
169.7966917284
  0
LINE
  5
179
330
1F
100
AcDbEntity
  8
0
  6
Continuous
 62
     7
370
     0
100
AcDbLine
 10
195.1892984229
 20
157.8083894216
 30
0.0
 11
197.4666847836
 21
153.8638405479
 31
0.0
  0
LINE
  5
17A
330
1F
100
AcDbEntity
  8
0
  6
Continuous
 62
     7
370
     0
100
AcDbLine
 10
195.1892984229
 20
186.8195041702
 30
0.0
 11
195.1892984229
 21
157.8083894216
 31
0.0
  0
ARC
  5
17B
330
1F
100
AcDbEntity
  8
0
  6
Continuous
 62
     7
370
     0
100
AcDbCircle
 10
195.6203727903
 20
186.8894313671
 30
0.0
 40
0.4367091974284746
100
AcDbArc
 50
50.7967147643
 51
189.2140369905
  0
LINE
  5
17C
330
1F
100
AcDbEntity
  8
0
  6
Continuous
 62
     7
370
     0
100
AcDbLine
 10
213.0083893088
 20
177.3493027732
 30
0.0
 11
195.896405204
 21
187.2278409262
 31
0.0
  0
LINE
  5
17D
330
1F
100
AcDbEntity
  8
0
  6
Continuous
 62
     7
370
     0
100
AcDbLine
 10
213.1851660041
 20
177.4513869621
 30
0.0
 11
213.0083893088
 21
177.3493027732
 31
0.0
  0
LINE
  5
17E
330
1F
100
AcDbEntity
  8
0
  6
Continuous
 62
     7
370
     0
100
AcDbLine
 10
225.5595346748
 20
170.3078159837
 30
0.0
 11
213.1851660041
 21
177.4513869621
 31
0.0
  0
LINE
  5
17F
330
1F
100
AcDbEntity
  8
0
  6
Continuous
 62
     7
370
     0
100
AcDbLine
 10
225.7363113701
 20
170.0016297667
 30
0.0
 11
225.5595346748
 21
170.3078159837
 31
0.0
  0
LINE
  5
180
330
1F
100
AcDbEntity
  8
0
  6
Continuous
 62
     7
370
     0
100
AcDbLine
 10
242.8482954748
 20
160.1230916137
 30
0.0
 11
225.7363113701
 21
170.0016297667
 31
0.0
  0
ARC
  5
181
330
1F
100
AcDbEntity
  8
0
  6
Continuous
 62
     7
370
     0
100
AcDbCircle
 10
242.0201861547
 20
158.8284858936
 30
0.0
 40
1.536804807571984
100
AcDbArc
 50
2.6054784857
 51
57.39452166
  0
LINE
  5
182
330
1F
100
AcDbEntity
  8
0
  6
Continuous
 62
     7
370
     0
100
AcDbLine
 10
243.555402256
 20
129.8872319973
 30
0.0
 11
243.555402256
 21
158.8983467459
 31
0.0
  0
LINE
  5
183
330
1F
100
AcDbEntity
  8
0
  6
Continuous
 62
     7
370
     0
100
AcDbLine
 10
241.2780158953
 20
128.572097447
 30
0.0
 11
243.555402256
 21
129.8872319973
 31
0.0
  0
LINE
  5
184
330
1F
100
AcDbEntity
  8
0
  6
Continuous
 62
     7
370
     0
100
AcDbLine
 10
230.3325054523
 20
134.8908061283
 30
0.0
 11
241.2780158953
 21
128.572097447
 31
0.0
  0
LINE
  5
185
330
1F
100
AcDbEntity
  8
0
  6
Continuous
 62
     7
370
     0
100
AcDbLine
 10
230.3325054523
 20
134.8908061283
 30
0.0
 11
230.3325054523
 21
136.6891062396
 31
0.0
  0
ARC
  5
186
330
1F
100
AcDbEntity
  8
0
  6
Continuous
 62
     7
370
     0
100
AcDbCircle
 10
233.5029996799
 20
140.6644062469
 30
0.0
 40
5.084785521013938
100
AcDbArc
 50
183.5374604098
 51
231.4259438444
  0
LINE
  5
187
330
1F
100
AcDbEntity
  8
0
  6
Continuous
 62
     7
370
     0
100
AcDbLine
 10
228.4279023477
 20
140.3506693135
 30
0.0
 11
227.6808539329
 21
141.279990867
 31
0.0
  0
LINE
  5
188
330
1F
100
AcDbEntity
  8
0
  6
Continuous
 62
     7
370
     0
100
AcDbLine
 10
227.6808539329
 20
141.279990867
 30
0.0
 11
227.6808539329
 21
149.2820908234
 31
0.0
  0
LINE
  5
189
330
1F
100
AcDbEntity
  8
0
  6
Continuous
 62
     7
370
     0
100
AcDbLine
 10
227.6808539329
 20
149.2820908234
 30
0.0
 11
228.4279023477
 21
149.3488878199
 31
0.0
  0
LWPOLYLINE
  5
18A
330
1F
100
AcDbEntity
  8
0
  6
Continuous
 62
     7
370
     0
100
AcDbPolyline
 90
        9
 70
   128
 43
0.0
 10
228.4279023477
 20
149.3488878199
 10
228.4689182366
 20
149.7799313478
 10
228.5771157056
 20
150.1572478803
 10
228.7492636651
 20
150.4695696533
 10
228.9802212786
 20
150.7075698347
 10
229.2630914831
 20
150.8641410498
 10
229.5894269555
 20
150.9346076291
 10
229.9494823738
 20
150.9168652363
 10
230.3325054408
 20
150.8114437108
  0
LINE
  5
18B
330
1F
100
AcDbEntity
  8
0
  6
Continuous
 62
     7
370
     0
100
AcDbLine
 10
230.3325054408
 20
150.8114437108
 30
0.0
 11
230.3325054408
 21
152.7812153234
 31
0.0
  0
LINE
  5
18C
330
1F
100
AcDbEntity
  8
0
  6
Continuous
 62
     7
370
     0
100
AcDbLine
 10
230.3325054408
 20
152.7812153234
 30
0.0
 11
230.0460911319
 21
153.2772994568
 31
0.0
  0
LINE
  5
18D
330
1F
100
AcDbEntity
  8
0
  6
Continuous
 62
     7
370
     0
100
AcDbLine
 10
230.0460911319
 20
153.2772994568
 30
0.0
 11
230.4600703325
 21
154.8224143816
 31
0.0
  0
LINE
  5
18E
330
1F
100
AcDbEntity
  8
0
  6
Continuous
 62
     7
370
     0
100
AcDbLine
 10
230.4600703325
 20
154.8224143816
 30
0.0
 11
208.2846303322
 21
167.6240234039
 31
0.0
  0
LINE
  5
18F
330
1F
100
AcDbEntity
  8
0
  6
Continuous
 62
     7
370
     0
100
AcDbLine
 10
208.2846303322
 20
167.6240234039
 30
0.0
 11
208.6986095328
 21
165.600938268
 31
0.0
  0
LINE
  5
190
330
1F
100
AcDbEntity
  8
0
  6
Continuous
 62
     7
370
     0
100
AcDbLine
 10
208.6986095328
 20
165.600938268
 30
0.0
 11
208.412195224
 21
165.4355410566
 31
0.0
  0
LINE
  5
191
330
1F
100
AcDbEntity
  8
0
  6
Continuous
 62
     7
370
     0
100
AcDbLine
 10
208.412195224
 20
165.4355410566
 30
0.0
 11
208.412195224
 21
163.4657695243
 31
0.0
  0
ARC
  5
192
330
1F
100
AcDbEntity
  8
0
  6
Continuous
 62
     7
370
     0
100
AcDbCircle
 10
205.2416998166
 20
159.4904679778
 30
0.0
 40
5.084787460037747
100
AcDbArc
 50
3.5374558492
 51
51.4259442659
  0
LINE
  5
193
330
1F
100
AcDbEntity
  8
0
  6
Continuous
 62
     7
370
     0
100
AcDbLine
 10
210.3167991091
 20
159.8042046269
 30
0.0
 11
211.0638456534
 21
158.8748844457
 31
0.0
  0
LINE
  5
194
330
1F
100
AcDbEntity
  8
0
  6
Continuous
 62
     7
370
     0
100
AcDbLine
 10
211.0638456534
 20
158.8748844457
 30
0.0
 11
211.0638456534
 21
150.8727844893
 31
0.0
  0
LINE
  5
195
330
1F
100
AcDbEntity
  8
0
  6
Continuous
 62
     7
370
     0
100
AcDbLine
 10
211.0638456534
 20
150.8727844893
 30
0.0
 11
210.3167991091
 21
150.8059858889
 31
0.0
  0
LWPOLYLINE
  5
196
330
1F
100
AcDbEntity
  8
0
  6
Continuous
 62
     7
370
     0
100
AcDbPolyline
 90
        9
 70
   128
 43
0.0
 10
210.3167991091
 20
150.8059858889
 10
210.2757831457
 20
150.3749422764
 10
210.1675855922
 20
149.9976256791
 10
209.9954375401
 20
149.6853038603
 10
209.7644798272
 20
149.4473036514
 10
209.481609518
 20
149.2907324259
 10
209.1552739366
 20
149.2202658528
 10
208.795218406
 20
149.2380082674
 10
208.412195224
 20
149.34342983
  0
LINE
  5
197
330
1F
100
AcDbEntity
  8
0
  6
Continuous
 62
     7
370
     0
100
AcDbLine
 10
208.412195224
 20
149.34342983
 30
0.0
 11
208.412195224
 21
147.5451318682
 31
0.0
  0
LINE
  5
198
330
1F
100
AcDbEntity
  8
0
  6
Continuous
 62
     7
370
     0
100
AcDbLine
 10
197.4666847836
 20
153.8638405479
 30
0.0
 11
208.412195224
 21
147.5451318682
 31
0.0
  0
LINE
  5
199
330
1F
100
AcDbEntity
  8
0
  6
Continuous
 62
     7
370
     0
100
AcDbLine
 10
243.555402256
 20
158.8983467459
 30
0.0
 11
255.3994408409
 21
165.7357646824
 31
0.0
  0
LINE
  5
19A
330
1F
100
AcDbEntity
  8
0
  6
Continuous
 62
     7
370
     0
100
AcDbLine
 10
242.8482954748
 20
160.1230916137
 30
0.0
 11
254.6923340597
 21
166.9605095502
 31
0.0
  0
ARC
  5
19B
330
1F
100
AcDbEntity
  8
0
  6
Continuous
 62
     7
370
     0
100
AcDbCircle
 10
253.8642247395
 20
165.6659038302
 30
0.0
 40
1.536804807571923
100
AcDbArc
 50
2.6054784857
 51
57.39452166
  0
LINE
  5
19C
330
1F
100
AcDbEntity
  8
0
  6
Continuous
 62
     7
370
     0
100
AcDbLine
 10
243.555402256
 20
129.8872319973
 30
0.0
 11
255.3994408409
 21
136.7246499338
 31
0.0
  0
LINE
  5
19D
330
1F
100
AcDbEntity
  8
0
  6
Continuous
 62
     7
370
     0
100
AcDbLine
 10
255.3994408409
 20
136.7246499338
 30
0.0
 11
255.3994408409
 21
165.7357646824
 31
0.0
  0
LWPOLYLINE
  5
19E
330
1F
100
AcDbEntity
  8
0
  6
Continuous
 62
     7
370
     0
100
AcDbPolyline
 90
       30
 70
   128
 43
0.0
 10
249.3890332008
 20
155.4070873873
 10
248.9178113271
 20
155.1942366283
 10
248.4686232645
 20
155.1096982108
 10
248.0624725476
 20
155.1574250573
 10
247.7183503324
 20
155.3351855135
 10
247.4523473914
 20
155.634667698
 10
247.2769017263
 20
156.0418681567
 10
247.2002169815
 20
156.5377466488
 10
247.2258788504
 20
157.099116447
 10
247.3526874126
 20
157.6997285237
 10
247.5747132406
 20
158.3114989254
 10
247.8815746534
 20
158.9058219483
 10
248.2589231525
 20
159.4549077083
 10
248.6891143415
 20
159.9330815656
 10
249.1520329584
 20
160.3179846419
 10
249.6260334432
 20
160.5916192973
 10
250.0889520601
 20
160.7411906794
 10
250.5191432491
 20
160.7597049967
 10
250.8964917482
 20
160.6462965401
 10
251.2033531611
 20
160.4062681631
 10
251.4253789891
 20
160.0508433259
 10
251.5521875512
 20
159.5966412987
 10
251.5778494202
 20
159.0649000637
 10
251.5011646754
 20
158.4804832498
 10
251.3257190103
 20
157.8707175379
 10
251.0597160692
 20
157.2641148949
 10
250.715593854
 20
156.6890393862
 10
250.3094431371
 20
156.1723809034
 10
249.8602550745
 20
155.738297823
 10
249.3890332008
 20
155.4070873873
  0
LINE
  5
19F
330
1F
100
AcDbEntity
  8
0
  6
Continuous
 62
     7
370
     0
100
AcDbLine
 10
225.7363113701
 20
170.0016297667
 30
0.0
 11
237.580349955
 21
176.8390477033
 31
0.0
  0
LINE
  5
1A0
330
1F
100
AcDbEntity
  8
0
  6
Continuous
 62
     7
370
     0
100
AcDbLine
 10
254.6923340597
 20
166.9605095502
 30
0.0
 11
237.580349955
 21
176.8390477033
 31
0.0
  0
LWPOLYLINE
  5
1A1
330
1F
100
AcDbEntity
  8
0
  6
Continuous
 62
     7
370
     0
100
AcDbPolyline
 90
       21
 70
   128
 43
0.0
 10
247.2084286576
 20
156.9376471503
 10
247.248370274
 20
156.7039028509
 10
247.3994892316
 20
156.3310058947
 10
247.6415765675
 20
156.0657567451
 10
247.9605630457
 20
155.9235707186
 10
248.3379103314
 20
155.9127111501
 10
248.7516883721
 20
156.0338091582
 10
249.1778498921
 20
156.2798269671
 10
249.5916279328
 20
156.6364669157
 10
249.9689752185
 20
157.0830023867
 10
250.2879616967
 20
157.5934823616
 10
250.5300490326
 20
158.1382395997
 10
250.6811679902
 20
158.6856147905
 10
250.7325360851
 20
159.2037964775
 10
250.6811679902
 20
159.6626698246
 10
250.5300490326
 20
160.0355667807
 10
250.2879616967
 20
160.3008159303
 10
249.9689752185
 20
160.4430019569
 10
249.5916279328
 20
160.4538615254
 10
249.1778498921
 20
160.3327635172
 10
249.1651528987
 20
160.3271602132
  0
LWPOLYLINE
  5
1A2
330
1F
100
AcDbEntity
  8
0
  6
Continuous
 62
     7
370
     0
100
AcDbPolyline
 90
       10
 70
   128
 43
0.0
 10
239.2066955517
 20
148.7932063361
 10
239.2600002477
 20
148.4133424332
 10
239.4134850027
 20
148.0177514312
 10
239.64863729
 20
147.6541474433
 10
239.9370942732
 20
147.3663864765
 10
240.2440637832
 20
147.1891767504
 10
240.5325207665
 20
147.1438923734
 10
240.7676730537
 20
147.2359953095
 10
240.9211578087
 20
147.4543765854
 10
240.968749265
 20
147.6601316679
  0
LWPOLYLINE
  5
1A3
330
1F
100
AcDbEntity
  8
0
  6
Continuous
 62
     7
370
     0
100
AcDbPolyline
 90
        6
 70
   128
 43
0.0
 10
239.990387141
 20
149.3548882057
 10
239.9370942732
 20
149.376725782
 10
239.64863729
 20
149.4220101591
 10
239.4134850027
 20
149.3299072229
 10
239.2600002477
 20
149.111525947
 10
239.2066955517
 20
148.7932063361
  0
LINE
  5
1A4
330
1F
100
AcDbEntity
  8
0
  6
Continuous
 62
     7
370
     0
100
AcDbLine
 10
225.5595346748
 20
170.3078159837
 30
0.0
 11
237.4035732597
 21
177.1452339202
 31
0.0
  0
LINE
  5
1A5
330
1F
100
AcDbEntity
  8
0
  6
Continuous
 62
     7
370
     0
100
AcDbLine
 10
237.580349955
 20
176.8390477033
 30
0.0
 11
237.4035732597
 21
177.1452339202
 31
0.0
  0
LINE
  5
1A6
330
1F
100
AcDbEntity
  8
0
  6
Continuous
 62
     7
370
     0
100
AcDbLine
 10
213.1851660041
 20
177.4513869621
 30
0.0
 11
225.0292045889
 21
184.2888048987
 31
0.0
  0
LWPOLYLINE
  5
1A7
330
1F
100
AcDbEntity
  8
0
  6
Continuous
 62
     7
370
     0
100
AcDbPolyline
 90
       33
 70
   128
 43
0.0
 10
223.7210570437
 20
179.3291256193
 10
223.2733508517
 20
179.0141969455
 10
222.940675139
 20
178.6548974133
 10
222.7358144466
 20
178.2650347024
 10
222.666641456
 20
177.8595910181
 10
222.7358144466
 20
177.4541473337
 10
222.940675139
 20
177.0642846228
 10
223.2733508517
 20
176.7049850907
 10
223.7210570437
 20
176.3900564168
 10
224.2665886171
 20
176.1316011335
 10
224.8889810995
 20
175.9395515324
 10
225.5643162968
 20
175.821287972
 10
226.266641456
 20
175.7813552545
 10
226.9689666153
 20
175.821287972
 10
227.6443018125
 20
175.9395515324
 10
228.2666942949
 20
176.1316011335
 10
228.8122258683
 20
176.3900564168
 10
229.2599320603
 20
176.7049850907
 10
229.5926077731
 20
177.0642846228
 10
229.7974684655
 20
177.4541473337
 10
229.866641456
 20
177.8595910181
 10
229.7974684655
 20
178.2650347024
 10
229.5926077731
 20
178.6548974133
 10
229.2599320603
 20
179.0141969455
 10
228.8122258683
 20
179.3291256193
 10
228.2666942949
 20
179.5875809026
 10
227.6443018125
 20
179.7796305037
 10
226.9689666153
 20
179.8978940641
 10
226.266641456
 20
179.9378267816
 10
225.5643162968
 20
179.8978940641
 10
224.8889810995
 20
179.7796305037
 10
224.2665886171
 20
179.5875809026
 10
223.7210570437
 20
179.3291256193
  0
LINE
  5
1A8
330
1F
100
AcDbEntity
  8
0
  6
Continuous
 62
     7
370
     0
100
AcDbLine
 10
237.4035732597
 20
177.1452339202
 30
0.0
 11
225.0292045889
 21
184.2888048987
 31
0.0
  0
LWPOLYLINE
  5
1A9
330
1F
100
AcDbEntity
  8
0
  6
Continuous
 62
     7
370
     0
100
AcDbPolyline
 90
       14
 70
   128
 43
0.0
 10
218.0288474552
 20
169.7966917284
 10
218.0802155501
 20
169.2785100414
 10
218.2313345077
 20
168.7311348506
 10
218.4734218436
 20
168.1863776125
 10
218.7924083217
 20
167.6758976376
 10
219.1697556075
 20
167.2293621666
 10
219.5835336482
 20
166.872722218
 10
220.0096951681
 20
166.6267044091
 10
220.4234732088
 20
166.505606401
 10
220.8008204946
 20
166.5164659695
 10
221.1198069727
 20
166.658651996
 10
221.3618943086
 20
166.9239011456
 10
221.5130132663
 20
167.2967981018
 10
221.5529548826
 20
167.5305424001
  0
LWPOLYLINE
  5
1AA
330
1F
100
AcDbEntity
  8
0
  6
Continuous
 62
     7
370
     0
100
AcDbPolyline
 90
        8
 70
   128
 43
0.0
 10
219.5962306408
 20
170.9200554644
 10
219.5835336482
 20
170.9256587681
 10
219.1697556075
 20
171.0467567763
 10
218.7924083217
 20
171.0358972078
 10
218.4734218436
 20
170.8937111812
 10
218.2313345077
 20
170.6284620316
 10
218.0802155501
 20
170.2555650755
 10
218.0288474552
 20
169.7966917284
  0
ARC
  5
1AB
330
1F
100
AcDbEntity
  8
0
  6
Continuous
 62
     7
370
     0
100
AcDbCircle
 10
224.5138492385
 20
177.2995570221
 30
0.0
 40
1.8784477385111
100
AcDbArc
 50
114.9638558434
 51
167.8073880955
  0
LWPOLYLINE
  5
1AC
330
1F
100
AcDbEntity
  8
0
  6
Continuous
 62
     7
370
     0
100
AcDbPolyline
 90
       13
 70
   128
 43
0.0
 10
229.8555095215
 20
177.6962828557
 10
229.7974684655
 20
177.9384183776
 10
229.5926077731
 20
178.3282810885
 10
229.2599320603
 20
178.6875806207
 10
228.8122258683
 20
179.0025092946
 10
228.2666942949
 20
179.2609645779
 10
227.6443018125
 20
179.4530141789
 10
226.9689666153
 20
179.5712777394
 10
226.266641456
 20
179.6112104568
 10
225.5643162968
 20
179.5712777394
 10
224.8889810995
 20
179.4530141789
 10
224.2665886171
 20
179.2609645779
 10
223.7210570437
 20
179.0025092946
  0
LINE
  5
1AD
330
1F
100
AcDbEntity
  8
0
  6
Continuous
 62
     7
370
     0
100
AcDbLine
 10
241.2780158953
 20
128.572097447
 30
0.0
 11
253.1220544802
 21
135.4095153836
 31
0.0
  0
LINE
  5
1AE
330
1F
100
AcDbEntity
  8
0
  6
Continuous
 62
     7
370
     0
100
AcDbLine
 10
253.1220544802
 20
135.4095153836
 30
0.0
 11
255.3994408409
 21
136.7246499338
 31
0.0
  0
LWPOLYLINE
  5
1AF
330
1F
100
AcDbEntity
  8
0
  6
Continuous
 62
     7
370
     0
100
AcDbPolyline
 90
       17
 70
   128
 43
0.0
 10
226.6201948466
 20
178.1452807772
 10
226.5118084709
 20
178.0516379708
 10
226.4737482372
 20
177.9411787492
 10
226.5118084709
 20
177.8307195277
 10
226.6201948466
 20
177.7370767213
 10
226.782406521
 20
177.6745065984
 10
226.9737482372
 20
177.6525348932
 10
227.1650899534
 20
177.6745065984
 10
227.3273016278
 20
177.7370767213
 10
227.4356880035
 20
177.8307195277
 10
227.4737482372
 20
177.9411787492
 10
227.4356880035
 20
178.0516379708
 10
227.3273016278
 20
178.1452807772
 10
227.1650899534
 20
178.2078509
 10
226.9737482372
 20
178.2298226053
 10
226.782406521
 20
178.2078509
 10
226.6201948466
 20
178.1452807772
  0
LINE
  5
1B0
330
1F
100
AcDbEntity
  8
0
  6
Continuous
 62
     7
370
     0
100
AcDbLine
 10
195.896405204
 20
187.2278409262
 30
0.0
 11
207.7404437889
 21
194.0652588627
 31
0.0
  0
LINE
  5
1B1
330
1F
100
AcDbEntity
  8
0
  6
Continuous
 62
     7
370
     0
100
AcDbLine
 10
224.8523991601
 20
184.1867372972
 30
0.0
 11
207.7404437889
 21
194.0652588627
 31
0.0
  0
LINE
  5
1B2
330
1F
100
AcDbEntity
  8
0
  6
Continuous
 62
     7
370
     0
100
AcDbLine
 10
228.4606416987
 20
149.7322527187
 30
0.0
 11
227.6808539329
 21
149.2820908234
 31
0.0
  0
LINE
  5
1B3
330
1F
100
AcDbEntity
  8
0
  6
Continuous
 62
     7
370
     0
100
AcDbLine
 10
210.2438529124
 20
166.4929882832
 30
0.0
 11
208.6986095328
 21
165.600938268
 31
0.0
  0
LINE
  5
1B4
330
1F
100
AcDbEntity
  8
0
  6
Continuous
 62
     7
370
     0
100
AcDbLine
 10
210.2438994665
 20
166.492961408
 30
0.0
 11
208.412195224
 21
165.4355410566
 31
0.0
  0
LINE
  5
1B5
330
1F
100
AcDbEntity
  8
0
  6
Continuous
 62
     7
370
     0
100
AcDbLine
 10
216.0736102919
 20
163.1275409835
 30
0.0
 11
210.3167991091
 21
159.8042046269
 31
0.0
  0
LINE
  5
1B6
330
1F
100
AcDbEntity
  8
0
  6
Continuous
 62
     7
370
     0
100
AcDbLine
 10
211.949956508
 20
165.5080756419
 30
0.0
 11
208.412195224
 21
163.4657695243
 31
0.0
  0
LWPOLYLINE
  5
1B7
330
1F
100
AcDbEntity
  8
0
  6
Continuous
 62
     7
370
     0
100
AcDbPolyline
 90
        6
 70
   128
 43
0.0
 10
207.7404437889
 20
194.0652588627
 10
207.6024940993
 20
194.1292059207
 10
207.4698457389
 20
194.1593163236
 10
207.3475963097
 20
194.1544329456
 10
207.2404437889
 20
194.1147434521
 10
207.2404844226
 20
194.1147669132
  0
LINE
  5
1B8
330
1F
100
AcDbEntity
  8
0
  6
Continuous
 62
     7
370
     0
100
AcDbLine
 10
217.252035662
 20
162.4472504977
 30
0.0
 11
211.0638456534
 21
158.8748844457
 31
0.0
  0
LINE
  5
1B9
330
1F
100
AcDbEntity
  8
0
  6
Continuous
 62
     7
370
     0
100
AcDbLine
 10
222.9078842383
 20
157.7102024258
 30
0.0
 11
211.0638456534
 21
150.8727844893
 31
0.0
  0
LINE
  5
1BA
330
1F
100
AcDbEntity
  8
0
  6
Continuous
 62
     7
370
     0
100
AcDbLine
 10
222.9078842383
 20
157.7102024258
 30
0.0
 11
222.9078842383
 21
159.1821986132
 31
0.0
  0
LWPOLYLINE
  5
1BB
330
1F
100
AcDbEntity
  8
0
  6
Continuous
 62
     7
370
     0
100
AcDbPolyline
 90
       10
 70
   128
 43
0.0
 10
198.1945022429
 20
172.469041579
 10
198.2478069389
 20
172.0891776761
 10
198.4012916939
 20
171.6935866741
 10
198.6364439811
 20
171.3299826861
 10
198.9249009644
 20
171.0422217194
 10
199.2318704744
 20
170.8650119933
 10
199.5203274576
 20
170.8197276162
 10
199.7554797449
 20
170.9118305524
 10
199.9089644999
 20
171.1302118283
 10
199.9565559564
 20
171.3359669126
  0
LWPOLYLINE
  5
1BC
330
1F
100
AcDbEntity
  8
0
  6
Continuous
 62
     7
370
     0
100
AcDbPolyline
 90
        6
 70
   128
 43
0.0
 10
198.978193834
 20
173.0307234477
 10
198.9249009644
 20
173.0525610248
 10
198.6364439811
 20
173.0978454019
 10
198.4012916939
 20
173.0057424658
 10
198.2478069389
 20
172.7873611899
 10
198.1945022429
 20
172.469041579
  0
ARC
  5
1BD
330
1F
100
AcDbEntity
  8
0
  6
Continuous
 62
     7
370
     0
100
AcDbCircle
 10
220.6609351625
 20
157.4274555301
 30
0.0
 40
1.476684251891465
100
AcDbArc
 50
304.1562425443
 51
353.4903045498
  0
LINE
  5
1BE
330
1F
100
AcDbEntity
  8
0
  6
Continuous
 62
     7
370
     0
100
AcDbLine
 10
220.2562338089
 20
154.3825498047
 30
0.0
 11
208.412195224
 21
147.5451318682
 31
0.0
  0
LINE
  5
1BF
330
1F
100
AcDbEntity
  8
0
  6
Continuous
 62
     7
370
     0
100
AcDbLine
 10
220.2562338089
 20
154.3825498047
 30
0.0
 11
220.2562338089
 21
155.4932344598
 31
0.0
  0
LINE
  5
1C0
330
1F
100
AcDbEntity
  8
0
  6
Continuous
 62
     7
370
     0
100
AcDbLine
 10
206.4676515828
 20
194.0651394327
 30
0.0
 11
206.4676515828
 21
193.6686200113
 31
0.0
  0
LINE
  5
1C1
330
1F
100
AcDbEntity
  8
0
  6
Continuous
 62
     7
370
     0
100
AcDbLine
 10
207.5283117546
 20
194.6776445666
 30
0.0
 11
206.4676515828
 21
194.0651394327
 31
0.0
  0
LINE
  5
1C2
330
1F
100
AcDbEntity
  8
0
  6
Continuous
 62
     7
370
     0
100
AcDbLine
 10
254.9044660941
 20
167.3279728206
 30
0.0
 11
207.5283117546
 21
194.6776445666
 31
0.0
  0
LINE
  5
1C3
330
1F
100
AcDbEntity
  8
0
  6
Continuous
 62
     7
370
     0
100
AcDbLine
 10
255.9651262658
 20
165.4908555189
 30
0.0
 11
254.9044660941
 21
167.3279728206
 31
0.0
  0
LINE
  5
1C4
330
1F
100
AcDbEntity
  8
0
  6
Continuous
 62
     7
370
     0
100
AcDbLine
 10
255.9651262658
 20
136.9935811841
 30
0.0
 11
255.9651262658
 21
165.4908555189
 31
0.0
  0
LINE
  5
1C5
330
1F
100
AcDbEntity
  8
0
  6
Continuous
 62
     7
370
     0
100
AcDbLine
 10
253.1366991411
 20
135.3602341602
 30
0.0
 11
255.9651262658
 21
136.9935811841
 31
0.0
  0
LINE
  5
1C6
330
1F
100
AcDbEntity
  8
0
  6
Continuous
 62
     7
370
     0
100
AcDbLine
 10
253.0866933944
 20
135.3891018633
 30
0.0
 11
253.1366991411
 21
135.3602341602
 31
0.0
  0
LINE
  5
1C7
330
1F
100
AcDbEntity
  8
0
  6
Continuous
 62
     7
370
     0
100
AcDbLine
 10
222.9078842383
 20
157.7102024258
 30
0.0
 11
222.9078842383
 21
159.1821986132
 31
0.0
  0
ARC
  5
1C8
330
1F
100
AcDbEntity
  8
0
  6
Continuous
 62
     7
370
     0
100
AcDbCircle
 10
220.6609351625
 20
157.4274555301
 30
0.0
 40
1.476684251891465
100
AcDbArc
 50
304.1562425443
 51
353.4903045498
  0
LINE
  5
1C9
330
1F
100
AcDbEntity
  8
0
  6
Continuous
 62
     7
370
     0
100
AcDbLine
 10
220.2562338089
 20
154.3417227641
 30
0.0
 11
220.2562338089
 21
155.4932344598
 31
0.0
  0
LINE
  5
1CA
330
1F
100
AcDbEntity
  8
0
  6
Continuous
 62
     7
370
     0
100
AcDbLine
 10
220.2208727231
 20
154.3621362844
 30
0.0
 11
220.2562338089
 21
154.3417227641
 31
0.0
  0
LINE
  5
1CB
330
1F
100
AcDbEntity
  8
0
  6
Continuous
 62
     7
370
     0
100
AcDbLine
 10
255.9651262658
 20
165.4908555189
 30
0.0
 11
310.4123484172
 21
196.922567824
 31
0.0
  0
LINE
  5
1CC
330
1F
100
AcDbEntity
  8
0
  6
Continuous
 62
     7
370
     0
100
AcDbLine
 10
254.9044660941
 20
167.3279728206
 30
0.0
 11
309.3516882454
 21
198.7596851257
 31
0.0
  0
LINE
  5
1CD
330
1F
100
AcDbEntity
  8
0
  6
Continuous
 62
     7
370
     0
100
AcDbLine
 10
310.4123484172
 20
196.922567824
 30
0.0
 11
309.3516882454
 21
198.7596851257
 31
0.0
  0
LINE
  5
1CE
330
1F
100
AcDbEntity
  8
0
  6
Continuous
 62
     7
370
     0
100
AcDbLine
 10
255.9651262658
 20
136.9935811841
 30
0.0
 11
310.4123484172
 21
168.4252934892
 31
0.0
  0
LINE
  5
1CF
330
1F
100
AcDbEntity
  8
0
  6
Continuous
 62
     7
370
     0
100
AcDbLine
 10
310.4123484172
 20
168.4252934892
 30
0.0
 11
310.4123484172
 21
196.922567824
 31
0.0
  0
LINE
  5
1D0
330
1F
100
AcDbEntity
  8
0
  6
Continuous
 62
     7
370
     0
100
AcDbLine
 10
207.5283117546
 20
194.6776445666
 30
0.0
 11
261.9755339059
 21
226.1093568718
 31
0.0
  0
LINE
  5
1D1
330
1F
100
AcDbEntity
  8
0
  6
Continuous
 62
     7
370
     0
100
AcDbLine
 10
309.3516882454
 20
198.7596851257
 30
0.0
 11
261.9755339059
 21
226.1093568718
 31
0.0
  0
LWPOLYLINE
  5
1D2
330
1F
100
AcDbEntity
  8
0
  6
Continuous
 62
     7
370
     0
100
AcDbPolyline
 90
       34
 70
   128
 43
0.0
 10
261.2684271247
 20
215.4960514181
 10
260.682030409
 20
215.2165460323
 10
260.0146008726
 20
215.0061569319
 10
259.2902611582
 20
214.8724881272
 10
258.5351907902
 20
214.8203707572
 10
257.776679979
 20
214.8516884793
 10
257.0421432816
 20
214.9653093894
 10
256.3581287681
 20
215.1571269319
 10
255.7493585052
 20
215.420208321
 10
255.2378350363
 20
215.7450451097
 10
254.8420461524
 20
216.1198968503
 10
254.5762966948
 20
216.5312154242
 10
254.4501915416
 20
216.9641347063
 10
254.4682884613
 20
217.403007866
 10
254.6299333843
 20
217.8319728837
 10
254.9292840417
 20
218.235525846
 10
255.355521121
 20
218.5990812975
 10
255.8932393035
 20
218.9094993968
 10
256.5230040531
 20
219.1555608251
 10
257.2220540309
 20
219.3283722812
 10
257.9651237494
 20
219.421687909
 10
258.7253567328
 20
219.4321350384
 10
259.4752761804
 20
219.359336083
 10
260.1877780495
 20
219.2059221866
 10
260.837110666
 20
218.9774381274
 10
261.3998054575
 20
218.6821419143
 10
261.8555251681
 20
218.3307063221
 10
262.1877989
 20
217.9358331485
 10
262.3846174149
 20
217.5117941391
 10
262.4388671788
 20
217.0739151683
 10
262.3485874639
 20
216.6380223231
 10
262.1170412143
 20
216.2198699065
 10
261.7525971148
 20
215.8345710365
 10
261.2684271247
 20
215.4960514181
  0
LWPOLYLINE
  5
1D3
330
1F
100
AcDbEntity
  8
0
  6
Continuous
 62
     7
370
     0
100
AcDbPolyline
 90
       34
 70
   128
 43
0.0
 10
296.6237661841
 20
195.0858486225
 10
296.0373694683
 20
194.8063432367
 10
295.369939932
 20
194.5959541363
 10
294.6456002175
 20
194.4622853317
 10
293.8905298495
 20
194.4101679616
 10
293.1320190383
 20
194.4414856837
 10
292.3974823409
 20
194.5551065938
 10
291.7134678274
 20
194.7469241363
 10
291.1046975645
 20
195.0100055254
 10
290.5931740956
 20
195.3348423142
 10
290.1973852117
 20
195.7096940548
 10
289.9316357542
 20
196.1210126286
 10
289.8055306009
 20
196.5539319108
 10
289.8236275206
 20
196.9928050704
 10
289.9852724436
 20
197.4217700881
 10
290.2846231011
 20
197.8253230504
 10
290.7108601803
 20
198.1888785019
 10
291.2485783629
 20
198.4992966012
 10
291.8783431124
 20
198.7453580295
 10
292.5773930902
 20
198.9181694857
 10
293.3204628087
 20
199.0114851134
 10
294.0806957921
 20
199.0219322428
 10
294.8306152397
 20
198.9491332874
 10
295.5431171088
 20
198.7957193911
 10
296.1924497254
 20
198.5672353318
 10
296.7551445169
 20
198.2719391188
 10
297.2108642274
 20
197.9205035265
 10
297.5431379593
 20
197.525630353
 10
297.7399564742
 20
197.1015913435
 10
297.7942062381
 20
196.6637123727
 10
297.7039265232
 20
196.2278195275
 10
297.4723802737
 20
195.809667111
 10
297.1079361742
 20
195.424368241
 10
296.6237661841
 20
195.0858486225
  0
LWPOLYLINE
  5
1D4
330
1F
100
AcDbEntity
  8
0
  6
Continuous
 62
     7
370
     0
100
AcDbPolyline
 90
       34
 70
   128
 43
0.0
 10
261.2684271247
 20
174.675645827
 10
260.682030409
 20
174.3961404411
 10
260.0146008726
 20
174.1857513408
 10
259.2902611582
 20
174.0520825361
 10
258.5351907902
 20
173.999965166
 10
257.776679979
 20
174.0312828881
 10
257.0421432816
 20
174.1449037983
 10
256.3581287681
 20
174.3367213408
 10
255.7493585052
 20
174.5998027298
 10
255.2378350363
 20
174.9246395186
 10
254.8420461524
 20
175.2994912592
 10
254.5762966948
 20
175.7108098331
 10
254.4501915416
 20
176.1437291152
 10
254.4682884613
 20
176.5826022749
 10
254.6299333843
 20
177.0115672926
 10
254.9292840417
 20
177.4151202549
 10
255.355521121
 20
177.7786757063
 10
255.8932393035
 20
178.0890938056
 10
256.5230040531
 20
178.3351552339
 10
257.2220540309
 20
178.5079666901
 10
257.9651237494
 20
178.6012823179
 10
258.7253567328
 20
178.6117294472
 10
259.4752761804
 20
178.5389304918
 10
260.1877780495
 20
178.3855165955
 10
260.837110666
 20
178.1570325362
 10
261.3998054575
 20
177.8617363232
 10
261.8555251681
 20
177.5103007309
 10
262.1877989
 20
177.1154275574
 10
262.3846174149
 20
176.6913885479
 10
262.4388671788
 20
176.2535095771
 10
262.3485874639
 20
175.8176167319
 10
262.1170412143
 20
175.3994643154
 10
261.7525971148
 20
175.0141654454
 10
261.2684271247
 20
174.675645827
  0
LWPOLYLINE
  5
1D5
330
1F
100
AcDbEntity
  8
0
  6
Continuous
 62
     7
370
     0
100
AcDbPolyline
 90
       34
 70
   128
 43
0.0
 10
225.9130880654
 20
195.0858486225
 10
225.3266913496
 20
194.8063432367
 10
224.6592618133
 20
194.5959541363
 10
223.9349220989
 20
194.4622853317
 10
223.1798517309
 20
194.4101679616
 10
222.4213409197
 20
194.4414856837
 10
221.6868042223
 20
194.5551065938
 10
221.0027897088
 20
194.7469241363
 10
220.3940194459
 20
195.0100055254
 10
219.882495977
 20
195.3348423142
 10
219.486707093
 20
195.7096940548
 10
219.2209576355
 20
196.1210126286
 10
219.0948524822
 20
196.5539319108
 10
219.112949402
 20
196.9928050704
 10
219.2745943249
 20
197.4217700881
 10
219.5739449824
 20
197.8253230504
 10
220.0001820617
 20
198.1888785019
 10
220.5379002442
 20
198.4992966012
 10
221.1676649938
 20
198.7453580295
 10
221.8667149716
 20
198.9181694857
 10
222.60978469
 20
199.0114851134
 10
223.3700176735
 20
199.0219322428
 10
224.1199371211
 20
198.9491332874
 10
224.8324389902
 20
198.7957193911
 10
225.4817716067
 20
198.5672353318
 10
226.0444663982
 20
198.2719391188
 10
226.5001861088
 20
197.9205035265
 10
226.8324598407
 20
197.525630353
 10
227.0292783555
 20
197.1015913435
 10
227.0835281194
 20
196.6637123727
 10
226.9932484046
 20
196.2278195275
 10
226.761702155
 20
195.809667111
 10
226.3972580555
 20
195.424368241
 10
225.9130880654
 20
195.0858486225
  0
LWPOLYLINE
  5
1D6
330
1F
100
AcDbEntity
  8
0
  6
Continuous
 62
     7
370
     0
100
AcDbPolyline
 90
       17
 70
   128
 43
0.0
 10
260.9148737342
 20
177.3289058404
 10
260.3660245033
 20
177.5872580301
 10
259.738323603
 20
177.7765415237
 10
259.0574691819
 20
177.8890070329
 10
258.3513354999
 20
177.9200502064
 10
257.648831753
 20
177.868400133
 10
256.978718527
 20
177.7361713729
 10
256.3684303362
 20
177.528777387
 10
255.8429524509
 20
177.2547089094
 10
255.4237979974
 20
176.9251863359
 10
255.1281272082
 20
176.5537003593
 10
254.9680448803
 20
176.1554596591
 10
254.9501048029
 20
175.7467682564
 10
255.075041445
 20
175.3443580253
 10
255.3377398856
 20
174.9647036878
 10
255.7274452198
 20
174.6233483373
 10
255.7997358955
 20
174.5738104102
  0
ARC
  5
1D7
330
1F
100
AcDbEntity
  8
0
  6
Continuous
 62
     7
370
     0
100
AcDbCircle
 10
260.3956588169
 20
175.9152250267
 30
0.0
 40
1.506013802466532
100
AcDbArc
 50
297.0379794376
 51
69.8327892393
  0
LINE
  5
1D8
330
1F
100
AcDbEntity
  8
0
  6
Continuous
 62
     7
370
     0
100
AcDbLine
 10
253.1366991411
 20
135.3602341602
 30
0.0
 11
307.5839212925
 21
166.7919464653
 31
0.0
  0
LINE
  5
1D9
330
1F
100
AcDbEntity
  8
0
  6
Continuous
 62
     7
370
     0
100
AcDbLine
 10
307.5839212925
 20
166.7919464653
 30
0.0
 11
310.4123484172
 21
168.4252934892
 31
0.0
  0
LWPOLYLINE
  5
1DA
330
1F
100
AcDbEntity
  8
0
  6
Continuous
 62
     7
370
     0
100
AcDbPolyline
 90
       17
 70
   128
 43
0.0
 10
225.5595346748
 20
197.7391086359
 10
225.010685444
 20
197.9974608256
 10
224.3829845437
 20
198.1867443193
 10
223.7021301226
 20
198.2992098284
 10
222.9959964406
 20
198.3302530019
 10
222.2934926936
 20
198.2786029286
 10
221.6233794677
 20
198.1463741685
 10
221.0130912769
 20
197.9389801825
 10
220.4876133916
 20
197.664911705
 10
220.0684589381
 20
197.3353891315
 10
219.7727881489
 20
196.9639031549
 10
219.612705821
 20
196.5656624547
 10
219.5947657436
 20
196.156971052
 10
219.7197023856
 20
195.7545608209
 10
219.9824008263
 20
195.3749064834
 10
220.3721061605
 20
195.0335511328
 10
220.4443968368
 20
194.9840132053
  0
ARC
  5
1DB
330
1F
100
AcDbEntity
  8
0
  6
Continuous
 62
     7
370
     0
100
AcDbCircle
 10
225.0403197575
 20
196.3254278222
 30
0.0
 40
1.506013802527728
100
AcDbArc
 50
297.0379794197
 51
69.8327892372
  0
LWPOLYLINE
  5
1DC
330
1F
100
AcDbEntity
  8
0
  6
Continuous
 62
     7
370
     0
100
AcDbPolyline
 90
       17
 70
   128
 43
0.0
 10
296.2702127935
 20
197.7391086359
 10
295.7213635627
 20
197.9974608256
 10
295.0936626624
 20
198.1867443193
 10
294.4128082412
 20
198.2992098284
 10
293.7066745592
 20
198.3302530019
 10
293.0041708123
 20
198.2786029286
 10
292.3340575863
 20
198.1463741685
 10
291.7237693956
 20
197.9389801825
 10
291.1982915102
 20
197.664911705
 10
290.7791370567
 20
197.3353891315
 10
290.4834662676
 20
196.9639031549
 10
290.3233839396
 20
196.5656624547
 10
290.3054438623
 20
196.156971052
 10
290.4303805043
 20
195.7545608209
 10
290.6930789449
 20
195.3749064834
 10
291.0827842791
 20
195.0335511328
 10
291.1550749554
 20
194.9840132053
  0
ARC
  5
1DD
330
1F
100
AcDbEntity
  8
0
  6
Continuous
 62
     7
370
     0
100
AcDbCircle
 10
295.7509978762
 20
196.3254278222
 30
0.0
 40
1.506013802569485
100
AcDbArc
 50
297.0379794075
 51
69.8327892358
  0
LINE
  5
1DE
330
1F
100
AcDbEntity
  8
0
  6
Continuous
 62
     7
370
     0
100
AcDbLine
 10
224.1828084716
 20
158.4462005195
 30
0.0
 11
222.9078842383
 21
157.7102024258
 31
0.0
  0
LINE
  5
1DF
330
1F
100
AcDbEntity
  8
0
  6
Continuous
 62
     7
370
     0
100
AcDbLine
 10
225.7744883338
 20
157.5273432935
 30
0.0
 11
220.2562338089
 21
154.3417227641
 31
0.0
  0
LWPOLYLINE
  5
1E0
330
1F
100
AcDbEntity
  8
0
  6
Continuous
 62
     7
370
     0
100
AcDbPolyline
 90
       17
 70
   128
 43
0.0
 10
260.9148737342
 20
218.1493114315
 10
260.3660245033
 20
218.4076636212
 10
259.738323603
 20
218.5969471149
 10
259.0574691819
 20
218.709412624
 10
258.3513354999
 20
218.7404557975
 10
257.648831753
 20
218.6888057241
 10
256.978718527
 20
218.556576964
 10
256.3684303362
 20
218.3491829781
 10
255.8429524509
 20
218.0751145006
 10
255.4237979974
 20
217.745591927
 10
255.1281272082
 20
217.3741059504
 10
254.9680448803
 20
216.9758652502
 10
254.9501048029
 20
216.5671738476
 10
255.075041445
 20
216.1647636164
 10
255.3377398856
 20
215.785109279
 10
255.7274452198
 20
215.4437539284
 10
255.7997358955
 20
215.3942160013
  0
ARC
  5
1E1
330
1F
100
AcDbEntity
  8
0
  6
Continuous
 62
     7
370
     0
100
AcDbCircle
 10
260.3956588169
 20
216.7356306178
 30
0.0
 40
1.506013802466466
100
AcDbArc
 50
297.0379794376
 51
69.8327892393
  0
LINE
  5
1E2
330
1F
100
AcDbEntity
  8
0
  6
Continuous
 62
     7
370
     0
100
AcDbLine
 10
320.983594796
 20
205.2296397919
 30
0.0
 11
309.4577801207
 21
198.5759286081
 31
0.0
  0
LINE
  5
1E3
330
1F
100
AcDbEntity
  8
0
  6
Continuous
 62
     7
370
     0
100
AcDbLine
 10
321.6907015771
 20
204.0048949241
 30
0.0
 11
310.1648869019
 21
197.3511837403
 31
0.0
  0
LINE
  5
1E4
330
1F
100
AcDbEntity
  8
0
  6
Continuous
 62
     7
370
     0
100
AcDbLine
 10
274.0317045252
 20
232.3343891044
 30
0.0
 11
262.6119989694
 21
225.7419334115
 31
0.0
  0
LWPOLYLINE
  5
1E5
330
1F
100
AcDbEntity
  8
0
  6
Continuous
 62
     7
370
     0
100
AcDbPolyline
 90
       17
 70
   128
 43
0.0
 10
220.2562338159
 20
194.6775782166
 10
219.3891428106
 20
195.4267206677
 10
219.0846609407
 20
196.3103944402
 10
219.3891428106
 20
197.1940682127
 10
220.2562338159
 20
197.9432106639
 10
221.5539272112
 20
198.4437716465
 10
223.0846609407
 20
198.6195452886
 10
224.6153946701
 20
198.4437716465
 10
225.9130880654
 20
197.9432106639
 10
226.7801790707
 20
197.1940682127
 10
227.0846609407
 20
196.3103944402
 10
226.7801790707
 20
195.4267206677
 10
225.9130880654
 20
194.6775782166
 10
224.6153946701
 20
194.177017234
 10
223.0846609407
 20
194.0012435919
 10
221.5539272112
 20
194.177017234
 10
220.2562338159
 20
194.6775782166
  0
LWPOLYLINE
  5
1E6
330
1F
100
AcDbEntity
  8
0
  6
Continuous
 62
     7
370
     0
100
AcDbPolyline
 90
       17
 70
   128
 43
0.0
 10
255.6115728753
 20
174.267375421
 10
254.74448187
 20
175.0165178722
 10
254.44
 20
175.9001916447
 10
254.74448187
 20
176.7838654172
 10
255.6115728753
 20
177.5330078683
 10
256.9092662705
 20
178.0335688509
 10
258.44
 20
178.209342493
 10
259.9707337295
 20
178.0335688509
 10
261.2684271247
 20
177.5330078683
 10
262.13551813
 20
176.7838654172
 10
262.44
 20
175.9001916447
 10
262.13551813
 20
175.0165178722
 10
261.2684271247
 20
174.267375421
 10
259.9707337295
 20
173.7668144384
 10
258.44
 20
173.5910407963
 10
256.9092662705
 20
173.7668144384
 10
255.6115728753
 20
174.267375421
  0
LWPOLYLINE
  5
1E7
330
1F
100
AcDbEntity
  8
0
  6
Continuous
 62
     7
370
     0
100
AcDbPolyline
 90
       17
 70
   128
 43
0.0
 10
290.9669119346
 20
194.6775782166
 10
290.0998209293
 20
195.4267206677
 10
289.7953390593
 20
196.3103944402
 10
290.0998209293
 20
197.1940682127
 10
290.9669119346
 20
197.9432106639
 10
292.2646053299
 20
198.4437716465
 10
293.7953390593
 20
198.6195452886
 10
295.3260727888
 20
198.4437716465
 10
296.6237661841
 20
197.9432106639
 10
297.4908571894
 20
197.1940682127
 10
297.7953390593
 20
196.3103944402
 10
297.4908571894
 20
195.4267206677
 10
296.6237661841
 20
194.6775782166
 10
295.3260727888
 20
194.177017234
 10
293.7953390593
 20
194.0012435919
 10
292.2646053299
 20
194.177017234
 10
290.9669119346
 20
194.6775782166
  0
LWPOLYLINE
  5
1E8
330
1F
100
AcDbEntity
  8
0
  6
Continuous
 62
     7
370
     0
100
AcDbPolyline
 90
       17
 70
   128
 43
0.0
 10
255.6115728753
 20
215.0877810122
 10
254.74448187
 20
215.8369234633
 10
254.44
 20
216.7205972358
 10
254.74448187
 20
217.6042710083
 10
255.6115728753
 20
218.3534134595
 10
256.9092662705
 20
218.8539744421
 10
258.44
 20
219.0297480842
 10
259.9707337295
 20
218.8539744421
 10
261.2684271247
 20
218.3534134595
 10
262.13551813
 20
217.6042710083
 10
262.44
 20
216.7205972358
 10
262.13551813
 20
215.8369234633
 10
261.2684271247
 20
215.0877810122
 10
259.9707337295
 20
214.5872200295
 10
258.44
 20
214.4114463875
 10
256.9092662705
 20
214.5872200295
 10
255.6115728753
 20
215.0877810122
  0
LWPOLYLINE
  5
1E9
330
1F
100
AcDbEntity
  8
0
  6
Continuous
 62
     7
370
     0
100
AcDbPolyline
 90
       17
 70
   128
 43
0.0
 10
240.0905790282
 20
147.0581400484
 10
239.6846819531
 20
147.3856926447
 10
239.3405790282
 20
147.8498447325
 10
239.1106568046
 20
148.3799333639
 10
239.0299188564
 20
148.8952573501
 10
239.1106568046
 20
149.3173632856
 10
239.3405790282
 20
149.5819893681
 10
239.6846819531
 20
149.6488486754
 10
240.0905790282
 20
149.507762484
 10
240.4964761033
 20
149.1802098877
 10
240.8405790282
 20
148.7160577999
 10
241.0705012519
 20
148.1859691685
 10
241.1512392
 20
147.6706451823
 10
241.0705012519
 20
147.2485392469
 10
240.8405790282
 20
146.9839131643
 10
240.4964761033
 20
146.917053857
 10
240.0905790282
 20
147.0581400484
  0
LWPOLYLINE
  5
1EA
330
1F
100
AcDbEntity
  8
0
  6
Continuous
 62
     7
370
     0
100
AcDbPolyline
 90
       17
 70
   128
 43
0.0
 10
199.0783857194
 20
170.7339752912
 10
198.6724886443
 20
171.0615278876
 10
198.3283857194
 20
171.5256799753
 10
198.0984634957
 20
172.0557686067
 10
198.0177255476
 20
172.5710925929
 10
198.0984634957
 20
172.9931985284
 10
198.3283857194
 20
173.2578246109
 10
198.6724886443
 20
173.3246839182
 10
199.0783857194
 20
173.1835977269
 10
199.4842827945
 20
172.8560451306
 10
199.8283857194
 20
172.3918930428
 10
200.058307943
 20
171.8618044114
 10
200.1390458912
 20
171.3464804252
 10
200.058307943
 20
170.9243744897
 10
199.8283857194
 20
170.6597484072
 10
199.4842827945
 20
170.5928890999
 10
199.0783857194
 20
170.7339752912
  0
LWPOLYLINE
  5
1EB
330
1F
100
AcDbEntity
  8
0
  6
HIDDEN
 62
     7
370
     0
100
AcDbPolyline
 90
       17
 70
   128
 43
0.0
 10
276.7894209718
 20
218.0452234716
 10
276.3835238967
 20
218.1863096629
 10
276.0394209718
 20
218.1194503556
 10
275.8094987481
 20
217.8548242731
 10
275.7287608
 20
217.4327183376
 10
275.8094987481
 20
216.9173943514
 10
276.0394209718
 20
216.38730572
 10
276.3835238967
 20
215.9231536322
 10
276.7894209718
 20
215.5956010359
 10
277.1953180469
 20
215.4545148446
 10
277.5394209718
 20
215.5213741519
 10
277.7693431954
 20
215.7860002344
 10
277.8500811436
 20
216.2081061699
 10
277.7693431954
 20
216.723430156
 10
277.5394209718
 20
217.2535187875
 10
277.1953180469
 20
217.7176708752
 10
276.7894209718
 20
218.0452234716
  0
LWPOLYLINE
  5
1EC
330
1F
100
AcDbEntity
  8
0
  6
HIDDEN
 62
     7
370
     0
100
AcDbPolyline
 90
       17
 70
   128
 43
0.0
 10
317.8016142806
 20
194.3693882287
 10
317.3957172055
 20
194.51047442
 10
317.0516142806
 20
194.4436151127
 10
316.821692057
 20
194.1789890302
 10
316.7409541088
 20
193.7568830947
 10
316.821692057
 20
193.2415591085
 10
317.0516142806
 20
192.7114704771
 10
317.3957172055
 20
192.2473183894
 10
317.8016142806
 20
191.919765793
 10
318.2075113557
 20
191.7786796017
 10
318.5516142806
 20
191.845538909
 10
318.7815365043
 20
192.1101649915
 10
318.8622744524
 20
192.532270927
 10
318.7815365043
 20
193.0475949132
 10
318.5516142806
 20
193.5776835446
 10
318.2075113557
 20
194.0418356324
 10
317.8016142806
 20
194.3693882287
  0
LWPOLYLINE
  5
1ED
330
1F
100
AcDbEntity
  8
0
  6
Continuous
 62
     7
370
     0
100
AcDbPolyline
 90
       17
 70
   128
 43
0.0
 10
317.5541269072
 20
197.7790797611
 10
317.392651011
 20
196.7484317887
 10
316.9328065636
 20
195.6882545259
 10
316.2446007139
 20
194.7599503504
 10
315.4328065636
 20
194.1048451577
 10
314.6210124134
 20
193.822672775
 10
313.9328065636
 20
193.9563913897
 10
313.4729621163
 20
194.4856435547
 10
313.3114862201
 20
195.3298554257
 10
313.4729621163
 20
196.360503398
 10
313.9328065636
 20
197.4206806609
 10
314.6210124134
 20
198.3489848364
 10
315.4328065636
 20
199.004090029
 10
316.2446007139
 20
199.2862624117
 10
316.9328065636
 20
199.1525437971
 10
317.392651011
 20
198.6232916321
 10
317.5541269072
 20
197.7790797611
  0
LWPOLYLINE
  5
1EE
330
1F
100
AcDbEntity
  8
0
  6
Continuous
 62
     7
370
     0
100
AcDbPolyline
 90
       17
 70
   128
 43
0.0
 10
251.0860894757
 20
159.4078985055
 10
250.9246135794
 20
158.3772505331
 10
250.4647691321
 20
157.3170732702
 10
249.7765632823
 20
156.3887690947
 10
248.9647691321
 20
155.7336639021
 10
248.1529749819
 20
155.4514915194
 10
247.4647691321
 20
155.585210134
 10
247.0049246848
 20
156.114462299
 10
246.8434487885
 20
156.95867417
 10
247.0049246848
 20
157.9893221424
 10
247.4647691321
 20
159.0494994052
 10
248.1529749819
 20
159.9778035807
 10
248.9647691321
 20
160.6329087734
 10
249.7765632823
 20
160.9150811561
 10
250.4647691321
 20
160.7813625414
 10
250.9246135794
 20
160.2521103764
 10
251.0860894757
 20
159.4078985055
  0
LWPOLYLINE
  5
1EF
330
1F
100
AcDbEntity
  8
0
  6
Continuous
 62
     7
370
     0
100
AcDbPolyline
 90
       17
 70
   128
 43
0.0
 10
219.7966144082
 20
166.326559153
 10
218.9848202579
 20
166.9816643456
 10
218.2966144082
 20
167.9099685211
 10
217.8367699608
 20
168.970145784
 10
217.6752940646
 20
170.0007937564
 10
217.8367699608
 20
170.8450056273
 10
218.2966144082
 20
171.3742577923
 10
218.9848202579
 20
171.507976407
 10
219.7966144082
 20
171.2258040243
 10
220.6084085584
 20
170.5706988316
 10
221.2966144082
 20
169.6423946561
 10
221.7564588555
 20
168.5822173933
 10
221.9179347517
 20
167.5515694209
 10
221.7564588555
 20
166.7073575499
 10
221.2966144082
 20
166.1781053849
 10
220.6084085584
 20
166.0443867703
 10
219.7966144082
 20
166.326559153
  0
LWPOLYLINE
  5
1F0
330
1F
100
AcDbEntity
  8
0
  6
HIDDEN
 62
     7
370
     0
100
AcDbPolyline
 90
       17
 70
   128
 43
0.0
 10
297.0833855918
 20
215.8425073354
 10
296.2715914416
 20
216.1246797181
 10
295.5833855918
 20
215.9909611035
 10
295.1235411445
 20
215.4617089384
 10
294.9620652483
 20
214.6174970675
 10
295.1235411445
 20
213.5868490951
 10
295.5833855918
 20
212.5266718323
 10
296.2715914416
 20
211.5983676567
 10
297.0833855918
 20
210.9432624641
 10
297.8951797421
 20
210.6610900814
 10
298.5833855918
 20
210.794808696
 10
299.0432300392
 20
211.324060861
 10
299.2047059354
 20
212.168272732
 10
299.0432300392
 20
213.1989207044
 10
298.5833855918
 20
214.2590979672
 10
297.8951797421
 20
215.1874021427
 10
297.0833855918
 20
215.8425073354
  0
ENDSEC
  0
SECTION
  2
OBJECTS
  0
DICTIONARY
  5
C
330
0
100
AcDbDictionary
281
     1
  3
ACAD_GROUP
350
D
  3
ACAD_LAYOUT
350
1A
  3
ACAD_MLINESTYLE
350
17
  3
ACAD_PLOTSETTINGS
350
19
  3
ACAD_PLOTSTYLENAME
350
E
  0
DICTIONARY
  5
D
102
{ACAD_REACTORS
330
C
102
}
330
C
100
AcDbDictionary
281
     1
  0
DICTIONARY
  5
1A
102
{ACAD_REACTORS
330
C
102
}
330
C
100
AcDbDictionary
281
     1
  3
Layout1
350
1E
  3
Layout2
350
26
  3
Model
350
22
  0
DICTIONARY
  5
17
102
{ACAD_REACTORS
330
C
102
}
330
C
100
AcDbDictionary
281
     1
  3
Standard
350
18
  0
DICTIONARY
  5
19
102
{ACAD_REACTORS
330
C
102
}
330
C
100
AcDbDictionary
281
     1
  0
ACDBDICTIONARYWDFLT
  5
E
102
{ACAD_REACTORS
330
C
102
}
330
C
100
AcDbDictionary
281
     1
  3
Normal
350
F
100
AcDbDictionaryWithDefault
340
F
  0
LAYOUT
  5
1E
102
{ACAD_REACTORS
330
1A
102
}
330
1A
100
AcDbPlotSettings
  1

  2
none_device
  4

  6

 40
0.0
 41
0.0
 42
0.0
 43
0.0
 44
0.0
 45
0.0
 46
0.0
 47
0.0
 48
0.0
 49
0.0
140
0.0
141
0.0
142
1.0
143
1.0
 70
   688
 72
     0
 73
     0
 74
     5
  7

 75
    16
147
1.0
148
0.0
149
0.0
100
AcDbLayout
  1
Layout1
 70
     1
 71
     1
 10
0.0
 20
0.0
 11
420.0
 21
297.0
 12
0.0
 22
0.0
 32
0.0
 14
1.0000000000E+20
 24
1.0000000000E+20
 34
1.0000000000E+20
 15
-1.0000000000E+20
 25
-1.0000000000E+20
 35
-1.0000000000E+20
146
0.0
 13
0.0
 23
0.0
 33
0.0
 16
1.0
 26
0.0
 36
0.0
 17
0.0
 27
1.0
 37
0.0
 76
     0
330
1B
  0
LAYOUT
  5
26
102
{ACAD_REACTORS
330
1A
102
}
330
1A
100
AcDbPlotSettings
  1

  2
none_device
  4

  6

 40
0.0
 41
0.0
 42
0.0
 43
0.0
 44
0.0
 45
0.0
 46
0.0
 47
0.0
 48
0.0
 49
0.0
140
0.0
141
0.0
142
1.0
143
1.0
 70
   688
 72
     0
 73
     0
 74
     5
  7

 75
    16
147
1.0
148
0.0
149
0.0
100
AcDbLayout
  1
Layout2
 70
     1
 71
     2
 10
0.0
 20
0.0
 11
0.0
 21
0.0
 12
0.0
 22
0.0
 32
0.0
 14
0.0
 24
0.0
 34
0.0
 15
0.0
 25
0.0
 35
0.0
146
0.0
 13
0.0
 23
0.0
 33
0.0
 16
1.0
 26
0.0
 36
0.0
 17
0.0
 27
1.0
 37
0.0
 76
     0
330
23
  0
LAYOUT
  5
22
102
{ACAD_REACTORS
330
1A
102
}
330
1A
100
AcDbPlotSettings
  1

  2
none_device
  4

  6

 40
0.0
 41
0.0
 42
0.0
 43
0.0
 44
0.0
 45
0.0
 46
0.0
 47
0.0
 48
0.0
 49
0.0
140
0.0
141
0.0
142
1.0
143
1.0
 70
  1712
 72
     0
 73
     0
 74
     0
  7

 75
     0
147
1.0
148
0.0
149
0.0
100
AcDbLayout
  1
Model
 70
     1
 71
     0
 10
0.0
 20
0.0
 11
0.0
 21
0.0
 12
0.0
 22
0.0
 32
0.0
 14
0.0
 24
0.0
 34
0.0
 15
420.0
 25
297.0
 35
0.0
146
0.0
 13
0.0
 23
0.0
 33
0.0
 16
1.0
 26
0.0
 36
0.0
 17
0.0
 27
1.0
 37
0.0
 76
     0
330
1F
  0
MLINESTYLE
  5
18
102
{ACAD_REACTORS
330
17
102
}
330
17
100
AcDbMlineStyle
  2
Standard
 70
     0
  3

 62
   256
 51
90.0
 52
90.0
 71
     2
 49
0.5
 62
   256
  6
BYLAYER
 49
-0.5
 62
   256
  6
BYLAYER
  0
ACDBPLACEHOLDER
  5
F
102
{ACAD_REACTORS
330
E
102
}
330
E
  0
ENDSEC
  0
EOF
