  0
SECTION
  2
HEADER
  9
$ACADVER
  1
AC1015
  9
$ACADMAINTVER
 70
     6
  9
$DWGCODEPAGE
  3
ANSI_1252
  9
$INSBASE
 10
0.0
 20
0.0
 30
0.0
  9
$EXTMIN
 10
0.0
 20
0.0
 30
0.0
  9
$EXTMAX
 10
297.0
 20
210.0
 30
0.0
  9
$LIMMIN
 10
0.0
 20
0.0
  9
$LIMMAX
 10
0.0
 20
0.0
  9
$ORTHOMODE
 70
     0
  9
$REGENMODE
 70
     1
  9
$FILLMODE
 70
     1
  9
$QTEXTMODE
 70
     0
  9
$MIRRTEXT
 70
     1
  9
$LTSCALE
 40
1.0
  9
$ATTMODE
 70
     1
  9
$TEXTSIZE
 40
3.5
  9
$TRACEWID
 40
1.0
  9
$TEXTSTYLE
  7
Standard
  9
$CLAYER
  8
0
  9
$CELTYPE
  6
ByLayer
  9
$CECOLOR
 62
   256
  9
$CELTSCALE
 40
1.0
  9
$DISPSILH
 70
     0
  9
$DIMSCALE
 40
1.0
  9
$DIMASZ
 40
6.0
  9
$DIMEXO
 40
1.0
  9
$DIMDLI
 40
3.75
  9
$DIMRND
 40
0.0
  9
$DIMDLE
 40
0.0
  9
$DIMEXE
 40
1.0
  9
$DIMTP
 40
0.0
  9
$DIMTM
 40
0.0
  9
$DIMTXT
 40
3.5
  9
$DIMCEN
 40
2.5
  9
$DIMTSZ
 40
0.0
  9
$DIMTOL
 70
     0
  9
$DIMLIM
 70
     0
  9
$DIMTIH
 70
     1
  9
$DIMTOH
 70
     1
  9
$DIMSE1
 70
     0
  9
$DIMSE2
 70
     0
  9
$DIMTAD
 70
     1
  9
$DIMZIN
 70
     0
  9
$DIMBLK
  1

  9
$DIMASO
 70
     1
  9
$DIMSHO
 70
     1
  9
$DIMPOST
  1

  9
$DIMAPOST
  1

  9
$DIMALT
 70
     0
  9
$DIMALTD
 70
     3
  9
$DIMALTF
 40
0.0393700787
  9
$DIMLFAC
 40
1.0
  9
$DIMTOFL
 70
     1
  9
$DIMTVP
 40
0.0
  9
$DIMTIX
 70
     0
  9
$DIMSOXD
 70
     0
  9
$DIMSAH
 70
     0
  9
$DIMBLK1
  1

  9
$DIMBLK2
  1

  9
$DIMSTYLE
  2
ISO-25
  9
$DIMCLRD
 70
     0
  9
$DIMCLRE
 70
     0
  9
$DIMCLRT
 70
     0
  9
$DIMTFAC
 40
1.0
  9
$DIMGAP
 40
1.524
  9
$DIMJUST
 70
     0
  9
$DIMSD1
 70
     0
  9
$DIMSD2
 70
     0
  9
$DIMTOLJ
 70
     0
  9
$DIMTZIN
 70
     0
  9
$DIMALTZ
 70
     0
  9
$DIMALTTZ
 70
     0
  9
$DIMUPT
 70
     0
  9
$DIMDEC
 70
     2
  9
$DIMTDEC
 70
     2
  9
$DIMALTU
 70
     2
  9
$DIMALTTD
 70
     3
  9
$DIMTXSTY
  7
Standard
  9
$DIMAUNIT
 70
     0
  9
$DIMADEC
 70
     0
  9
$DIMALTRND
 40
0.0
  9
$DIMAZIN
 70
     0
  9
$DIMDSEP
 70
    44
  9
$DIMATFIT
 70
     3
  9
$DIMFRAC
 70
     0
  9
$DIMLDRBLK
  1

  9
$DIMLUNIT
 70
     2
  9
$DIMLWD
 70
    -2
  9
$DIMLWE
 70
    -2
  9
$DIMTMOVE
 70
     0
  9
$LUNITS
 70
     2
  9
$LUPREC
 70
     2
  9
$SKETCHINC
 40
1.0
  9
$FILLETRAD
 40
10.0
  9
$AUNITS
 70
     0
  9
$AUPREC
 70
     0
  9
$MENU
  1
.
  9
$ELEVATION
 40
0.0
  9
$PELEVATION
 40
0.0
  9
$THICKNESS
 40
0.0
  9
$LIMCHECK
 70
     0
  9
$CHAMFERA
 40
10.0
  9
$CHAMFERB
 40
10.0
  9
$CHAMFERC
 40
20.0
  9
$CHAMFERD
 40
0.0
  9
$SKPOLY
 70
     0
  9
$TDCREATE
 40
2454110.657852465
  9
$TDUCREATE
 40
2454110.866185799
  9
$TDUPDATE
 40
2454110.657852477
  9
$TDUUPDATE
 40
2454110.86618581
  9
$TDINDWG
 40
0.0000000116
  9
$TDUSRTIMER
 40
0.0000000116
  9
$USRTIMER
 70
     1
  9
$ANGBASE
 50
0.0
  9
$ANGDIR
 70
     0
  9
$PDMODE
 70
     0
  9
$PDSIZE
 40
-1.0
  9
$PLINEWID
 40
0.0
  9
$SPLFRAME
 70
     0
  9
$SPLINETYPE
 70
     6
  9
$SPLINESEGS
 70
     8
  9
$HANDSEED
  5
299
  9
$SURFTAB1
 70
     6
  9
$SURFTAB2
 70
     6
  9
$SURFTYPE
 70
     6
  9
$SURFU
 70
     6
  9
$SURFV
 70
     6
  9
$UCSBASE
  2

  9
$UCSNAME
  2

  9
$UCSORG
 10
0.0
 20
0.0
 30
0.0
  9
$UCSXDIR
 10
1.0
 20
0.0
 30
0.0
  9
$UCSYDIR
 10
0.0
 20
1.0
 30
0.0
  9
$UCSORTHOREF
  2

  9
$UCSORTHOVIEW
 70
     0
  9
$UCSORGTOP
 10
0.0
 20
0.0
 30
0.0
  9
$UCSORGBOTTOM
 10
0.0
 20
0.0
 30
0.0
  9
$UCSORGLEFT
 10
0.0
 20
0.0
 30
0.0
  9
$UCSORGRIGHT
 10
0.0
 20
0.0
 30
0.0
  9
$UCSORGFRONT
 10
0.0
 20
0.0
 30
0.0
  9
$UCSORGBACK
 10
0.0
 20
0.0
 30
0.0
  9
$PUCSBASE
  2

  9
$PUCSNAME
  2

  9
$PUCSORG
 10
0.0
 20
0.0
 30
0.0
  9
$PUCSXDIR
 10
1.0
 20
0.0
 30
0.0
  9
$PUCSYDIR
 10
0.0
 20
1.0
 30
0.0
  9
$PUCSORTHOREF
  2

  9
$PUCSORTHOVIEW
 70
     0
  9
$PUCSORGTOP
 10
0.0
 20
0.0
 30
0.0
  9
$PUCSORGBOTTOM
 10
0.0
 20
0.0
 30
0.0
  9
$PUCSORGLEFT
 10
0.0
 20
0.0
 30
0.0
  9
$PUCSORGRIGHT
 10
0.0
 20
0.0
 30
0.0
  9
$PUCSORGFRONT
 10
0.0
 20
0.0
 30
0.0
  9
$PUCSORGBACK
 10
0.0
 20
0.0
 30
0.0
  9
$USERI1
 70
     0
  9
$USERI2
 70
     0
  9
$USERI3
 70
     0
  9
$USERI4
 70
     0
  9
$USERI5
 70
     0
  9
$USERR1
 40
0.0
  9
$USERR2
 40
0.0
  9
$USERR3
 40
0.0
  9
$USERR4
 40
0.0
  9
$USERR5
 40
0.0
  9
$WORLDVIEW
 70
     1
  9
$SHADEDGE
 70
     3
  9
$SHADEDIF
 70
    70
  9
$TILEMODE
 70
     1
  9
$MAXACTVP
 70
    64
  9
$PINSBASE
 10
0.0
 20
0.0
 30
0.0
  9
$PLIMCHECK
 70
     0
  9
$PEXTMIN
 10
1.0000000000E+20
 20
1.0000000000E+20
 30
1.0000000000E+20
  9
$PEXTMAX
 10
-1.0000000000E+20
 20
-1.0000000000E+20
 30
-1.0000000000E+20
  9
$PLIMMIN
 10
0.0
 20
0.0
  9
$PLIMMAX
 10
420.0
 20
297.0
  9
$UNITMODE
 70
     0
  9
$VISRETAIN
 70
     1
  9
$PLINEGEN
 70
     0
  9
$PSLTSCALE
 70
     1
  9
$TREEDEPTH
 70
  3020
  9
$CMLSTYLE
  2
Standard
  9
$CMLJUST
 70
     0
  9
$CMLSCALE
 40
20.0
  9
$PROXYGRAPHICS
 70
     1
  9
$MEASUREMENT
 70
     1
  9
$CELWEIGHT
370
    -1
  9
$ENDCAPS
280
     0
  9
$JOINSTYLE
280
     0
  9
$LWDISPLAY
290
     1
  9
$INSUNITS
 70
     4
  9
$HYPERLINKBASE
  1

  9
$STYLESHEET
  1

  9
$XEDIT
290
     1
  9
$CEPSNTYPE
380
     0
  9
$PSTYLEMODE
290
     1
  9
$FINGERPRINTGUID
  2
{3D787549-37F0-468F-B257-2E1AFEC2976F}
  9
$VERSIONGUID
  2
{FAEB1C32-E019-11D5-929B-00C0DF256EC4}
  9
$EXTNAMES
290
     1
  9
$PSVPSCALE
 40
0.0
  9
$OLESTARTUP
290
     0
  0
ENDSEC
  0
SECTION
  2
CLASSES
  0
CLASS
  1
ACDBDICTIONARYWDFLT
  2
AcDbDictionaryWithDefault
  3
ObjectDBX Classes
 90
        0
280
     0
281
     0
  0
CLASS
  1
ACDBPLACEHOLDER
  2
AcDbPlaceHolder
  3
ObjectDBX Classes
 90
        0
280
     0
281
     0
  0
CLASS
  1
LAYOUT
  2
AcDbLayout
  3
ObjectDBX Classes
 90
        0
280
     0
281
     0
  0
ENDSEC
  0
SECTION
  2
TABLES
  0
TABLE
  2
VPORT
  5
8
330
0
100
AcDbSymbolTable
 70
     1
  0
VPORT
  5
29
330
8
100
AcDbSymbolTableRecord
100
AcDbViewportTableRecord
  2
*Active
 70
     0
 10
0.0
 20
0.0
 11
1.0
 21
1.0
 12
148.5
 22
105.0
 13
0.0
 23
0.0
 14
10.0
 24
10.0
 15
10.0
 25
10.0
 16
0.0
 26
0.0
 36
1.0
 17
0.0
 27
0.0
 37
0.0
 40
210.0
 41
1.4142857143
 42
50.0
 43
0.0
 44
0.0
 50
0.0
 51
0.0
 71
     0
 72
  2000
 73
     1
 74
     3
 75
     0
 76
     0
 77
     0
 78
     0
281
     0
 65
     1
110
0.0
120
0.0
130
0.0
111
1.0
121
0.0
131
0.0
112
0.0
122
1.0
132
0.0
 79
     0
146
0.0
  0
ENDTAB
  0
TABLE
  2
LTYPE
  5
5
330
0
100
AcDbSymbolTable
 70
     6
  0
LTYPE
  5
14
330
5
100
AcDbSymbolTableRecord
100
AcDbLinetypeTableRecord
  2
ByBlock
 70
     0
  3

 72
    65
 73
     0
 40
0.0
  0
LTYPE
  5
15
330
5
100
AcDbSymbolTableRecord
100
AcDbLinetypeTableRecord
  2
ByLayer
 70
     0
  3

 72
    65
 73
     0
 40
0.0
  0
LTYPE
  5
16
330
5
100
AcDbSymbolTableRecord
100
AcDbLinetypeTableRecord
  2
Continuous
 70
     0
  3
Solid line
 72
    65
 73
     0
 40
0.0
  0
LTYPE
  5
2A
330
5
100
AcDbSymbolTableRecord
100
AcDbLinetypeTableRecord
  2
HIDDEN
 70
     0
  3
Hidden __ __ __ __ __ __ __ __ __ __ __ __ __ __
 72
    65
 73
     2
 40
1.905
 49
1.27
 74
     0
 49
-0.635
 74
     0
  0
LTYPE
  5
2B
330
5
100
AcDbSymbolTableRecord
100
AcDbLinetypeTableRecord
  2
PHANTOM
 70
     0
  3
Phantom ______  __  __  ______  __  __  ______
 72
    65
 73
     6
 40
12.7
 49
6.35
 74
     0
 49
-1.27
 74
     0
 49
1.27
 74
     0
 49
-1.27
 74
     0
 49
1.27
 74
     0
 49
-1.27
 74
     0
  0
LTYPE
  5
2C
330
5
100
AcDbSymbolTableRecord
100
AcDbLinetypeTableRecord
  2
CENTER
 70
     0
  3
Center ____ _ ____ _ ____ _ ____ _ ____ _ ____
 72
    65
 73
     4
 40
10.16
 49
6.35
 74
     0
 49
-1.27
 74
     0
 49
1.27
 74
     0
 49
-1.27
 74
     0
  0
LTYPE
  5
2D
330
5
100
AcDbSymbolTableRecord
100
AcDbLinetypeTableRecord
  2
CENTERX2
 70
     0
  3
Center (2x) ________  __  ________  __  _____
 72
    65
 73
     4
 40
20.32
 49
12.7
 74
     0
 49
-2.54
 74
     0
 49
2.54
 74
     0
 49
-2.54
 74
     0
  0
LTYPE
  5
2E
330
5
100
AcDbSymbolTableRecord
100
AcDbLinetypeTableRecord
  2
DOT2
 70
     0
  3
Dot (.5x) ........................................
 72
    65
 73
     2
 40
0.635
 49
0.0
 74
     0
 49
-0.635
 74
     0
  0
ENDTAB
  0
TABLE
  2
LAYER
  5
2
330
0
100
AcDbSymbolTable
 70
     1
  0
LAYER
  5
10
330
2
100
AcDbSymbolTableRecord
100
AcDbLayerTableRecord
  2
0
 70
     0
 62
     7
  6
Continuous
370
    -3
390
F
  0
ENDTAB
  0
TABLE
  2
STYLE
  5
3
330
0
100
AcDbSymbolTable
 70
     1
  0
STYLE
  5
11
330
3
100
AcDbSymbolTableRecord
100
AcDbTextStyleTableRecord
  2
Standard
 70
     0
 40
0.0
 41
1.0
 50
0.0
 71
     0
 42
2.5
  3
txt
  4

  0
ENDTAB
  0
TABLE
  2
VIEW
  5
6
330
0
100
AcDbSymbolTable
 70
     0
  0
ENDTAB
  0
TABLE
  2
UCS
  5
7
330
0
100
AcDbSymbolTable
 70
     0
  0
ENDTAB
  0
TABLE
  2
APPID
  5
9
330
0
100
AcDbSymbolTable
 70
     1
  0
APPID
  5
12
330
9
100
AcDbSymbolTableRecord
100
AcDbRegAppTableRecord
  2
ACAD
 70
     0
  0
ENDTAB
  0
TABLE
  2
DIMSTYLE
  5
A
330
0
100
AcDbSymbolTable
 70
     1
100
AcDbDimStyleTable
  0
DIMSTYLE
105
27
330
A
100
AcDbSymbolTableRecord
100
AcDbDimStyleTableRecord
  2
ISO-25
 70
     0
 41
2.5
 42
0.625
 43
3.75
 44
1.25
 73
     0
 74
     0
 77
     1
 78
     8
140
2.5
141
2.5
143
0.0393700787
147
0.625
171
     3
172
     1
271
     2
272
     2
274
     3
278
    44
283
     0
284
     8
340
11
  0
ENDTAB
  0
TABLE
  2
BLOCK_RECORD
  5
1
330
0
100
AcDbSymbolTable
 70
    16
  0
BLOCK_RECORD
  5
1F
330
1
100
AcDbSymbolTableRecord
100
AcDbBlockTableRecord
  2
*Model_Space
340
22
  0
BLOCK_RECORD
  5
1B
330
1
100
AcDbSymbolTableRecord
100
AcDbBlockTableRecord
  2
*Paper_Space
340
1E
  0
BLOCK_RECORD
  5
23
330
1
100
AcDbSymbolTableRecord
100
AcDbBlockTableRecord
  2
*Paper_Space0
340
26
  0
BLOCK_RECORD
  5
76
330
1
100
AcDbSymbolTableRecord
100
AcDbBlockTableRecord
  2
SW_CENTERMARKSYMBOL_0
340
0
102
{BLKREFS
331
81
102
}
  0
BLOCK_RECORD
  5
82
330
1
100
AcDbSymbolTableRecord
100
AcDbBlockTableRecord
  2
SW_CENTERMARKSYMBOL_1
340
0
102
{BLKREFS
331
8D
102
}
  0
BLOCK_RECORD
  5
8E
330
1
100
AcDbSymbolTableRecord
100
AcDbBlockTableRecord
  2
SW_CENTERMARKSYMBOL_2
340
0
102
{BLKREFS
331
99
102
}
  0
BLOCK_RECORD
  5
D6
330
1
100
AcDbSymbolTableRecord
100
AcDbBlockTableRecord
  2
SW_CENTERMARKSYMBOL_3
340
0
102
{BLKREFS
331
E1
102
}
  0
BLOCK_RECORD
  5
E2
330
1
100
AcDbSymbolTableRecord
100
AcDbBlockTableRecord
  2
SW_CENTERMARKSYMBOL_4
340
0
102
{BLKREFS
331
ED
102
}
  0
BLOCK_RECORD
  5
15F
330
1
100
AcDbSymbolTableRecord
100
AcDbBlockTableRecord
  2
SW_CENTERMARKSYMBOL_5
340
0
102
{BLKREFS
331
166
102
}
  0
BLOCK_RECORD
  5
167
330
1
100
AcDbSymbolTableRecord
100
AcDbBlockTableRecord
  2
SW_CENTERMARKSYMBOL_6
340
0
102
{BLKREFS
331
172
102
}
  0
BLOCK_RECORD
  5
173
330
1
100
AcDbSymbolTableRecord
100
AcDbBlockTableRecord
  2
SW_CENTERMARKSYMBOL_7
340
0
102
{BLKREFS
331
17A
102
}
  0
BLOCK_RECORD
  5
17B
330
1
100
AcDbSymbolTableRecord
100
AcDbBlockTableRecord
  2
SW_CENTERMARKSYMBOL_8
340
0
102
{BLKREFS
331
186
102
}
  0
BLOCK_RECORD
  5
187
330
1
100
AcDbSymbolTableRecord
100
AcDbBlockTableRecord
  2
SW_CENTERMARKSYMBOL_9
340
0
102
{BLKREFS
331
192
102
}
  0
BLOCK_RECORD
  5
193
330
1
100
AcDbSymbolTableRecord
100
AcDbBlockTableRecord
  2
SW_CENTERMARKSYMBOL_10
340
0
102
{BLKREFS
331
19E
102
}
  0
BLOCK_RECORD
  5
19F
330
1
100
AcDbSymbolTableRecord
100
AcDbBlockTableRecord
  2
SW_CENTERMARKSYMBOL_11
340
0
102
{BLKREFS
331
1AA
102
}
  0
BLOCK_RECORD
  5
1AB
330
1
100
AcDbSymbolTableRecord
100
AcDbBlockTableRecord
  2
SW_CENTERMARKSYMBOL_12
340
0
102
{BLKREFS
331
1B6
102
}
  0
BLOCK_RECORD
  5
1B7
330
1
100
AcDbSymbolTableRecord
100
AcDbBlockTableRecord
  2
SW_CENTERMARKSYMBOL_13
340
0
102
{BLKREFS
331
1C2
102
}
  0
BLOCK_RECORD
  5
1C3
330
1
100
AcDbSymbolTableRecord
100
AcDbBlockTableRecord
  2
SW_CENTERMARKSYMBOL_14
340
0
102
{BLKREFS
331
1CE
102
}
  0
ENDTAB
  0
ENDSEC
  0
SECTION
  2
BLOCKS
  0
BLOCK
  5
20
330
1F
100
AcDbEntity
  8
0
100
AcDbBlockBegin
  2
*Model_Space
 70
     0
 71
     0
 10
0.0
 20
0.0
 30
0.0
  3
*Model_Space
  1

  0
ENDBLK
  5
21
330
1F
100
AcDbEntity
  8
0
100
AcDbBlockEnd
  0
BLOCK
  5
1C
330
1B
100
AcDbEntity
 67
     1
  8
0
100
AcDbBlockBegin
  2
*Paper_Space
 70
     0
 71
     0
 10
0.0
 20
0.0
 30
0.0
  3
*Paper_Space
  1

  0
ENDBLK
  5
1D
330
1B
100
AcDbEntity
 67
     1
  8
0
100
AcDbBlockEnd
  0
BLOCK
  5
24
330
23
100
AcDbEntity
  8
0
100
AcDbBlockBegin
  2
*Paper_Space0
 70
     0
 71
     0
 10
0.0
 20
0.0
 30
0.0
  3
*Paper_Space0
  1

  0
ENDBLK
  5
25
330
23
100
AcDbEntity
  8
0
100
AcDbBlockEnd
  0
BLOCK
  5
77
330
76
100
AcDbEntity
  8
0
100
AcDbBlockBegin
  2
SW_CENTERMARKSYMBOL_0
 70
     0
 71
     0
 10
0.0
 20
0.0
 30
0.0
  3
SW_CENTERMARKSYMBOL_0
  1

  0
LINE
  5
79
330
76
100
AcDbEntity
  8
0
  6
Continuous
 62
     0
370
     0
100
AcDbLine
 10
0.0
 20
0.0
 30
0.0
 11
0.0
 21
2.5
 31
0.0
  0
LINE
  5
7A
330
76
100
AcDbEntity
  8
0
  6
Continuous
 62
     0
370
     0
100
AcDbLine
 10
0.0
 20
0.0
 30
0.0
 11
-2.5
 21
0.0
 31
0.0
  0
LINE
  5
7B
330
76
100
AcDbEntity
  8
0
  6
Continuous
 62
     0
370
     0
100
AcDbLine
 10
0.0
 20
0.0
 30
0.0
 11
0.0
 21
-2.5
 31
0.0
  0
LINE
  5
7C
330
76
100
AcDbEntity
  8
0
  6
Continuous
 62
     0
370
     0
100
AcDbLine
 10
0.0
 20
0.0
 30
0.0
 11
2.5
 21
0.0
 31
0.0
  0
LINE
  5
7D
330
76
100
AcDbEntity
  8
0
  6
Continuous
 62
     0
370
     0
100
AcDbLine
 10
0.0
 20
2.5
 30
0.0
 11
0.0
 21
3.75
 31
0.0
  0
LINE
  5
7E
330
76
100
AcDbEntity
  8
0
  6
Continuous
 62
     0
370
     0
100
AcDbLine
 10
-2.5
 20
0.0
 30
0.0
 11
-3.75
 21
0.0
 31
0.0
  0
LINE
  5
7F
330
76
100
AcDbEntity
  8
0
  6
Continuous
 62
     0
370
     0
100
AcDbLine
 10
0.0
 20
-2.5
 30
0.0
 11
0.0
 21
-3.75
 31
0.0
  0
LINE
  5
80
330
76
100
AcDbEntity
  8
0
  6
Continuous
 62
     0
370
     0
100
AcDbLine
 10
2.5
 20
0.0
 30
0.0
 11
3.75
 21
0.0
 31
0.0
  0
ENDBLK
  5
78
330
76
100
AcDbEntity
  8
0
100
AcDbBlockEnd
  0
BLOCK
  5
83
330
82
100
AcDbEntity
  8
0
100
AcDbBlockBegin
  2
SW_CENTERMARKSYMBOL_1
 70
     0
 71
     0
 10
0.0
 20
0.0
 30
0.0
  3
SW_CENTERMARKSYMBOL_1
  1

  0
LINE
  5
85
330
82
100
AcDbEntity
  8
0
  6
Continuous
 62
     0
370
     0
100
AcDbLine
 10
0.0
 20
0.0
 30
0.0
 11
0.0
 21
2.5
 31
0.0
  0
LINE
  5
86
330
82
100
AcDbEntity
  8
0
  6
Continuous
 62
     0
370
     0
100
AcDbLine
 10
0.0
 20
0.0
 30
0.0
 11
-2.5
 21
0.0
 31
0.0
  0
LINE
  5
87
330
82
100
AcDbEntity
  8
0
  6
Continuous
 62
     0
370
     0
100
AcDbLine
 10
0.0
 20
0.0
 30
0.0
 11
0.0
 21
-2.5
 31
0.0
  0
LINE
  5
88
330
82
100
AcDbEntity
  8
0
  6
Continuous
 62
     0
370
     0
100
AcDbLine
 10
0.0
 20
0.0
 30
0.0
 11
2.5
 21
0.0
 31
0.0
  0
LINE
  5
89
330
82
100
AcDbEntity
  8
0
  6
Continuous
 62
     0
370
     0
100
AcDbLine
 10
0.0
 20
2.5
 30
0.0
 11
0.0
 21
3.75
 31
0.0
  0
LINE
  5
8A
330
82
100
AcDbEntity
  8
0
  6
Continuous
 62
     0
370
     0
100
AcDbLine
 10
-2.5
 20
0.0
 30
0.0
 11
-3.75
 21
0.0
 31
0.0
  0
LINE
  5
8B
330
82
100
AcDbEntity
  8
0
  6
Continuous
 62
     0
370
     0
100
AcDbLine
 10
0.0
 20
-2.5
 30
0.0
 11
0.0
 21
-3.75
 31
0.0
  0
LINE
  5
8C
330
82
100
AcDbEntity
  8
0
  6
Continuous
 62
     0
370
     0
100
AcDbLine
 10
2.5
 20
0.0
 30
0.0
 11
3.75
 21
0.0
 31
0.0
  0
ENDBLK
  5
84
330
82
100
AcDbEntity
  8
0
100
AcDbBlockEnd
  0
BLOCK
  5
8F
330
8E
100
AcDbEntity
  8
0
100
AcDbBlockBegin
  2
SW_CENTERMARKSYMBOL_2
 70
     0
 71
     0
 10
0.0
 20
0.0
 30
0.0
  3
SW_CENTERMARKSYMBOL_2
  1

  0
LINE
  5
91
330
8E
100
AcDbEntity
  8
0
  6
Continuous
 62
     0
370
     0
100
AcDbLine
 10
0.0
 20
0.0
 30
0.0
 11
0.0
 21
2.5
 31
0.0
  0
LINE
  5
92
330
8E
100
AcDbEntity
  8
0
  6
Continuous
 62
     0
370
     0
100
AcDbLine
 10
0.0
 20
0.0
 30
0.0
 11
-2.5
 21
0.0
 31
0.0
  0
LINE
  5
93
330
8E
100
AcDbEntity
  8
0
  6
Continuous
 62
     0
370
     0
100
AcDbLine
 10
0.0
 20
0.0
 30
0.0
 11
0.0
 21
-2.5
 31
0.0
  0
LINE
  5
94
330
8E
100
AcDbEntity
  8
0
  6
Continuous
 62
     0
370
     0
100
AcDbLine
 10
0.0
 20
0.0
 30
0.0
 11
2.5
 21
0.0
 31
0.0
  0
LINE
  5
95
330
8E
100
AcDbEntity
  8
0
  6
Continuous
 62
     0
370
     0
100
AcDbLine
 10
0.0
 20
2.5
 30
0.0
 11
0.0
 21
5.0
 31
0.0
  0
LINE
  5
96
330
8E
100
AcDbEntity
  8
0
  6
Continuous
 62
     0
370
     0
100
AcDbLine
 10
-2.5
 20
0.0
 30
0.0
 11
-5.0
 21
0.0
 31
0.0
  0
LINE
  5
97
330
8E
100
AcDbEntity
  8
0
  6
Continuous
 62
     0
370
     0
100
AcDbLine
 10
0.0
 20
-2.5
 30
0.0
 11
0.0
 21
-5.0
 31
0.0
  0
LINE
  5
98
330
8E
100
AcDbEntity
  8
0
  6
Continuous
 62
     0
370
     0
100
AcDbLine
 10
2.5
 20
0.0
 30
0.0
 11
5.0
 21
0.0
 31
0.0
  0
ENDBLK
  5
90
330
8E
100
AcDbEntity
  8
0
100
AcDbBlockEnd
  0
BLOCK
  5
D7
330
D6
100
AcDbEntity
  8
0
100
AcDbBlockBegin
  2
SW_CENTERMARKSYMBOL_3
 70
     0
 71
     0
 10
0.0
 20
0.0
 30
0.0
  3
SW_CENTERMARKSYMBOL_3
  1

  0
LINE
  5
D9
330
D6
100
AcDbEntity
  8
0
  6
Continuous
 62
     0
370
     0
100
AcDbLine
 10
0.0
 20
0.0
 30
0.0
 11
0.0
 21
2.5
 31
0.0
  0
LINE
  5
DA
330
D6
100
AcDbEntity
  8
0
  6
Continuous
 62
     0
370
     0
100
AcDbLine
 10
0.0
 20
0.0
 30
0.0
 11
-2.5
 21
0.0
 31
0.0
  0
LINE
  5
DB
330
D6
100
AcDbEntity
  8
0
  6
Continuous
 62
     0
370
     0
100
AcDbLine
 10
0.0
 20
0.0
 30
0.0
 11
0.0
 21
-2.5
 31
0.0
  0
LINE
  5
DC
330
D6
100
AcDbEntity
  8
0
  6
Continuous
 62
     0
370
     0
100
AcDbLine
 10
0.0
 20
0.0
 30
0.0
 11
2.5
 21
0.0
 31
0.0
  0
LINE
  5
DD
330
D6
100
AcDbEntity
  8
0
  6
Continuous
 62
     0
370
     0
100
AcDbLine
 10
0.0
 20
2.5
 30
0.0
 11
0.0
 21
5.0
 31
0.0
  0
LINE
  5
DE
330
D6
100
AcDbEntity
  8
0
  6
Continuous
 62
     0
370
     0
100
AcDbLine
 10
-2.5
 20
0.0
 30
0.0
 11
-5.0
 21
0.0
 31
0.0
  0
LINE
  5
DF
330
D6
100
AcDbEntity
  8
0
  6
Continuous
 62
     0
370
     0
100
AcDbLine
 10
0.0
 20
-2.5
 30
0.0
 11
0.0
 21
-5.0
 31
0.0
  0
LINE
  5
E0
330
D6
100
AcDbEntity
  8
0
  6
Continuous
 62
     0
370
     0
100
AcDbLine
 10
2.5
 20
0.0
 30
0.0
 11
5.0
 21
0.0
 31
0.0
  0
ENDBLK
  5
D8
330
D6
100
AcDbEntity
  8
0
100
AcDbBlockEnd
  0
BLOCK
  5
E3
330
E2
100
AcDbEntity
  8
0
100
AcDbBlockBegin
  2
SW_CENTERMARKSYMBOL_4
 70
     0
 71
     0
 10
0.0
 20
0.0
 30
0.0
  3
SW_CENTERMARKSYMBOL_4
  1

  0
LINE
  5
E5
330
E2
100
AcDbEntity
  8
0
  6
Continuous
 62
     0
370
     0
100
AcDbLine
 10
0.0
 20
0.0
 30
0.0
 11
0.0
 21
2.5
 31
0.0
  0
LINE
  5
E6
330
E2
100
AcDbEntity
  8
0
  6
Continuous
 62
     0
370
     0
100
AcDbLine
 10
0.0
 20
0.0
 30
0.0
 11
-2.5
 21
0.0
 31
0.0
  0
LINE
  5
E7
330
E2
100
AcDbEntity
  8
0
  6
Continuous
 62
     0
370
     0
100
AcDbLine
 10
0.0
 20
0.0
 30
0.0
 11
0.0
 21
-2.5
 31
0.0
  0
LINE
  5
E8
330
E2
100
AcDbEntity
  8
0
  6
Continuous
 62
     0
370
     0
100
AcDbLine
 10
0.0
 20
0.0
 30
0.0
 11
2.5
 21
0.0
 31
0.0
  0
LINE
  5
E9
330
E2
100
AcDbEntity
  8
0
  6
Continuous
 62
     0
370
     0
100
AcDbLine
 10
0.0
 20
2.5
 30
0.0
 11
0.0
 21
5.0
 31
0.0
  0
LINE
  5
EA
330
E2
100
AcDbEntity
  8
0
  6
Continuous
 62
     0
370
     0
100
AcDbLine
 10
-2.5
 20
0.0
 30
0.0
 11
-5.0
 21
0.0
 31
0.0
  0
LINE
  5
EB
330
E2
100
AcDbEntity
  8
0
  6
Continuous
 62
     0
370
     0
100
AcDbLine
 10
0.0
 20
-2.5
 30
0.0
 11
0.0
 21
-5.0
 31
0.0
  0
LINE
  5
EC
330
E2
100
AcDbEntity
  8
0
  6
Continuous
 62
     0
370
     0
100
AcDbLine
 10
2.5
 20
0.0
 30
0.0
 11
5.0
 21
0.0
 31
0.0
  0
ENDBLK
  5
E4
330
E2
100
AcDbEntity
  8
0
100
AcDbBlockEnd
  0
BLOCK
  5
160
330
15F
100
AcDbEntity
  8
0
100
AcDbBlockBegin
  2
SW_CENTERMARKSYMBOL_5
 70
     0
 71
     0
 10
0.0
 20
0.0
 30
0.0
  3
SW_CENTERMARKSYMBOL_5
  1

  0
LINE
  5
162
330
15F
100
AcDbEntity
  8
0
  6
Continuous
 62
     0
370
     0
100
AcDbLine
 10
0.0
 20
0.0
 30
0.0
 11
0.0
 21
2.5
 31
0.0
  0
LINE
  5
163
330
15F
100
AcDbEntity
  8
0
  6
Continuous
 62
     0
370
     0
100
AcDbLine
 10
0.0
 20
0.0
 30
0.0
 11
-2.5
 21
0.0
 31
0.0
  0
LINE
  5
164
330
15F
100
AcDbEntity
  8
0
  6
Continuous
 62
     0
370
     0
100
AcDbLine
 10
0.0
 20
0.0
 30
0.0
 11
0.0
 21
-2.5
 31
0.0
  0
LINE
  5
165
330
15F
100
AcDbEntity
  8
0
  6
Continuous
 62
     0
370
     0
100
AcDbLine
 10
0.0
 20
0.0
 30
0.0
 11
2.5
 21
0.0
 31
0.0
  0
ENDBLK
  5
161
330
15F
100
AcDbEntity
  8
0
100
AcDbBlockEnd
  0
BLOCK
  5
168
330
167
100
AcDbEntity
  8
0
100
AcDbBlockBegin
  2
SW_CENTERMARKSYMBOL_6
 70
     0
 71
     0
 10
0.0
 20
0.0
 30
0.0
  3
SW_CENTERMARKSYMBOL_6
  1

  0
LINE
  5
16A
330
167
100
AcDbEntity
  8
0
  6
Continuous
 62
     0
370
     0
100
AcDbLine
 10
0.0
 20
0.0
 30
0.0
 11
0.0
 21
2.5
 31
0.0
  0
LINE
  5
16B
330
167
100
AcDbEntity
  8
0
  6
Continuous
 62
     0
370
     0
100
AcDbLine
 10
0.0
 20
0.0
 30
0.0
 11
-2.5
 21
0.0
 31
0.0
  0
LINE
  5
16C
330
167
100
AcDbEntity
  8
0
  6
Continuous
 62
     0
370
     0
100
AcDbLine
 10
0.0
 20
0.0
 30
0.0
 11
0.0
 21
-2.5
 31
0.0
  0
LINE
  5
16D
330
167
100
AcDbEntity
  8
0
  6
Continuous
 62
     0
370
     0
100
AcDbLine
 10
0.0
 20
0.0
 30
0.0
 11
2.5
 21
0.0
 31
0.0
  0
LINE
  5
16E
330
167
100
AcDbEntity
  8
0
  6
Continuous
 62
     0
370
     0
100
AcDbLine
 10
0.0
 20
2.5
 30
0.0
 11
0.0
 21
2.9
 31
0.0
  0
LINE
  5
16F
330
167
100
AcDbEntity
  8
0
  6
Continuous
 62
     0
370
     0
100
AcDbLine
 10
-2.5
 20
0.0
 30
0.0
 11
-2.9
 21
0.0
 31
0.0
  0
LINE
  5
170
330
167
100
AcDbEntity
  8
0
  6
Continuous
 62
     0
370
     0
100
AcDbLine
 10
0.0
 20
-2.5
 30
0.0
 11
0.0
 21
-2.9
 31
0.0
  0
LINE
  5
171
330
167
100
AcDbEntity
  8
0
  6
Continuous
 62
     0
370
     0
100
AcDbLine
 10
2.5
 20
0.0
 30
0.0
 11
2.9
 21
0.0
 31
0.0
  0
ENDBLK
  5
169
330
167
100
AcDbEntity
  8
0
100
AcDbBlockEnd
  0
BLOCK
  5
174
330
173
100
AcDbEntity
  8
0
100
AcDbBlockBegin
  2
SW_CENTERMARKSYMBOL_7
 70
     0
 71
     0
 10
0.0
 20
0.0
 30
0.0
  3
SW_CENTERMARKSYMBOL_7
  1

  0
LINE
  5
176
330
173
100
AcDbEntity
  8
0
  6
Continuous
 62
     0
370
     0
100
AcDbLine
 10
0.0
 20
0.0
 30
0.0
 11
0.0
 21
2.5
 31
0.0
  0
LINE
  5
177
330
173
100
AcDbEntity
  8
0
  6
Continuous
 62
     0
370
     0
100
AcDbLine
 10
0.0
 20
0.0
 30
0.0
 11
-2.5
 21
0.0
 31
0.0
  0
LINE
  5
178
330
173
100
AcDbEntity
  8
0
  6
Continuous
 62
     0
370
     0
100
AcDbLine
 10
0.0
 20
0.0
 30
0.0
 11
0.0
 21
-2.5
 31
0.0
  0
LINE
  5
179
330
173
100
AcDbEntity
  8
0
  6
Continuous
 62
     0
370
     0
100
AcDbLine
 10
0.0
 20
0.0
 30
0.0
 11
2.5
 21
0.0
 31
0.0
  0
ENDBLK
  5
175
330
173
100
AcDbEntity
  8
0
100
AcDbBlockEnd
  0
BLOCK
  5
17C
330
17B
100
AcDbEntity
  8
0
100
AcDbBlockBegin
  2
SW_CENTERMARKSYMBOL_8
 70
     0
 71
     0
 10
0.0
 20
0.0
 30
0.0
  3
SW_CENTERMARKSYMBOL_8
  1

  0
LINE
  5
17E
330
17B
100
AcDbEntity
  8
0
  6
Continuous
 62
     0
370
     0
100
AcDbLine
 10
0.0
 20
0.0
 30
0.0
 11
0.0
 21
2.5
 31
0.0
  0
LINE
  5
17F
330
17B
100
AcDbEntity
  8
0
  6
Continuous
 62
     0
370
     0
100
AcDbLine
 10
0.0
 20
0.0
 30
0.0
 11
-2.5
 21
0.0
 31
0.0
  0
LINE
  5
180
330
17B
100
AcDbEntity
  8
0
  6
Continuous
 62
     0
370
     0
100
AcDbLine
 10
0.0
 20
0.0
 30
0.0
 11
0.0
 21
-2.5
 31
0.0
  0
LINE
  5
181
330
17B
100
AcDbEntity
  8
0
  6
Continuous
 62
     0
370
     0
100
AcDbLine
 10
0.0
 20
0.0
 30
0.0
 11
2.5
 21
0.0
 31
0.0
  0
LINE
  5
182
330
17B
100
AcDbEntity
  8
0
  6
Continuous
 62
     0
370
     0
100
AcDbLine
 10
0.0
 20
2.5
 30
0.0
 11
0.0
 21
2.9
 31
0.0
  0
LINE
  5
183
330
17B
100
AcDbEntity
  8
0
  6
Continuous
 62
     0
370
     0
100
AcDbLine
 10
-2.5
 20
0.0
 30
0.0
 11
-2.9
 21
0.0
 31
0.0
  0
LINE
  5
184
330
17B
100
AcDbEntity
  8
0
  6
Continuous
 62
     0
370
     0
100
AcDbLine
 10
0.0
 20
-2.5
 30
0.0
 11
0.0
 21
-2.9
 31
0.0
  0
LINE
  5
185
330
17B
100
AcDbEntity
  8
0
  6
Continuous
 62
     0
370
     0
100
AcDbLine
 10
2.5
 20
0.0
 30
0.0
 11
2.9
 21
0.0
 31
0.0
  0
ENDBLK
  5
17D
330
17B
100
AcDbEntity
  8
0
100
AcDbBlockEnd
  0
BLOCK
  5
188
330
187
100
AcDbEntity
  8
0
100
AcDbBlockBegin
  2
SW_CENTERMARKSYMBOL_9
 70
     0
 71
     0
 10
0.0
 20
0.0
 30
0.0
  3
SW_CENTERMARKSYMBOL_9
  1

  0
LINE
  5
18A
330
187
100
AcDbEntity
  8
0
  6
Continuous
 62
     0
370
     0
100
AcDbLine
 10
0.0
 20
0.0
 30
0.0
 11
0.0
 21
2.5
 31
0.0
  0
LINE
  5
18B
330
187
100
AcDbEntity
  8
0
  6
Continuous
 62
     0
370
     0
100
AcDbLine
 10
0.0
 20
0.0
 30
0.0
 11
-2.5
 21
0.0
 31
0.0
  0
LINE
  5
18C
330
187
100
AcDbEntity
  8
0
  6
Continuous
 62
     0
370
     0
100
AcDbLine
 10
0.0
 20
0.0
 30
0.0
 11
0.0
 21
-2.5
 31
0.0
  0
LINE
  5
18D
330
187
100
AcDbEntity
  8
0
  6
Continuous
 62
     0
370
     0
100
AcDbLine
 10
0.0
 20
0.0
 30
0.0
 11
2.5
 21
0.0
 31
0.0
  0
LINE
  5
18E
330
187
100
AcDbEntity
  8
0
  6
Continuous
 62
     0
370
     0
100
AcDbLine
 10
0.0
 20
5.0
 30
0.0
 11
0.0
 21
5.85
 31
0.0
  0
LINE
  5
18F
330
187
100
AcDbEntity
  8
0
  6
Continuous
 62
     0
370
     0
100
AcDbLine
 10
-5.0
 20
0.0
 30
0.0
 11
-5.85
 21
0.0
 31
0.0
  0
LINE
  5
190
330
187
100
AcDbEntity
  8
0
  6
Continuous
 62
     0
370
     0
100
AcDbLine
 10
0.0
 20
-5.0
 30
0.0
 11
0.0
 21
-5.85
 31
0.0
  0
LINE
  5
191
330
187
100
AcDbEntity
  8
0
  6
Continuous
 62
     0
370
     0
100
AcDbLine
 10
5.0
 20
0.0
 30
0.0
 11
5.85
 21
0.0
 31
0.0
  0
ENDBLK
  5
189
330
187
100
AcDbEntity
  8
0
100
AcDbBlockEnd
  0
BLOCK
  5
194
330
193
100
AcDbEntity
  8
0
100
AcDbBlockBegin
  2
SW_CENTERMARKSYMBOL_10
 70
     0
 71
     0
 10
0.0
 20
0.0
 30
0.0
  3
SW_CENTERMARKSYMBOL_10
  1

  0
LINE
  5
196
330
193
100
AcDbEntity
  8
0
  6
Continuous
 62
     0
370
     0
100
AcDbLine
 10
0.0
 20
0.0
 30
0.0
 11
0.0
 21
2.5
 31
0.0
  0
LINE
  5
197
330
193
100
AcDbEntity
  8
0
  6
Continuous
 62
     0
370
     0
100
AcDbLine
 10
0.0
 20
0.0
 30
0.0
 11
-2.5
 21
0.0
 31
0.0
  0
LINE
  5
198
330
193
100
AcDbEntity
  8
0
  6
Continuous
 62
     0
370
     0
100
AcDbLine
 10
0.0
 20
0.0
 30
0.0
 11
0.0
 21
-2.5
 31
0.0
  0
LINE
  5
199
330
193
100
AcDbEntity
  8
0
  6
Continuous
 62
     0
370
     0
100
AcDbLine
 10
0.0
 20
0.0
 30
0.0
 11
2.5
 21
0.0
 31
0.0
  0
LINE
  5
19A
330
193
100
AcDbEntity
  8
0
  6
Continuous
 62
     0
370
     0
100
AcDbLine
 10
0.0
 20
5.0
 30
0.0
 11
0.0
 21
5.85
 31
0.0
  0
LINE
  5
19B
330
193
100
AcDbEntity
  8
0
  6
Continuous
 62
     0
370
     0
100
AcDbLine
 10
-5.0
 20
0.0
 30
0.0
 11
-5.85
 21
0.0
 31
0.0
  0
LINE
  5
19C
330
193
100
AcDbEntity
  8
0
  6
Continuous
 62
     0
370
     0
100
AcDbLine
 10
0.0
 20
-5.0
 30
0.0
 11
0.0
 21
-5.85
 31
0.0
  0
LINE
  5
19D
330
193
100
AcDbEntity
  8
0
  6
Continuous
 62
     0
370
     0
100
AcDbLine
 10
5.0
 20
0.0
 30
0.0
 11
5.85
 21
0.0
 31
0.0
  0
ENDBLK
  5
195
330
193
100
AcDbEntity
  8
0
100
AcDbBlockEnd
  0
BLOCK
  5
1A0
330
19F
100
AcDbEntity
  8
0
100
AcDbBlockBegin
  2
SW_CENTERMARKSYMBOL_11
 70
     0
 71
     0
 10
0.0
 20
0.0
 30
0.0
  3
SW_CENTERMARKSYMBOL_11
  1

  0
LINE
  5
1A2
330
19F
100
AcDbEntity
  8
0
  6
Continuous
 62
     0
370
     0
100
AcDbLine
 10
0.0
 20
0.0
 30
0.0
 11
0.0
 21
2.5
 31
0.0
  0
LINE
  5
1A3
330
19F
100
AcDbEntity
  8
0
  6
Continuous
 62
     0
370
     0
100
AcDbLine
 10
0.0
 20
0.0
 30
0.0
 11
-2.5
 21
0.0
 31
0.0
  0
LINE
  5
1A4
330
19F
100
AcDbEntity
  8
0
  6
Continuous
 62
     0
370
     0
100
AcDbLine
 10
0.0
 20
0.0
 30
0.0
 11
0.0
 21
-2.5
 31
0.0
  0
LINE
  5
1A5
330
19F
100
AcDbEntity
  8
0
  6
Continuous
 62
     0
370
     0
100
AcDbLine
 10
0.0
 20
0.0
 30
0.0
 11
2.5
 21
0.0
 31
0.0
  0
LINE
  5
1A6
330
19F
100
AcDbEntity
  8
0
  6
Continuous
 62
     0
370
     0
100
AcDbLine
 10
0.0
 20
5.0
 30
0.0
 11
0.0
 21
5.85
 31
0.0
  0
LINE
  5
1A7
330
19F
100
AcDbEntity
  8
0
  6
Continuous
 62
     0
370
     0
100
AcDbLine
 10
-5.0
 20
0.0
 30
0.0
 11
-5.85
 21
0.0
 31
0.0
  0
LINE
  5
1A8
330
19F
100
AcDbEntity
  8
0
  6
Continuous
 62
     0
370
     0
100
AcDbLine
 10
0.0
 20
-5.0
 30
0.0
 11
0.0
 21
-5.85
 31
0.0
  0
LINE
  5
1A9
330
19F
100
AcDbEntity
  8
0
  6
Continuous
 62
     0
370
     0
100
AcDbLine
 10
5.0
 20
0.0
 30
0.0
 11
5.85
 21
0.0
 31
0.0
  0
ENDBLK
  5
1A1
330
19F
100
AcDbEntity
  8
0
100
AcDbBlockEnd
  0
BLOCK
  5
1AC
330
1AB
100
AcDbEntity
  8
0
100
AcDbBlockBegin
  2
SW_CENTERMARKSYMBOL_12
 70
     0
 71
     0
 10
0.0
 20
0.0
 30
0.0
  3
SW_CENTERMARKSYMBOL_12
  1

  0
LINE
  5
1AE
330
1AB
100
AcDbEntity
  8
0
  6
Continuous
 62
     0
370
     0
100
AcDbLine
 10
0.0
 20
0.0
 30
0.0
 11
0.0
 21
2.5
 31
0.0
  0
LINE
  5
1AF
330
1AB
100
AcDbEntity
  8
0
  6
Continuous
 62
     0
370
     0
100
AcDbLine
 10
0.0
 20
0.0
 30
0.0
 11
-2.5
 21
0.0
 31
0.0
  0
LINE
  5
1B0
330
1AB
100
AcDbEntity
  8
0
  6
Continuous
 62
     0
370
     0
100
AcDbLine
 10
0.0
 20
0.0
 30
0.0
 11
0.0
 21
-2.5
 31
0.0
  0
LINE
  5
1B1
330
1AB
100
AcDbEntity
  8
0
  6
Continuous
 62
     0
370
     0
100
AcDbLine
 10
0.0
 20
0.0
 30
0.0
 11
2.5
 21
0.0
 31
0.0
  0
LINE
  5
1B2
330
1AB
100
AcDbEntity
  8
0
  6
Continuous
 62
     0
370
     0
100
AcDbLine
 10
0.0
 20
5.0
 30
0.0
 11
0.0
 21
5.85
 31
0.0
  0
LINE
  5
1B3
330
1AB
100
AcDbEntity
  8
0
  6
Continuous
 62
     0
370
     0
100
AcDbLine
 10
-5.0
 20
0.0
 30
0.0
 11
-5.85
 21
0.0
 31
0.0
  0
LINE
  5
1B4
330
1AB
100
AcDbEntity
  8
0
  6
Continuous
 62
     0
370
     0
100
AcDbLine
 10
0.0
 20
-5.0
 30
0.0
 11
0.0
 21
-5.85
 31
0.0
  0
LINE
  5
1B5
330
1AB
100
AcDbEntity
  8
0
  6
Continuous
 62
     0
370
     0
100
AcDbLine
 10
5.0
 20
0.0
 30
0.0
 11
5.85
 21
0.0
 31
0.0
  0
ENDBLK
  5
1AD
330
1AB
100
AcDbEntity
  8
0
100
AcDbBlockEnd
  0
BLOCK
  5
1B8
330
1B7
100
AcDbEntity
  8
0
100
AcDbBlockBegin
  2
SW_CENTERMARKSYMBOL_13
 70
     0
 71
     0
 10
0.0
 20
0.0
 30
0.0
  3
SW_CENTERMARKSYMBOL_13
  1

  0
LINE
  5
1BA
330
1B7
100
AcDbEntity
  8
0
  6
Continuous
 62
     0
370
     0
100
AcDbLine
 10
0.0
 20
0.0
 30
0.0
 11
0.0
 21
2.5
 31
0.0
  0
LINE
  5
1BB
330
1B7
100
AcDbEntity
  8
0
  6
Continuous
 62
     0
370
     0
100
AcDbLine
 10
0.0
 20
0.0
 30
0.0
 11
-2.5
 21
0.0
 31
0.0
  0
LINE
  5
1BC
330
1B7
100
AcDbEntity
  8
0
  6
Continuous
 62
     0
370
     0
100
AcDbLine
 10
0.0
 20
0.0
 30
0.0
 11
0.0
 21
-2.5
 31
0.0
  0
LINE
  5
1BD
330
1B7
100
AcDbEntity
  8
0
  6
Continuous
 62
     0
370
     0
100
AcDbLine
 10
0.0
 20
0.0
 30
0.0
 11
2.5
 21
0.0
 31
0.0
  0
LINE
  5
1BE
330
1B7
100
AcDbEntity
  8
0
  6
Continuous
 62
     0
370
     0
100
AcDbLine
 10
0.0
 20
5.0
 30
0.0
 11
0.0
 21
5.85
 31
0.0
  0
LINE
  5
1BF
330
1B7
100
AcDbEntity
  8
0
  6
Continuous
 62
     0
370
     0
100
AcDbLine
 10
-5.0
 20
0.0
 30
0.0
 11
-5.85
 21
0.0
 31
0.0
  0
LINE
  5
1C0
330
1B7
100
AcDbEntity
  8
0
  6
Continuous
 62
     0
370
     0
100
AcDbLine
 10
0.0
 20
-5.0
 30
0.0
 11
0.0
 21
-5.85
 31
0.0
  0
LINE
  5
1C1
330
1B7
100
AcDbEntity
  8
0
  6
Continuous
 62
     0
370
     0
100
AcDbLine
 10
5.0
 20
0.0
 30
0.0
 11
5.85
 21
0.0
 31
0.0
  0
ENDBLK
  5
1B9
330
1B7
100
AcDbEntity
  8
0
100
AcDbBlockEnd
  0
BLOCK
  5
1C4
330
1C3
100
AcDbEntity
  8
0
100
AcDbBlockBegin
  2
SW_CENTERMARKSYMBOL_14
 70
     0
 71
     0
 10
0.0
 20
0.0
 30
0.0
  3
SW_CENTERMARKSYMBOL_14
  1

  0
LINE
  5
1C6
330
1C3
100
AcDbEntity
  8
0
  6
Continuous
 62
     0
370
     0
100
AcDbLine
 10
0.0
 20
0.0
 30
0.0
 11
0.0
 21
2.5
 31
0.0
  0
LINE
  5
1C7
330
1C3
100
AcDbEntity
  8
0
  6
Continuous
 62
     0
370
     0
100
AcDbLine
 10
0.0
 20
0.0
 30
0.0
 11
-2.5
 21
0.0
 31
0.0
  0
LINE
  5
1C8
330
1C3
100
AcDbEntity
  8
0
  6
Continuous
 62
     0
370
     0
100
AcDbLine
 10
0.0
 20
0.0
 30
0.0
 11
0.0
 21
-2.5
 31
0.0
  0
LINE
  5
1C9
330
1C3
100
AcDbEntity
  8
0
  6
Continuous
 62
     0
370
     0
100
AcDbLine
 10
0.0
 20
0.0
 30
0.0
 11
2.5
 21
0.0
 31
0.0
  0
LINE
  5
1CA
330
1C3
100
AcDbEntity
  8
0
  6
Continuous
 62
     0
370
     0
100
AcDbLine
 10
0.0
 20
5.0
 30
0.0
 11
0.0
 21
5.85
 31
0.0
  0
LINE
  5
1CB
330
1C3
100
AcDbEntity
  8
0
  6
Continuous
 62
     0
370
     0
100
AcDbLine
 10
-5.0
 20
0.0
 30
0.0
 11
-5.85
 21
0.0
 31
0.0
  0
LINE
  5
1CC
330
1C3
100
AcDbEntity
  8
0
  6
Continuous
 62
     0
370
     0
100
AcDbLine
 10
0.0
 20
-5.0
 30
0.0
 11
0.0
 21
-5.85
 31
0.0
  0
LINE
  5
1CD
330
1C3
100
AcDbEntity
  8
0
  6
Continuous
 62
     0
370
     0
100
AcDbLine
 10
5.0
 20
0.0
 30
0.0
 11
5.85
 21
0.0
 31
0.0
  0
ENDBLK
  5
1C5
330
1C3
100
AcDbEntity
  8
0
100
AcDbBlockEnd
  0
ENDSEC
  0
SECTION
  2
ENTITIES
  0
ARC
  5
2F
330
1F
100
AcDbEntity
  8
0
  6
Continuous
 62
     7
370
     0
100
AcDbCircle
 10
91.8749603893
 20
38.7618413484
 30
0.0
 40
2.449999999998143
100
AcDbArc
 50
191.1878392001
 51
259.4161974035
  0
LINE
  5
30
330
1F
100
AcDbEntity
  8
0
  6
Continuous
 62
     7
370
     0
100
AcDbLine
 10
89.4715193105
 20
38.286477298
 30
0.0
 11
88.4749603893
 21
38.8618413484
 31
0.0
  0
LINE
  5
31
330
1F
100
AcDbEntity
  8
0
  6
Continuous
 62
     7
370
     0
100
AcDbLine
 10
88.4749603893
 20
38.8618413484
 30
0.0
 11
88.4749603893
 21
46.5618413484
 31
0.0
  0
LINE
  5
32
330
1F
100
AcDbEntity
  8
0
  6
Continuous
 62
     7
370
     0
100
AcDbLine
 10
88.4749603893
 20
46.5618413484
 30
0.0
 11
89.4715193105
 21
47.1372053989
 31
0.0
  0
ARC
  5
33
330
1F
100
AcDbEntity
  8
0
  6
Continuous
 62
     7
370
     0
100
AcDbCircle
 10
91.8749603893
 20
46.6618413484
 30
0.0
 40
2.450000000002928
100
AcDbArc
 50
100.5838025967
 51
168.8121607999
  0
LINE
  5
34
330
1F
100
AcDbEntity
  8
0
  6
Continuous
 62
     7
370
     0
100
AcDbLine
 10
91.4249603893
 20
49.0701602642
 30
0.0
 11
91.4249603893
 21
50.3868413484
 31
0.0
  0
LINE
  5
35
330
1F
100
AcDbEntity
  8
0
  6
Continuous
 62
     7
370
     0
100
AcDbLine
 10
91.4249603893
 20
50.3868413484
 30
0.0
 11
91.0949093636
 21
50.7168923742
 31
0.0
  0
LINE
  5
36
330
1F
100
AcDbEntity
  8
0
  6
Continuous
 62
     7
370
     0
100
AcDbLine
 10
91.0949093636
 20
50.7168923742
 30
0.0
 11
91.6696467091
 21
52.8618413484
 31
0.0
  0
LINE
  5
37
330
1F
100
AcDbEntity
  8
0
  6
Continuous
 62
     7
370
     0
100
AcDbLine
 10
91.6696467091
 20
52.8618413484
 30
0.0
 11
71.4802740696
 21
52.8618413484
 31
0.0
  0
LINE
  5
38
330
1F
100
AcDbEntity
  8
0
  6
Continuous
 62
     7
370
     0
100
AcDbLine
 10
71.4802740696
 20
52.8618413484
 30
0.0
 11
72.0550114151
 21
50.7168923742
 31
0.0
  0
LINE
  5
39
330
1F
100
AcDbEntity
  8
0
  6
Continuous
 62
     7
370
     0
100
AcDbLine
 10
72.0550114151
 20
50.7168923742
 30
0.0
 11
71.7249603893
 21
50.3868413484
 31
0.0
  0
LINE
  5
3A
330
1F
100
AcDbEntity
  8
0
  6
Continuous
 62
     7
370
     0
100
AcDbLine
 10
71.7249603893
 20
50.3868413484
 30
0.0
 11
71.7249603893
 21
49.0701602642
 31
0.0
  0
ARC
  5
3B
330
1F
100
AcDbEntity
  8
0
  6
Continuous
 62
     7
370
     0
100
AcDbCircle
 10
71.2749603893
 20
46.6618413484
 30
0.0
 40
2.450000000002934
100
AcDbArc
 50
11.1878392001
 51
79.4161974033
  0
LINE
  5
3C
330
1F
100
AcDbEntity
  8
0
  6
Continuous
 62
     7
370
     0
100
AcDbLine
 10
73.6784014682
 20
47.1372053989
 30
0.0
 11
74.6749603893
 21
46.5618413484
 31
0.0
  0
LINE
  5
3D
330
1F
100
AcDbEntity
  8
0
  6
Continuous
 62
     7
370
     0
100
AcDbLine
 10
74.6749603893
 20
46.5618413484
 30
0.0
 11
74.6749603893
 21
38.8618413484
 31
0.0
  0
LINE
  5
3E
330
1F
100
AcDbEntity
  8
0
  6
Continuous
 62
     7
370
     0
100
AcDbLine
 10
74.6749603893
 20
38.8618413484
 30
0.0
 11
73.6784014682
 21
38.286477298
 31
0.0
  0
ARC
  5
3F
330
1F
100
AcDbEntity
  8
0
  6
Continuous
 62
     7
370
     0
100
AcDbCircle
 10
71.2749603893
 20
38.7618413484
 30
0.0
 40
2.449999999998149
100
AcDbArc
 50
280.5838025965
 51
348.8121607999
  0
LINE
  5
40
330
1F
100
AcDbEntity
  8
0
  6
Continuous
 62
     7
370
     0
100
AcDbLine
 10
71.7249603893
 20
36.3535224327
 30
0.0
 11
71.7249603893
 21
34.3119780956
 31
0.0
  0
LINE
  5
41
330
1F
100
AcDbEntity
  8
0
  6
Continuous
 62
     7
370
     0
100
AcDbLine
 10
60.0949603893
 20
34.3119780956
 30
0.0
 11
71.7249603893
 21
34.3119780956
 31
0.0
  0
LINE
  5
42
330
1F
100
AcDbEntity
  8
0
  6
Continuous
 62
     7
370
     0
100
AcDbLine
 10
58.3749603893
 20
36.0319780956
 30
0.0
 11
60.0949603893
 21
34.3119780956
 31
0.0
  0
LINE
  5
43
330
1F
100
AcDbEntity
  8
0
  6
Continuous
 62
     7
370
     0
100
AcDbLine
 10
58.3749603893
 20
62.3119780956
 30
0.0
 11
58.3749603893
 21
36.0319780956
 31
0.0
  0
ARC
  5
44
330
1F
100
AcDbEntity
  8
0
  6
Continuous
 62
     7
370
     0
100
AcDbCircle
 10
59.3749603893
 20
62.3119780956
 30
0.0
 40
1.0
100
AcDbArc
 50
90.0
 51
180.0
  0
LINE
  5
45
330
1F
100
AcDbEntity
  8
0
  6
Continuous
 62
     7
370
     0
100
AcDbLine
 10
75.3249603893
 20
63.3119780956
 30
0.0
 11
59.3749603893
 21
63.3119780956
 31
0.0
  0
LINE
  5
46
330
1F
100
AcDbEntity
  8
0
  6
Continuous
 62
     7
370
     0
100
AcDbLine
 10
75.5749603893
 20
63.5619780956
 30
0.0
 11
75.3249603893
 21
63.3119780956
 31
0.0
  0
LINE
  5
47
330
1F
100
AcDbEntity
  8
0
  6
Continuous
 62
     7
370
     0
100
AcDbLine
 10
87.5749603893
 20
63.5619780956
 30
0.0
 11
75.5749603893
 21
63.5619780956
 31
0.0
  0
LINE
  5
48
330
1F
100
AcDbEntity
  8
0
  6
Continuous
 62
     7
370
     0
100
AcDbLine
 10
87.8249603893
 20
63.3119780956
 30
0.0
 11
87.5749603893
 21
63.5619780956
 31
0.0
  0
LINE
  5
49
330
1F
100
AcDbEntity
  8
0
  6
Continuous
 62
     7
370
     0
100
AcDbLine
 10
103.7749603893
 20
63.3119780956
 30
0.0
 11
87.8249603893
 21
63.3119780956
 31
0.0
  0
ARC
  5
4A
330
1F
100
AcDbEntity
  8
0
  6
Continuous
 62
     7
370
     0
100
AcDbCircle
 10
103.7749603893
 20
62.3119780956
 30
0.0
 40
1.000000000000014
100
AcDbArc
 50
0.0
 51
90.0
  0
LINE
  5
4B
330
1F
100
AcDbEntity
  8
0
  6
Continuous
 62
     7
370
     0
100
AcDbLine
 10
104.7749603893
 20
36.0319780956
 30
0.0
 11
104.7749603893
 21
62.3119780956
 31
0.0
  0
LINE
  5
4C
330
1F
100
AcDbEntity
  8
0
  6
Continuous
 62
     7
370
     0
100
AcDbLine
 10
103.0549603893
 20
34.3119780956
 30
0.0
 11
104.7749603893
 21
36.0319780956
 31
0.0
  0
LINE
  5
4D
330
1F
100
AcDbEntity
  8
0
  6
Continuous
 62
     7
370
     0
100
AcDbLine
 10
91.4249603893
 20
34.3119780956
 30
0.0
 11
103.0549603893
 21
34.3119780956
 31
0.0
  0
LINE
  5
4E
330
1F
100
AcDbEntity
  8
0
  6
Continuous
 62
     7
370
     0
100
AcDbLine
 10
91.4249603893
 20
34.3119780956
 30
0.0
 11
91.4249603893
 21
36.3535224327
 31
0.0
  0
CIRCLE
  5
4F
330
1F
100
AcDbEntity
  8
0
  6
Continuous
 62
     7
370
     0
100
AcDbCircle
 10
62.4249603893
 20
52.6619780956
 30
0.0
 40
1.75
  0
CIRCLE
  5
50
330
1F
100
AcDbEntity
  8
0
  6
Continuous
 62
     7
370
     0
100
AcDbCircle
 10
81.5749603893
 20
58.6619780956
 30
0.0
 40
3.0
  0
CIRCLE
  5
51
330
1F
100
AcDbEntity
  8
0
  6
Continuous
 62
     7
370
     0
100
AcDbCircle
 10
100.7249603893
 20
52.6619780956
 30
0.0
 40
1.75
  0
CIRCLE
  5
52
330
1F
100
AcDbEntity
  8
0
  6
Continuous
 62
     7
370
     0
100
AcDbCircle
 10
100.7249603893
 20
52.6619780956
 30
0.0
 40
1.25
  0
CIRCLE
  5
53
330
1F
100
AcDbEntity
  8
0
  6
Continuous
 62
     7
370
     0
100
AcDbCircle
 10
81.5749603893
 20
58.6619780956
 30
0.0
 40
2.5
  0
CIRCLE
  5
54
330
1F
100
AcDbEntity
  8
0
  6
Continuous
 62
     7
370
     0
100
AcDbCircle
 10
62.4249603893
 20
52.6619780956
 30
0.0
 40
1.250000000000007
  0
LINE
  5
55
330
1F
100
AcDbEntity
  8
0
  6
Continuous
 62
     7
370
     0
100
AcDbLine
 10
103.0749603893
 20
34.2619780956
 30
0.0
 11
104.5749603893
 21
35.7619780956
 31
0.0
  0
LINE
  5
56
330
1F
100
AcDbEntity
  8
0
  6
Continuous
 62
     7
370
     0
100
AcDbLine
 10
91.4249603893
 20
34.2619780956
 30
0.0
 11
91.4249603893
 21
34.3119780956
 31
0.0
  0
LINE
  5
57
330
1F
100
AcDbEntity
  8
0
  6
Continuous
 62
     7
370
     0
100
AcDbLine
 10
71.7249603893
 20
34.3119780956
 30
0.0
 11
71.7249603893
 21
34.2619780956
 31
0.0
  0
LINE
  5
58
330
1F
100
AcDbEntity
  8
0
  6
Continuous
 62
     7
370
     0
100
AcDbLine
 10
60.0749603893
 20
34.2619780956
 30
0.0
 11
71.7249603893
 21
34.2619780956
 31
0.0
  0
LINE
  5
59
330
1F
100
AcDbEntity
  8
0
  6
Continuous
 62
     7
370
     0
100
AcDbLine
 10
58.5749603893
 20
35.7619780956
 30
0.0
 11
58.5749603893
 21
35.8319780956
 31
0.0
  0
LINE
  5
5A
330
1F
100
AcDbEntity
  8
0
  6
Continuous
 62
     7
370
     0
100
AcDbLine
 10
47.0749603893
 20
54.8619780956
 30
0.0
 11
58.3749603893
 21
54.8619780956
 31
0.0
  0
LINE
  5
5B
330
1F
100
AcDbEntity
  8
0
  6
Continuous
 62
     7
370
     0
100
AcDbLine
 10
47.0749603893
 20
56.6619780956
 30
0.0
 11
47.0749603893
 21
54.8619780956
 31
0.0
  0
LINE
  5
5C
330
1F
100
AcDbEntity
  8
0
  6
Continuous
 62
     7
370
     0
100
AcDbLine
 10
116.5749603893
 20
54.8619780956
 30
0.0
 11
116.5749603893
 21
63.1619780956
 31
0.0
  0
LINE
  5
5D
330
1F
100
AcDbEntity
  8
0
  6
Continuous
 62
     7
370
     0
100
AcDbLine
 10
104.7749603893
 20
54.8619780956
 30
0.0
 11
116.5749603893
 21
54.8619780956
 31
0.0
  0
LINE
  5
5E
330
1F
100
AcDbEntity
  8
0
  6
Continuous
 62
     7
370
     0
100
AcDbLine
 10
104.5749603893
 20
35.8319780956
 30
0.0
 11
104.5749603893
 21
35.7619780956
 31
0.0
  0
LINE
  5
5F
330
1F
100
AcDbEntity
  8
0
  6
Continuous
 62
     7
370
     0
100
AcDbLine
 10
116.5749603893
 20
63.1619780956
 30
0.0
 11
115.5749603893
 21
64.1619780956
 31
0.0
  0
LINE
  5
60
330
1F
100
AcDbEntity
  8
0
  6
Continuous
 62
     7
370
     0
100
AcDbLine
 10
87.7749603893
 20
64.1619780956
 30
0.0
 11
75.3749603893
 21
64.1619780956
 31
0.0
  0
LINE
  5
61
330
1F
100
AcDbEntity
  8
0
  6
Continuous
 62
     7
370
     0
100
AcDbLine
 10
58.5749603893
 20
35.7619780956
 30
0.0
 11
60.0749603893
 21
34.2619780956
 31
0.0
  0
LINE
  5
62
330
1F
100
AcDbEntity
  8
0
  6
Continuous
 62
     7
370
     0
100
AcDbLine
 10
103.5749603893
 20
63.8619780956
 30
0.0
 11
88.0749603893
 21
63.8619780956
 31
0.0
  0
LINE
  5
63
330
1F
100
AcDbEntity
  8
0
  6
Continuous
 62
     7
370
     0
100
AcDbLine
 10
103.8749603893
 20
64.1619780956
 30
0.0
 11
103.5749603893
 21
63.8619780956
 31
0.0
  0
LINE
  5
64
330
1F
100
AcDbEntity
  8
0
  6
Continuous
 62
     7
370
     0
100
AcDbLine
 10
115.5749603893
 20
64.1619780956
 30
0.0
 11
103.8749603893
 21
64.1619780956
 31
0.0
  0
LINE
  5
65
330
1F
100
AcDbEntity
  8
0
  6
Continuous
 62
     7
370
     0
100
AcDbLine
 10
91.4249603893
 20
34.2619780956
 30
0.0
 11
103.0749603893
 21
34.2619780956
 31
0.0
  0
LINE
  5
66
330
1F
100
AcDbEntity
  8
0
  6
Continuous
 62
     7
370
     0
100
AcDbLine
 10
88.0749603893
 20
63.8619780956
 30
0.0
 11
87.7749603893
 21
64.1619780956
 31
0.0
  0
LINE
  5
67
330
1F
100
AcDbEntity
  8
0
  6
Continuous
 62
     7
370
     0
100
AcDbLine
 10
59.2749603893
 20
64.1619780956
 30
0.0
 11
47.5749603893
 21
64.1619780956
 31
0.0
  0
LINE
  5
68
330
1F
100
AcDbEntity
  8
0
  6
Continuous
 62
     7
370
     0
100
AcDbLine
 10
59.5749603893
 20
63.8619780956
 30
0.0
 11
59.2749603893
 21
64.1619780956
 31
0.0
  0
LINE
  5
69
330
1F
100
AcDbEntity
  8
0
  6
Continuous
 62
     7
370
     0
100
AcDbLine
 10
75.0749603893
 20
63.8619780956
 30
0.0
 11
59.5749603893
 21
63.8619780956
 31
0.0
  0
LINE
  5
6A
330
1F
100
AcDbEntity
  8
0
  6
Continuous
 62
     7
370
     0
100
AcDbLine
 10
75.3749603893
 20
64.1619780956
 30
0.0
 11
75.0749603893
 21
63.8619780956
 31
0.0
  0
LINE
  5
6B
330
1F
100
AcDbEntity
  8
0
  6
Continuous
 62
     7
370
     0
100
AcDbLine
 10
47.5749603893
 20
64.1619780956
 30
0.0
 11
46.5749603893
 21
63.1619780956
 31
0.0
  0
LINE
  5
6C
330
1F
100
AcDbEntity
  8
0
  6
Continuous
 62
     7
370
     0
100
AcDbLine
 10
46.5749603893
 20
63.1619780956
 30
0.0
 11
46.5749603893
 21
57.1619780956
 31
0.0
  0
LINE
  5
6D
330
1F
100
AcDbEntity
  8
0
  6
Continuous
 62
     7
370
     0
100
AcDbLine
 10
46.5749603893
 20
57.1619780956
 30
0.0
 11
47.0749603893
 21
56.6619780956
 31
0.0
  0
LINE
  5
6E
330
1F
100
AcDbEntity
  8
0
  6
Continuous
 62
     7
370
     0
100
AcDbLine
 10
53.0749603893
 20
41.2619780956
 30
0.0
 11
53.0749603893
 21
54.8619780956
 31
0.0
  0
LINE
  5
6F
330
1F
100
AcDbEntity
  8
0
  6
Continuous
 62
     7
370
     0
100
AcDbLine
 10
58.5749603893
 20
35.7619780956
 30
0.0
 11
53.0749603893
 21
41.2619780956
 31
0.0
  0
LINE
  5
70
330
1F
100
AcDbEntity
  8
0
  6
Continuous
 62
     7
370
     0
100
AcDbLine
 10
110.0749603893
 20
41.2619780956
 30
0.0
 11
110.0749603893
 21
54.8619780956
 31
0.0
  0
LINE
  5
71
330
1F
100
AcDbEntity
  8
0
  6
Continuous
 62
     7
370
     0
100
AcDbLine
 10
110.0749603893
 20
41.2619780956
 30
0.0
 11
104.5749603893
 21
35.7619780956
 31
0.0
  0
LINE
  5
72
330
1F
100
AcDbEntity
  8
0
  6
Continuous
 62
     7
370
     0
100
AcDbLine
 10
116.5749603893
 20
47.7619780956
 30
0.0
 11
116.5749603893
 21
54.8619780956
 31
0.0
  0
LINE
  5
73
330
1F
100
AcDbEntity
  8
0
  6
Continuous
 62
     7
370
     0
100
AcDbLine
 10
116.5749603893
 20
47.7619780956
 30
0.0
 11
110.0749603893
 21
41.2619780956
 31
0.0
  0
LINE
  5
74
330
1F
100
AcDbEntity
  8
0
  6
Continuous
 62
     7
370
     0
100
AcDbLine
 10
47.0749603893
 20
47.2619780956
 30
0.0
 11
47.0749603893
 21
54.8619780956
 31
0.0
  0
LINE
  5
75
330
1F
100
AcDbEntity
  8
0
  6
Continuous
 62
     7
370
     0
100
AcDbLine
 10
53.0749603893
 20
41.2619780956
 30
0.0
 11
47.0749603893
 21
47.2619780956
 31
0.0
  0
INSERT
  5
81
330
1F
100
AcDbEntity
  8
0
  6
Continuous
 62
     7
370
     0
100
AcDbBlockReference
  2
SW_CENTERMARKSYMBOL_0
 10
62.4249603893
 20
52.6619780956
 30
0.0
  0
INSERT
  5
8D
330
1F
100
AcDbEntity
  8
0
  6
Continuous
 62
     7
370
     0
100
AcDbBlockReference
  2
SW_CENTERMARKSYMBOL_1
 10
100.7249603893
 20
52.6619780956
 30
0.0
  0
INSERT
  5
99
330
1F
100
AcDbEntity
  8
0
  6
Continuous
 62
     7
370
     0
100
AcDbBlockReference
  2
SW_CENTERMARKSYMBOL_2
 10
81.5749603893
 20
58.6619780956
 30
0.0
  0
LINE
  5
9A
330
1F
100
AcDbEntity
  8
0
  6
HIDDEN
 62
     7
370
     0
100
AcDbLine
 10
77.5749603893
 20
57.1618413484
 30
0.0
 11
77.5749603893
 21
64.1619780956
 31
0.0
  0
LINE
  5
9B
330
1F
100
AcDbEntity
  8
0
  6
HIDDEN
 62
     7
370
     0
100
AcDbLine
 10
85.5749603893
 20
57.1618413484
 30
0.0
 11
85.5749603893
 21
64.1619780956
 31
0.0
  0
LINE
  5
9C
330
1F
100
AcDbEntity
  8
0
  6
HIDDEN
 62
     7
370
     0
100
AcDbLine
 10
77.5749603893
 20
57.1618413484
 30
0.0
 11
77.5749603893
 21
64.1619780956
 31
0.0
  0
LINE
  5
9D
330
1F
100
AcDbEntity
  8
0
  6
HIDDEN
 62
     7
370
     0
100
AcDbLine
 10
85.5749603893
 20
57.1618413484
 30
0.0
 11
85.5749603893
 21
64.1619780956
 31
0.0
  0
ARC
  5
9E
330
1F
100
AcDbEntity
  8
0
  6
Continuous
 62
     7
370
     0
100
AcDbCircle
 10
100.7249603893
 20
52.6619780956
 30
0.0
 40
1.499999999999995
100
AcDbArc
 50
255.0
 51
195.0
  0
ARC
  5
9F
330
1F
100
AcDbEntity
  8
0
  6
Continuous
 62
     7
370
     0
100
AcDbCircle
 10
100.7249603893
 20
52.6619780956
 30
0.0
 40
1.499999999999995
100
AcDbArc
 50
255.0
 51
195.0
  0
ARC
  5
A0
330
1F
100
AcDbEntity
  8
0
  6
Continuous
 62
     7
370
     0
100
AcDbCircle
 10
62.4249603893
 20
52.6619780956
 30
0.0
 40
1.499999999999995
100
AcDbArc
 50
255.0
 51
195.0
  0
ARC
  5
A1
330
1F
100
AcDbEntity
  8
0
  6
Continuous
 62
     7
370
     0
100
AcDbCircle
 10
62.4249603893
 20
52.6619780956
 30
0.0
 40
1.499999999999995
100
AcDbArc
 50
255.0
 51
195.0
  0
ARC
  5
A2
330
1F
100
AcDbEntity
  8
0
  6
Continuous
 62
     7
370
     0
100
AcDbCircle
 10
81.5749603893
 20
58.6619780956
 30
0.0
 40
3.000000000000001
100
AcDbArc
 50
255.0
 51
195.0
  0
ARC
  5
A3
330
1F
100
AcDbEntity
  8
0
  6
Continuous
 62
     7
370
     0
100
AcDbCircle
 10
81.5749603893
 20
58.6619780956
 30
0.0
 40
3.000000000000001
100
AcDbArc
 50
255.0
 51
195.0
  0
LINE
  5
A4
330
1F
100
AcDbEntity
  8
0
  6
Continuous
 62
     7
370
     0
100
AcDbLine
 10
226.1749603893
 20
62.3119780956
 30
0.0
 11
211.9749603893
 21
62.3119780956
 31
0.0
  0
LINE
  5
A5
330
1F
100
AcDbEntity
  8
0
  6
Continuous
 62
     7
370
     0
100
AcDbLine
 10
226.1749603893
 20
36.0319780956
 30
0.0
 11
226.1749603893
 21
62.3119780956
 31
0.0
  0
LINE
  5
A6
330
1F
100
AcDbEntity
  8
0
  6
Continuous
 62
     7
370
     0
100
AcDbLine
 10
226.1749603893
 20
36.0319780956
 30
0.0
 11
211.9749603893
 21
36.0319780956
 31
0.0
  0
LINE
  5
A7
330
1F
100
AcDbEntity
  8
0
  6
Continuous
 62
     7
370
     0
100
AcDbLine
 10
211.9749603893
 20
36.0319780956
 30
0.0
 11
211.9749603893
 21
54.8619780956
 31
0.0
  0
CIRCLE
  5
A8
330
1F
100
AcDbEntity
  8
0
  6
Continuous
 62
     7
370
     0
100
AcDbCircle
 10
219.1749603893
 20
58.6619780956
 30
0.0
 40
2.999999999999986
  0
LINE
  5
A9
330
1F
100
AcDbEntity
  8
0
  6
Continuous
 62
     7
370
     0
100
AcDbLine
 10
226.1749603893
 20
34.3119780956
 30
0.0
 11
211.9749603893
 21
34.3119780956
 31
0.0
  0
LINE
  5
AA
330
1F
100
AcDbEntity
  8
0
  6
Continuous
 62
     7
370
     0
100
AcDbLine
 10
211.9749603893
 20
35.8319780956
 30
0.0
 11
211.9749603893
 21
36.0319780956
 31
0.0
  0
LINE
  5
AB
330
1F
100
AcDbEntity
  8
0
  6
Continuous
 62
     7
370
     0
100
AcDbLine
 10
226.1749603893
 20
34.3119780956
 30
0.0
 11
226.1749603893
 21
36.0319780956
 31
0.0
  0
LINE
  5
AC
330
1F
100
AcDbEntity
  8
0
  6
Continuous
 62
     7
370
     0
100
AcDbLine
 10
226.1749603893
 20
63.3119780956
 30
0.0
 11
211.9749603893
 21
63.3119780956
 31
0.0
  0
LINE
  5
AD
330
1F
100
AcDbEntity
  8
0
  6
Continuous
 62
     7
370
     0
100
AcDbLine
 10
226.1749603893
 20
62.3119780956
 30
0.0
 11
226.1749603893
 21
63.3119780956
 31
0.0
  0
CIRCLE
  5
AE
330
1F
100
AcDbEntity
  8
0
  6
Continuous
 62
     7
370
     0
100
AcDbCircle
 10
219.1749603893
 20
58.6619780956
 30
0.0
 40
2.499999999999972
  0
LINE
  5
AF
330
1F
100
AcDbEntity
  8
0
  6
Continuous
 62
     7
370
     0
100
AcDbLine
 10
226.1749603893
 20
63.5619780956
 30
0.0
 11
211.9749603893
 21
63.5619780956
 31
0.0
  0
LINE
  5
B0
330
1F
100
AcDbEntity
  8
0
  6
Continuous
 62
     7
370
     0
100
AcDbLine
 10
226.1749603893
 20
63.3119780956
 30
0.0
 11
226.1749603893
 21
63.5619780956
 31
0.0
  0
LINE
  5
B1
330
1F
100
AcDbEntity
  8
0
  6
Continuous
 62
     7
370
     0
100
AcDbLine
 10
139.9749603893
 20
34.3119780956
 30
0.0
 11
154.1749603893
 21
34.3119780956
 31
0.0
  0
LINE
  5
B2
330
1F
100
AcDbEntity
  8
0
  6
Continuous
 62
     7
370
     0
100
AcDbLine
 10
139.9749603893
 20
34.3119780956
 30
0.0
 11
139.9749603893
 21
36.0319780956
 31
0.0
  0
LINE
  5
B3
330
1F
100
AcDbEntity
  8
0
  6
Continuous
 62
     7
370
     0
100
AcDbLine
 10
139.9749603893
 20
36.0319780956
 30
0.0
 11
154.1749603893
 21
36.0319780956
 31
0.0
  0
LINE
  5
B4
330
1F
100
AcDbEntity
  8
0
  6
Continuous
 62
     7
370
     0
100
AcDbLine
 10
154.1749603893
 20
35.8319780956
 30
0.0
 11
154.1749603893
 21
36.0319780956
 31
0.0
  0
LINE
  5
B5
330
1F
100
AcDbEntity
  8
0
  6
Continuous
 62
     7
370
     0
100
AcDbLine
 10
139.9749603893
 20
36.0319780956
 30
0.0
 11
139.9749603893
 21
62.3119780956
 31
0.0
  0
LINE
  5
B6
330
1F
100
AcDbEntity
  8
0
  6
Continuous
 62
     7
370
     0
100
AcDbLine
 10
139.9749603893
 20
62.3119780956
 30
0.0
 11
154.1749603893
 21
62.3119780956
 31
0.0
  0
LINE
  5
B7
330
1F
100
AcDbEntity
  8
0
  6
Continuous
 62
     7
370
     0
100
AcDbLine
 10
154.1749603893
 20
36.0319780956
 30
0.0
 11
154.1749603893
 21
54.8619780956
 31
0.0
  0
CIRCLE
  5
B8
330
1F
100
AcDbEntity
  8
0
  6
Continuous
 62
     7
370
     0
100
AcDbCircle
 10
146.9749603893
 20
58.6619780956
 30
0.0
 40
2.999999999999986
  0
LINE
  5
B9
330
1F
100
AcDbEntity
  8
0
  6
Continuous
 62
     7
370
     0
100
AcDbLine
 10
139.9749603893
 20
62.3119780956
 30
0.0
 11
139.9749603893
 21
63.3119780956
 31
0.0
  0
LINE
  5
BA
330
1F
100
AcDbEntity
  8
0
  6
Continuous
 62
     7
370
     0
100
AcDbLine
 10
139.9749603893
 20
63.3119780956
 30
0.0
 11
154.1749603893
 21
63.3119780956
 31
0.0
  0
CIRCLE
  5
BB
330
1F
100
AcDbEntity
  8
0
  6
Continuous
 62
     7
370
     0
100
AcDbCircle
 10
146.9749603893
 20
58.6619780956
 30
0.0
 40
2.5
  0
LINE
  5
BC
330
1F
100
AcDbEntity
  8
0
  6
Continuous
 62
     7
370
     0
100
AcDbLine
 10
139.9749603893
 20
63.5619780956
 30
0.0
 11
154.1749603893
 21
63.5619780956
 31
0.0
  0
LINE
  5
BD
330
1F
100
AcDbEntity
  8
0
  6
Continuous
 62
     7
370
     0
100
AcDbLine
 10
139.9749603893
 20
63.3119780956
 30
0.0
 11
139.9749603893
 21
63.5619780956
 31
0.0
  0
LINE
  5
BE
330
1F
100
AcDbEntity
  8
0
  6
Continuous
 62
     7
370
     0
100
AcDbLine
 10
154.1749603893
 20
34.2619780956
 30
0.0
 11
211.9749603893
 21
34.2619780956
 31
0.0
  0
LINE
  5
BF
330
1F
100
AcDbEntity
  8
0
  6
Continuous
 62
     7
370
     0
100
AcDbLine
 10
154.1749603893
 20
34.2619780956
 30
0.0
 11
154.1749603893
 21
35.7619780956
 31
0.0
  0
LINE
  5
C0
330
1F
100
AcDbEntity
  8
0
  6
Continuous
 62
     7
370
     0
100
AcDbLine
 10
160.5749603893
 20
35.7619780956
 30
0.0
 11
154.1749603893
 21
35.7619780956
 31
0.0
  0
ARC
  5
C1
330
1F
100
AcDbEntity
  8
0
  6
Continuous
 62
     7
370
     0
100
AcDbCircle
 10
160.5749603893
 20
41.2619780956
 30
0.0
 40
5.499999999999915
100
AcDbArc
 50
270.0
 51
0.0
  0
LINE
  5
C2
330
1F
100
AcDbEntity
  8
0
  6
Continuous
 62
     7
370
     0
100
AcDbLine
 10
166.0749603893
 20
47.7619780956
 30
0.0
 11
166.0749603893
 21
41.2619780956
 31
0.0
  0
LINE
  5
C3
330
1F
100
AcDbEntity
  8
0
  6
Continuous
 62
     7
370
     0
100
AcDbLine
 10
166.0749603893
 20
47.7619780956
 30
0.0
 11
200.0749603893
 21
47.7619780956
 31
0.0
  0
LINE
  5
C4
330
1F
100
AcDbEntity
  8
0
  6
Continuous
 62
     7
370
     0
100
AcDbLine
 10
200.0749603893
 20
41.2619780956
 30
0.0
 11
200.0749603893
 21
47.7619780956
 31
0.0
  0
ARC
  5
C5
330
1F
100
AcDbEntity
  8
0
  6
Continuous
 62
     7
370
     0
100
AcDbCircle
 10
205.5749603893
 20
41.2619780956
 30
0.0
 40
5.499999999999979
100
AcDbArc
 50
180.0
 51
270.0
  0
LINE
  5
C6
330
1F
100
AcDbEntity
  8
0
  6
Continuous
 62
     7
370
     0
100
AcDbLine
 10
211.9749603893
 20
35.7619780956
 30
0.0
 11
205.5749603893
 21
35.7619780956
 31
0.0
  0
LINE
  5
C7
330
1F
100
AcDbEntity
  8
0
  6
Continuous
 62
     7
370
     0
100
AcDbLine
 10
211.9749603893
 20
34.2619780956
 30
0.0
 11
211.9749603893
 21
35.7619780956
 31
0.0
  0
LINE
  5
C8
330
1F
100
AcDbEntity
  8
0
  6
Continuous
 62
     7
370
     0
100
AcDbLine
 10
166.0749603893
 20
47.7619780956
 30
0.0
 11
166.0749603893
 21
54.8619780956
 31
0.0
  0
LINE
  5
C9
330
1F
100
AcDbEntity
  8
0
  6
Continuous
 62
     7
370
     0
100
AcDbLine
 10
154.1749603893
 20
54.8619780956
 30
0.0
 11
166.0749603893
 21
54.8619780956
 31
0.0
  0
LINE
  5
CA
330
1F
100
AcDbEntity
  8
0
  6
Continuous
 62
     7
370
     0
100
AcDbLine
 10
154.1749603893
 20
54.8619780956
 30
0.0
 11
154.1749603893
 21
63.1619780956
 31
0.0
  0
LINE
  5
CB
330
1F
100
AcDbEntity
  8
0
  6
Continuous
 62
     7
370
     0
100
AcDbLine
 10
154.1749603893
 20
63.1619780956
 30
0.0
 11
211.9749603893
 21
63.1619780956
 31
0.0
  0
LINE
  5
CC
330
1F
100
AcDbEntity
  8
0
  6
Continuous
 62
     7
370
     0
100
AcDbLine
 10
211.9749603893
 20
54.8619780956
 30
0.0
 11
211.9749603893
 21
63.1619780956
 31
0.0
  0
LINE
  5
CD
330
1F
100
AcDbEntity
  8
0
  6
Continuous
 62
     7
370
     0
100
AcDbLine
 10
200.0749603893
 20
54.8619780956
 30
0.0
 11
211.9749603893
 21
54.8619780956
 31
0.0
  0
LINE
  5
CE
330
1F
100
AcDbEntity
  8
0
  6
Continuous
 62
     7
370
     0
100
AcDbLine
 10
200.0749603893
 20
47.7619780956
 30
0.0
 11
200.0749603893
 21
54.8619780956
 31
0.0
  0
LINE
  5
CF
330
1F
100
AcDbEntity
  8
0
  6
Continuous
 62
     7
370
     0
100
AcDbLine
 10
154.1749603893
 20
63.1619780956
 30
0.0
 11
154.1749603893
 21
64.1619780956
 31
0.0
  0
LINE
  5
D0
330
1F
100
AcDbEntity
  8
0
  6
Continuous
 62
     7
370
     0
100
AcDbLine
 10
154.1749603893
 20
64.1619780956
 30
0.0
 11
211.9749603893
 21
64.1619780956
 31
0.0
  0
LINE
  5
D1
330
1F
100
AcDbEntity
  8
0
  6
Continuous
 62
     7
370
     0
100
AcDbLine
 10
211.9749603893
 20
63.1619780956
 30
0.0
 11
211.9749603893
 21
64.1619780956
 31
0.0
  0
LINE
  5
D2
330
1F
100
AcDbEntity
  8
0
  6
Continuous
 62
     7
370
     0
100
AcDbLine
 10
205.5749603893
 20
35.7619780956
 30
0.0
 11
205.5749603893
 21
54.8619780956
 31
0.0
  0
LINE
  5
D3
330
1F
100
AcDbEntity
  8
0
  6
Continuous
 62
     7
370
     0
100
AcDbLine
 10
160.5749603893
 20
35.7619780956
 30
0.0
 11
160.5749603893
 21
54.8619780956
 31
0.0
  0
LINE
  5
D4
330
1F
100
AcDbEntity
  8
0
  6
Continuous
 62
     7
370
     0
100
AcDbLine
 10
211.9749603893
 20
35.8319780956
 30
0.0
 11
211.9749603893
 21
35.7619780956
 31
0.0
  0
LINE
  5
D5
330
1F
100
AcDbEntity
  8
0
  6
Continuous
 62
     7
370
     0
100
AcDbLine
 10
154.1749603893
 20
35.8319780956
 30
0.0
 11
154.1749603893
 21
35.7619780956
 31
0.0
  0
INSERT
  5
E1
330
1F
100
AcDbEntity
  8
0
  6
Continuous
 62
     7
370
     0
100
AcDbBlockReference
  2
SW_CENTERMARKSYMBOL_3
 10
219.1749603893
 20
58.6619780956
 30
0.0
  0
INSERT
  5
ED
330
1F
100
AcDbEntity
  8
0
  6
Continuous
 62
     7
370
     0
100
AcDbBlockReference
  2
SW_CENTERMARKSYMBOL_4
 10
146.9749603893
 20
58.6619780956
 30
0.0
  0
LINE
  5
EE
330
1F
100
AcDbEntity
  8
0
  6
HIDDEN
 62
     7
370
     0
100
AcDbLine
 10
140.2249603893
 20
54.1619780956
 30
0.0
 11
144.9749603893
 21
54.1619780956
 31
0.0
  0
LINE
  5
EF
330
1F
100
AcDbEntity
  8
0
  6
HIDDEN
 62
     7
370
     0
100
AcDbLine
 10
140.2249603893
 20
51.1619780956
 30
0.0
 11
144.9749603893
 21
51.1619780956
 31
0.0
  0
LINE
  5
F0
330
1F
100
AcDbEntity
  8
0
  6
HIDDEN
 62
     7
370
     0
100
AcDbLine
 10
144.9749603893
 20
51.1619780956
 30
0.0
 11
144.9749603893
 21
54.1619780956
 31
0.0
  0
LINE
  5
F1
330
1F
100
AcDbEntity
  8
0
  6
HIDDEN
 62
     7
370
     0
100
AcDbLine
 10
225.9249603893
 20
51.1619780956
 30
0.0
 11
221.1749603893
 21
51.1619780956
 31
0.0
  0
LINE
  5
F2
330
1F
100
AcDbEntity
  8
0
  6
HIDDEN
 62
     7
370
     0
100
AcDbLine
 10
225.9249603893
 20
54.1619780956
 30
0.0
 11
221.1749603893
 21
54.1619780956
 31
0.0
  0
LINE
  5
F3
330
1F
100
AcDbEntity
  8
0
  6
HIDDEN
 62
     7
370
     0
100
AcDbLine
 10
221.1749603893
 20
54.1619780956
 30
0.0
 11
221.1749603893
 21
51.1619780956
 31
0.0
  0
LINE
  5
F4
330
1F
100
AcDbEntity
  8
0
  6
HIDDEN
 62
     7
370
     0
100
AcDbLine
 10
140.2249603893
 20
54.1619780956
 30
0.0
 11
144.9749603893
 21
54.1619780956
 31
0.0
  0
LINE
  5
F5
330
1F
100
AcDbEntity
  8
0
  6
HIDDEN
 62
     7
370
     0
100
AcDbLine
 10
140.2249603893
 20
51.1619780956
 30
0.0
 11
144.9749603893
 21
51.1619780956
 31
0.0
  0
LINE
  5
F6
330
1F
100
AcDbEntity
  8
0
  6
HIDDEN
 62
     7
370
     0
100
AcDbLine
 10
144.9749603893
 20
51.1619780956
 30
0.0
 11
144.9749603893
 21
54.1619780956
 31
0.0
  0
LINE
  5
F7
330
1F
100
AcDbEntity
  8
0
  6
HIDDEN
 62
     7
370
     0
100
AcDbLine
 10
225.9249603893
 20
51.1619780956
 30
0.0
 11
221.1749603893
 21
51.1619780956
 31
0.0
  0
LINE
  5
F8
330
1F
100
AcDbEntity
  8
0
  6
HIDDEN
 62
     7
370
     0
100
AcDbLine
 10
225.9249603893
 20
54.1619780956
 30
0.0
 11
221.1749603893
 21
54.1619780956
 31
0.0
  0
LINE
  5
F9
330
1F
100
AcDbEntity
  8
0
  6
HIDDEN
 62
     7
370
     0
100
AcDbLine
 10
221.1749603893
 20
54.1619780956
 30
0.0
 11
221.1749603893
 21
51.1619780956
 31
0.0
  0
LINE
  5
FA
330
1F
100
AcDbEntity
  8
0
  6
HIDDEN
 62
     7
370
     0
100
AcDbLine
 10
139.9749603893
 20
61.6619780956
 30
0.0
 11
144.9749603893
 21
61.6619780956
 31
0.0
  0
LINE
  5
FB
330
1F
100
AcDbEntity
  8
0
  6
HIDDEN
 62
     7
370
     0
100
AcDbLine
 10
139.9749603893
 20
55.6619780956
 30
0.0
 11
144.9749603893
 21
55.6619780956
 31
0.0
  0
LINE
  5
FC
330
1F
100
AcDbEntity
  8
0
  6
HIDDEN
 62
     7
370
     0
100
AcDbLine
 10
144.9749603893
 20
55.6619780956
 30
0.0
 11
144.9749603893
 21
61.6619780956
 31
0.0
  0
LINE
  5
FD
330
1F
100
AcDbEntity
  8
0
  6
HIDDEN
 62
     7
370
     0
100
AcDbLine
 10
226.1749603893
 20
55.6619780956
 30
0.0
 11
221.1749603893
 21
55.6619780956
 31
0.0
  0
LINE
  5
FE
330
1F
100
AcDbEntity
  8
0
  6
HIDDEN
 62
     7
370
     0
100
AcDbLine
 10
226.1749603893
 20
61.6619780956
 30
0.0
 11
221.1749603893
 21
61.6619780956
 31
0.0
  0
LINE
  5
FF
330
1F
100
AcDbEntity
  8
0
  6
HIDDEN
 62
     7
370
     0
100
AcDbLine
 10
221.1749603893
 20
61.6619780956
 30
0.0
 11
221.1749603893
 21
55.6619780956
 31
0.0
  0
ARC
  5
100
330
1F
100
AcDbEntity
  8
0
  6
HIDDEN
 62
     7
370
     0
100
AcDbCircle
 10
146.9749603893
 20
58.6619780956
 30
0.0
 40
3.000000000000022
100
AcDbArc
 50
255.0
 51
195.0
  0
ARC
  5
101
330
1F
100
AcDbEntity
  8
0
  6
HIDDEN
 62
     7
370
     0
100
AcDbCircle
 10
219.1749603893
 20
58.6619780956
 30
0.0
 40
2.999999999999994
100
AcDbArc
 50
255.0
 51
195.0
  0
ARC
  5
102
330
1F
100
AcDbEntity
  8
0
  6
Continuous
 62
     7
370
     0
100
AcDbCircle
 10
146.9749603893
 20
58.6619780956
 30
0.0
 40
3.000000000000022
100
AcDbArc
 50
255.0
 51
195.0
  0
ARC
  5
103
330
1F
100
AcDbEntity
  8
0
  6
Continuous
 62
     7
370
     0
100
AcDbCircle
 10
219.1749603893
 20
58.6619780956
 30
0.0
 40
3.000000000000022
100
AcDbArc
 50
255.0
 51
195.0
  0
LINE
  5
104
330
1F
100
AcDbEntity
  8
0
  6
HIDDEN
 62
     7
370
     0
100
AcDbLine
 10
225.9254603893
 20
51.1614780956
 30
0.0
 11
221.1749603893
 21
51.1614780956
 31
0.0
  0
LINE
  5
105
330
1F
100
AcDbEntity
  8
0
  6
HIDDEN
 62
     7
370
     0
100
AcDbLine
 10
225.9254603893
 20
54.1624780956
 30
0.0
 11
221.1749603893
 21
54.1624780956
 31
0.0
  0
LINE
  5
106
330
1F
100
AcDbEntity
  8
0
  6
HIDDEN
 62
     7
370
     0
100
AcDbLine
 10
221.1749603893
 20
54.1624780956
 30
0.0
 11
221.1749603893
 21
51.1614780956
 31
0.0
  0
LINE
  5
107
330
1F
100
AcDbEntity
  8
0
  6
HIDDEN
 62
     7
370
     0
100
AcDbLine
 10
225.9254603893
 20
51.1614780956
 30
0.0
 11
221.1749603893
 21
51.1614780956
 31
0.0
  0
LINE
  5
108
330
1F
100
AcDbEntity
  8
0
  6
HIDDEN
 62
     7
370
     0
100
AcDbLine
 10
225.9254603893
 20
54.1624780956
 30
0.0
 11
221.1749603893
 21
54.1624780956
 31
0.0
  0
LINE
  5
109
330
1F
100
AcDbEntity
  8
0
  6
HIDDEN
 62
     7
370
     0
100
AcDbLine
 10
221.1749603893
 20
54.1624780956
 30
0.0
 11
221.1749603893
 21
51.1614780956
 31
0.0
  0
ARC
  5
10A
330
1F
100
AcDbEntity
  8
0
  6
Continuous
 62
     7
370
     0
100
AcDbCircle
 10
219.1749603893
 20
58.6619780956
 30
0.0
 40
3.000000000000022
100
AcDbArc
 50
255.0
 51
195.0
  0
LINE
  5
10B
330
1F
100
AcDbEntity
  8
0
  6
HIDDEN
 62
     7
370
     0
100
AcDbLine
 10
226.1749603893
 20
55.6619780956
 30
0.0
 11
221.1749603893
 21
55.6619780956
 31
0.0
  0
LINE
  5
10C
330
1F
100
AcDbEntity
  8
0
  6
HIDDEN
 62
     7
370
     0
100
AcDbLine
 10
226.1749603893
 20
61.6619780956
 30
0.0
 11
221.1749603893
 21
61.6619780956
 31
0.0
  0
LINE
  5
10D
330
1F
100
AcDbEntity
  8
0
  6
HIDDEN
 62
     7
370
     0
100
AcDbLine
 10
221.1749603893
 20
61.6619780956
 30
0.0
 11
221.1749603893
 21
55.6619780956
 31
0.0
  0
ARC
  5
10E
330
1F
100
AcDbEntity
  8
0
  6
HIDDEN
 62
     7
370
     0
100
AcDbCircle
 10
219.1749603893
 20
58.6619780956
 30
0.0
 40
2.999999999999994
100
AcDbArc
 50
255.0
 51
195.0
  0
LINE
  5
10F
330
1F
100
AcDbEntity
  8
0
  6
Continuous
 62
     7
370
     0
100
AcDbLine
 10
87.5749603893
 20
173.7619780956
 30
0.0
 11
87.5749603893
 21
159.5619780956
 31
0.0
  0
LINE
  5
110
330
1F
100
AcDbEntity
  8
0
  6
Continuous
 62
     7
370
     0
100
AcDbLine
 10
87.8249603893
 20
173.7619780956
 30
0.0
 11
87.5749603893
 21
173.7619780956
 31
0.0
  0
LINE
  5
111
330
1F
100
AcDbEntity
  8
0
  6
Continuous
 62
     7
370
     0
100
AcDbLine
 10
87.8249603893
 20
173.7619780956
 30
0.0
 11
87.8249603893
 21
159.5619780956
 31
0.0
  0
LINE
  5
112
330
1F
100
AcDbEntity
  8
0
  6
Continuous
 62
     7
370
     0
100
AcDbLine
 10
75.5749603893
 20
173.7619780956
 30
0.0
 11
75.5749603893
 21
159.5619780956
 31
0.0
  0
LINE
  5
113
330
1F
100
AcDbEntity
  8
0
  6
Continuous
 62
     7
370
     0
100
AcDbLine
 10
87.5749603893
 20
173.7619780956
 30
0.0
 11
75.5749603893
 21
173.7619780956
 31
0.0
  0
CIRCLE
  5
114
330
1F
100
AcDbEntity
  8
0
  6
Continuous
 62
     7
370
     0
100
AcDbCircle
 10
81.5749603893
 20
165.6119780956
 30
0.0
 40
2.5
  0
LINE
  5
115
330
1F
100
AcDbEntity
  8
0
  6
Continuous
 62
     7
370
     0
100
AcDbLine
 10
75.3249603893
 20
173.7619780956
 30
0.0
 11
75.3249603893
 21
159.5619780956
 31
0.0
  0
LINE
  5
116
330
1F
100
AcDbEntity
  8
0
  6
Continuous
 62
     7
370
     0
100
AcDbLine
 10
75.5749603893
 20
173.7619780956
 30
0.0
 11
75.3249603893
 21
173.7619780956
 31
0.0
  0
LINE
  5
117
330
1F
100
AcDbEntity
  8
0
  6
Continuous
 62
     7
370
     0
100
AcDbLine
 10
103.7749603893
 20
173.7619780956
 30
0.0
 11
103.7749603893
 21
159.5619780956
 31
0.0
  0
LINE
  5
118
330
1F
100
AcDbEntity
  8
0
  6
Continuous
 62
     7
370
     0
100
AcDbLine
 10
103.7749603893
 20
173.7619780956
 30
0.0
 11
87.8249603893
 21
173.7619780956
 31
0.0
  0
LINE
  5
119
330
1F
100
AcDbEntity
  8
0
  6
Continuous
 62
     7
370
     0
100
AcDbLine
 10
104.7749603893
 20
173.7619780956
 30
0.0
 11
104.7749603893
 21
159.5619780956
 31
0.0
  0
LINE
  5
11A
330
1F
100
AcDbEntity
  8
0
  6
Continuous
 62
     7
370
     0
100
AcDbLine
 10
104.7749603893
 20
173.7619780956
 30
0.0
 11
103.7749603893
 21
173.7619780956
 31
0.0
  0
LINE
  5
11B
330
1F
100
AcDbEntity
  8
0
  6
Continuous
 62
     7
370
     0
100
AcDbLine
 10
59.3749603893
 20
173.7619780956
 30
0.0
 11
59.3749603893
 21
159.5619780956
 31
0.0
  0
LINE
  5
11C
330
1F
100
AcDbEntity
  8
0
  6
Continuous
 62
     7
370
     0
100
AcDbLine
 10
75.3249603893
 20
173.7619780956
 30
0.0
 11
59.3749603893
 21
173.7619780956
 31
0.0
  0
LINE
  5
11D
330
1F
100
AcDbEntity
  8
0
  6
Continuous
 62
     7
370
     0
100
AcDbLine
 10
58.3749603893
 20
173.7619780956
 30
0.0
 11
58.3749603893
 21
159.5619780956
 31
0.0
  0
LINE
  5
11E
330
1F
100
AcDbEntity
  8
0
  6
Continuous
 62
     7
370
     0
100
AcDbLine
 10
59.3749603893
 20
173.7619780956
 30
0.0
 11
58.3749603893
 21
173.7619780956
 31
0.0
  0
CIRCLE
  5
11F
330
1F
100
AcDbEntity
  8
0
  6
Continuous
 62
     7
370
     0
100
AcDbCircle
 10
81.5749603893
 20
164.8119780956
 30
0.0
 40
0.4000000000000057
  0
LINE
  5
120
330
1F
100
AcDbEntity
  8
0
  6
Continuous
 62
     7
370
     0
100
AcDbLine
 10
87.8249603893
 20
87.5619780956
 30
0.0
 11
87.8249603893
 21
101.7619780956
 31
0.0
  0
LINE
  5
121
330
1F
100
AcDbEntity
  8
0
  6
Continuous
 62
     7
370
     0
100
AcDbLine
 10
87.8249603893
 20
87.5619780956
 30
0.0
 11
87.5749603893
 21
87.5619780956
 31
0.0
  0
LINE
  5
122
330
1F
100
AcDbEntity
  8
0
  6
Continuous
 62
     7
370
     0
100
AcDbLine
 10
87.5749603893
 20
87.5619780956
 30
0.0
 11
87.5749603893
 21
101.7619780956
 31
0.0
  0
CIRCLE
  5
123
330
1F
100
AcDbEntity
  8
0
  6
Continuous
 62
     7
370
     0
100
AcDbCircle
 10
81.5749603893
 20
95.7119780956
 30
0.0
 40
2.5
  0
LINE
  5
124
330
1F
100
AcDbEntity
  8
0
  6
Continuous
 62
     7
370
     0
100
AcDbLine
 10
87.5749603893
 20
87.5619780956
 30
0.0
 11
75.5749603893
 21
87.5619780956
 31
0.0
  0
LINE
  5
125
330
1F
100
AcDbEntity
  8
0
  6
Continuous
 62
     7
370
     0
100
AcDbLine
 10
75.5749603893
 20
87.5619780956
 30
0.0
 11
75.5749603893
 21
101.7619780956
 31
0.0
  0
LINE
  5
126
330
1F
100
AcDbEntity
  8
0
  6
Continuous
 62
     7
370
     0
100
AcDbLine
 10
75.5749603893
 20
87.5619780956
 30
0.0
 11
75.3249603893
 21
87.5619780956
 31
0.0
  0
LINE
  5
127
330
1F
100
AcDbEntity
  8
0
  6
Continuous
 62
     7
370
     0
100
AcDbLine
 10
75.3249603893
 20
87.5619780956
 30
0.0
 11
75.3249603893
 21
101.7619780956
 31
0.0
  0
LINE
  5
128
330
1F
100
AcDbEntity
  8
0
  6
Continuous
 62
     7
370
     0
100
AcDbLine
 10
103.7749603893
 20
87.5619780956
 30
0.0
 11
103.7749603893
 21
101.7619780956
 31
0.0
  0
LINE
  5
129
330
1F
100
AcDbEntity
  8
0
  6
Continuous
 62
     7
370
     0
100
AcDbLine
 10
103.7749603893
 20
87.5619780956
 30
0.0
 11
87.8249603893
 21
87.5619780956
 31
0.0
  0
LINE
  5
12A
330
1F
100
AcDbEntity
  8
0
  6
Continuous
 62
     7
370
     0
100
AcDbLine
 10
104.7749603893
 20
87.5619780956
 30
0.0
 11
104.7749603893
 21
101.7619780956
 31
0.0
  0
LINE
  5
12B
330
1F
100
AcDbEntity
  8
0
  6
Continuous
 62
     7
370
     0
100
AcDbLine
 10
104.7749603893
 20
87.5619780956
 30
0.0
 11
103.7749603893
 21
87.5619780956
 31
0.0
  0
LINE
  5
12C
330
1F
100
AcDbEntity
  8
0
  6
Continuous
 62
     7
370
     0
100
AcDbLine
 10
59.3749603893
 20
87.5619780956
 30
0.0
 11
59.3749603893
 21
101.7619780956
 31
0.0
  0
LINE
  5
12D
330
1F
100
AcDbEntity
  8
0
  6
Continuous
 62
     7
370
     0
100
AcDbLine
 10
75.3249603893
 20
87.5619780956
 30
0.0
 11
59.3749603893
 21
87.5619780956
 31
0.0
  0
LINE
  5
12E
330
1F
100
AcDbEntity
  8
0
  6
Continuous
 62
     7
370
     0
100
AcDbLine
 10
58.3749603893
 20
87.5619780956
 30
0.0
 11
58.3749603893
 21
101.7619780956
 31
0.0
  0
LINE
  5
12F
330
1F
100
AcDbEntity
  8
0
  6
Continuous
 62
     7
370
     0
100
AcDbLine
 10
59.3749603893
 20
87.5619780956
 30
0.0
 11
58.3749603893
 21
87.5619780956
 31
0.0
  0
CIRCLE
  5
130
330
1F
100
AcDbEntity
  8
0
  6
Continuous
 62
     7
370
     0
100
AcDbCircle
 10
81.5749603893
 20
96.5119780956
 30
0.0
 40
0.3999999999999915
  0
LINE
  5
131
330
1F
100
AcDbEntity
  8
0
  6
Continuous
 62
     7
370
     0
100
AcDbLine
 10
87.7749603893
 20
101.7619780956
 30
0.0
 11
87.7749603893
 21
159.5619780956
 31
0.0
  0
LINE
  5
132
330
1F
100
AcDbEntity
  8
0
  6
Continuous
 62
     7
370
     0
100
AcDbLine
 10
87.7749603893
 20
101.7619780956
 30
0.0
 11
75.3749603893
 21
101.7619780956
 31
0.0
  0
LINE
  5
133
330
1F
100
AcDbEntity
  8
0
  6
Continuous
 62
     7
370
     0
100
AcDbLine
 10
75.3749603893
 20
101.7619780956
 30
0.0
 11
75.3749603893
 21
159.5619780956
 31
0.0
  0
LINE
  5
134
330
1F
100
AcDbEntity
  8
0
  6
Continuous
 62
     7
370
     0
100
AcDbLine
 10
87.7749603893
 20
159.5619780956
 30
0.0
 11
75.3749603893
 21
159.5619780956
 31
0.0
  0
CIRCLE
  5
135
330
1F
100
AcDbEntity
  8
0
  6
Continuous
 62
     7
370
     0
100
AcDbCircle
 10
81.5749603893
 20
150.6619780956
 30
0.0
 40
3.849999999999966
  0
CIRCLE
  5
136
330
1F
100
AcDbEntity
  8
0
  6
Continuous
 62
     7
370
     0
100
AcDbCircle
 10
81.5749603893
 20
110.6619780956
 30
0.0
 40
3.849999999999994
  0
LINE
  5
137
330
1F
100
AcDbEntity
  8
0
  6
Continuous
 62
     7
370
     0
100
AcDbLine
 10
75.3749603893
 20
101.7619780956
 30
0.0
 11
75.0749603893
 21
101.7619780956
 31
0.0
  0
LINE
  5
138
330
1F
100
AcDbEntity
  8
0
  6
Continuous
 62
     7
370
     0
100
AcDbLine
 10
75.0749603893
 20
101.7619780956
 30
0.0
 11
75.0749603893
 21
159.5619780956
 31
0.0
  0
LINE
  5
139
330
1F
100
AcDbEntity
  8
0
  6
Continuous
 62
     7
370
     0
100
AcDbLine
 10
75.3749603893
 20
159.5619780956
 30
0.0
 11
75.0749603893
 21
159.5619780956
 31
0.0
  0
LINE
  5
13A
330
1F
100
AcDbEntity
  8
0
  6
Continuous
 62
     7
370
     0
100
AcDbLine
 10
116.5749603893
 20
101.7619780956
 30
0.0
 11
116.5749603893
 21
159.5619780956
 31
0.0
  0
LINE
  5
13B
330
1F
100
AcDbEntity
  8
0
  6
Continuous
 62
     7
370
     0
100
AcDbLine
 10
116.5749603893
 20
101.7619780956
 30
0.0
 11
115.5749603893
 21
101.7619780956
 31
0.0
  0
LINE
  5
13C
330
1F
100
AcDbEntity
  8
0
  6
Continuous
 62
     7
370
     0
100
AcDbLine
 10
115.5749603893
 20
101.7619780956
 30
0.0
 11
115.5749603893
 21
159.5619780956
 31
0.0
  0
LINE
  5
13D
330
1F
100
AcDbEntity
  8
0
  6
Continuous
 62
     7
370
     0
100
AcDbLine
 10
116.5749603893
 20
159.5619780956
 30
0.0
 11
115.5749603893
 21
159.5619780956
 31
0.0
  0
LINE
  5
13E
330
1F
100
AcDbEntity
  8
0
  6
Continuous
 62
     7
370
     0
100
AcDbLine
 10
47.5749603893
 20
101.7619780956
 30
0.0
 11
47.5749603893
 21
159.5619780956
 31
0.0
  0
LINE
  5
13F
330
1F
100
AcDbEntity
  8
0
  6
Continuous
 62
     7
370
     0
100
AcDbLine
 10
47.5749603893
 20
101.7619780956
 30
0.0
 11
46.5749603893
 21
101.7619780956
 31
0.0
  0
LINE
  5
140
330
1F
100
AcDbEntity
  8
0
  6
Continuous
 62
     7
370
     0
100
AcDbLine
 10
46.5749603893
 20
101.7619780956
 30
0.0
 11
46.5749603893
 21
159.5619780956
 31
0.0
  0
LINE
  5
141
330
1F
100
AcDbEntity
  8
0
  6
Continuous
 62
     7
370
     0
100
AcDbLine
 10
47.5749603893
 20
159.5619780956
 30
0.0
 11
46.5749603893
 21
159.5619780956
 31
0.0
  0
LINE
  5
142
330
1F
100
AcDbEntity
  8
0
  6
Continuous
 62
     7
370
     0
100
AcDbLine
 10
59.2749603893
 20
101.7619780956
 30
0.0
 11
59.2749603893
 21
159.5619780956
 31
0.0
  0
LINE
  5
143
330
1F
100
AcDbEntity
  8
0
  6
Continuous
 62
     7
370
     0
100
AcDbLine
 10
59.2749603893
 20
101.7619780956
 30
0.0
 11
47.5749603893
 21
101.7619780956
 31
0.0
  0
LINE
  5
144
330
1F
100
AcDbEntity
  8
0
  6
Continuous
 62
     7
370
     0
100
AcDbLine
 10
59.2749603893
 20
159.5619780956
 30
0.0
 11
47.5749603893
 21
159.5619780956
 31
0.0
  0
CIRCLE
  5
145
330
1F
100
AcDbEntity
  8
0
  6
Continuous
 62
     7
370
     0
100
AcDbCircle
 10
53.0749603893
 20
153.1619780956
 30
0.0
 40
3.850000000000009
  0
CIRCLE
  5
146
330
1F
100
AcDbEntity
  8
0
  6
Continuous
 62
     7
370
     0
100
AcDbCircle
 10
53.0749603893
 20
108.1619780956
 30
0.0
 40
3.850000000000009
  0
LINE
  5
147
330
1F
100
AcDbEntity
  8
0
  6
Continuous
 62
     7
370
     0
100
AcDbLine
 10
115.5749603893
 20
101.7619780956
 30
0.0
 11
103.8749603893
 21
101.7619780956
 31
0.0
  0
LINE
  5
148
330
1F
100
AcDbEntity
  8
0
  6
Continuous
 62
     7
370
     0
100
AcDbLine
 10
103.8749603893
 20
101.7619780956
 30
0.0
 11
103.8749603893
 21
159.5619780956
 31
0.0
  0
LINE
  5
149
330
1F
100
AcDbEntity
  8
0
  6
Continuous
 62
     7
370
     0
100
AcDbLine
 10
115.5749603893
 20
159.5619780956
 30
0.0
 11
103.8749603893
 21
159.5619780956
 31
0.0
  0
CIRCLE
  5
14A
330
1F
100
AcDbEntity
  8
0
  6
Continuous
 62
     7
370
     0
100
AcDbCircle
 10
110.0749603893
 20
153.1619780956
 30
0.0
 40
3.850000000000009
  0
CIRCLE
  5
14B
330
1F
100
AcDbEntity
  8
0
  6
Continuous
 62
     7
370
     0
100
AcDbCircle
 10
110.0749603893
 20
108.1619780956
 30
0.0
 40
3.850000000000009
  0
LINE
  5
14C
330
1F
100
AcDbEntity
  8
0
  6
Continuous
 62
     7
370
     0
100
AcDbLine
 10
88.0749603893
 20
101.7619780956
 30
0.0
 11
88.0749603893
 21
159.5619780956
 31
0.0
  0
LINE
  5
14D
330
1F
100
AcDbEntity
  8
0
  6
Continuous
 62
     7
370
     0
100
AcDbLine
 10
88.0749603893
 20
101.7619780956
 30
0.0
 11
87.7749603893
 21
101.7619780956
 31
0.0
  0
LINE
  5
14E
330
1F
100
AcDbEntity
  8
0
  6
Continuous
 62
     7
370
     0
100
AcDbLine
 10
88.0749603893
 20
159.5619780956
 30
0.0
 11
87.7749603893
 21
159.5619780956
 31
0.0
  0
LINE
  5
14F
330
1F
100
AcDbEntity
  8
0
  6
Continuous
 62
     7
370
     0
100
AcDbLine
 10
103.8749603893
 20
101.7619780956
 30
0.0
 11
103.5749603893
 21
101.7619780956
 31
0.0
  0
LINE
  5
150
330
1F
100
AcDbEntity
  8
0
  6
Continuous
 62
     7
370
     0
100
AcDbLine
 10
103.5749603893
 20
101.7619780956
 30
0.0
 11
103.5749603893
 21
159.5619780956
 31
0.0
  0
LINE
  5
151
330
1F
100
AcDbEntity
  8
0
  6
Continuous
 62
     7
370
     0
100
AcDbLine
 10
103.8749603893
 20
159.5619780956
 30
0.0
 11
103.5749603893
 21
159.5619780956
 31
0.0
  0
LINE
  5
152
330
1F
100
AcDbEntity
  8
0
  6
Continuous
 62
     7
370
     0
100
AcDbLine
 10
59.5749603893
 20
101.7619780956
 30
0.0
 11
59.5749603893
 21
159.5619780956
 31
0.0
  0
LINE
  5
153
330
1F
100
AcDbEntity
  8
0
  6
Continuous
 62
     7
370
     0
100
AcDbLine
 10
59.5749603893
 20
101.7619780956
 30
0.0
 11
59.2749603893
 21
101.7619780956
 31
0.0
  0
LINE
  5
154
330
1F
100
AcDbEntity
  8
0
  6
Continuous
 62
     7
370
     0
100
AcDbLine
 10
59.5749603893
 20
159.5619780956
 30
0.0
 11
59.2749603893
 21
159.5619780956
 31
0.0
  0
CIRCLE
  5
155
330
1F
100
AcDbEntity
  8
0
  6
Continuous
 62
     7
370
     0
100
AcDbCircle
 10
53.0749603893
 20
153.1619780956
 30
0.0
 40
3.349999999999966
  0
CIRCLE
  5
156
330
1F
100
AcDbEntity
  8
0
  6
Continuous
 62
     7
370
     0
100
AcDbCircle
 10
110.0749603893
 20
153.1619780956
 30
0.0
 40
3.349999999999966
  0
CIRCLE
  5
157
330
1F
100
AcDbEntity
  8
0
  6
Continuous
 62
     7
370
     0
100
AcDbCircle
 10
81.5749603893
 20
150.6619780956
 30
0.0
 40
3.349999999999994
  0
CIRCLE
  5
158
330
1F
100
AcDbEntity
  8
0
  6
Continuous
 62
     7
370
     0
100
AcDbCircle
 10
81.5749603893
 20
110.6619780956
 30
0.0
 40
3.350000000000009
  0
CIRCLE
  5
159
330
1F
100
AcDbEntity
  8
0
  6
Continuous
 62
     7
370
     0
100
AcDbCircle
 10
53.0749603893
 20
108.1619780956
 30
0.0
 40
3.349999999999994
  0
CIRCLE
  5
15A
330
1F
100
AcDbEntity
  8
0
  6
Continuous
 62
     7
370
     0
100
AcDbCircle
 10
110.0749603893
 20
108.1619780956
 30
0.0
 40
3.349999999999994
  0
LINE
  5
15B
330
1F
100
AcDbEntity
  8
0
  6
Continuous
 62
     7
370
     0
100
AcDbLine
 10
75.0749603893
 20
101.7619780956
 30
0.0
 11
59.5749603893
 21
101.7619780956
 31
0.0
  0
LINE
  5
15C
330
1F
100
AcDbEntity
  8
0
  6
Continuous
 62
     7
370
     0
100
AcDbLine
 10
75.0749603893
 20
159.5619780956
 30
0.0
 11
59.5749603893
 21
159.5619780956
 31
0.0
  0
LINE
  5
15D
330
1F
100
AcDbEntity
  8
0
  6
Continuous
 62
     7
370
     0
100
AcDbLine
 10
103.5749603893
 20
101.7619780956
 30
0.0
 11
88.0749603893
 21
101.7619780956
 31
0.0
  0
LINE
  5
15E
330
1F
100
AcDbEntity
  8
0
  6
Continuous
 62
     7
370
     0
100
AcDbLine
 10
103.5749603893
 20
159.5619780956
 30
0.0
 11
88.0749603893
 21
159.5619780956
 31
0.0
  0
INSERT
  5
166
330
1F
100
AcDbEntity
  8
0
  6
Continuous
 62
     7
370
     0
100
AcDbBlockReference
  2
SW_CENTERMARKSYMBOL_5
 10
81.5749603893
 20
165.6119780956
 30
0.0
  0
INSERT
  5
172
330
1F
100
AcDbEntity
  8
0
  6
Continuous
 62
     7
370
     0
100
AcDbBlockReference
  2
SW_CENTERMARKSYMBOL_6
 10
81.5749603893
 20
164.8119780956
 30
0.0
  0
INSERT
  5
17A
330
1F
100
AcDbEntity
  8
0
  6
Continuous
 62
     7
370
     0
100
AcDbBlockReference
  2
SW_CENTERMARKSYMBOL_7
 10
81.5749603893
 20
95.7119780956
 30
0.0
  0
INSERT
  5
186
330
1F
100
AcDbEntity
  8
0
  6
Continuous
 62
     7
370
     0
100
AcDbBlockReference
  2
SW_CENTERMARKSYMBOL_8
 10
81.5749603893
 20
96.5119780956
 30
0.0
  0
INSERT
  5
192
330
1F
100
AcDbEntity
  8
0
  6
Continuous
 62
     7
370
     0
100
AcDbBlockReference
  2
SW_CENTERMARKSYMBOL_9
 10
53.0749603893
 20
153.1619780956
 30
0.0
  0
INSERT
  5
19E
330
1F
100
AcDbEntity
  8
0
  6
Continuous
 62
     7
370
     0
100
AcDbBlockReference
  2
SW_CENTERMARKSYMBOL_10
 10
110.0749603893
 20
108.1619780956
 30
0.0
  0
INSERT
  5
1AA
330
1F
100
AcDbEntity
  8
0
  6
Continuous
 62
     7
370
     0
100
AcDbBlockReference
  2
SW_CENTERMARKSYMBOL_11
 10
81.5749603893
 20
150.6619780956
 30
0.0
  0
INSERT
  5
1B6
330
1F
100
AcDbEntity
  8
0
  6
Continuous
 62
     7
370
     0
100
AcDbBlockReference
  2
SW_CENTERMARKSYMBOL_12
 10
81.5749603893
 20
110.6619780956
 30
0.0
  0
INSERT
  5
1C2
330
1F
100
AcDbEntity
  8
0
  6
Continuous
 62
     7
370
     0
100
AcDbBlockReference
  2
SW_CENTERMARKSYMBOL_13
 10
53.0749603893
 20
108.1619780956
 30
0.0
  0
INSERT
  5
1CE
330
1F
100
AcDbEntity
  8
0
  6
Continuous
 62
     7
370
     0
100
AcDbBlockReference
  2
SW_CENTERMARKSYMBOL_14
 10
110.0749603893
 20
153.1619780956
 30
0.0
  0
ARC
  5
1CF
330
1F
100
AcDbEntity
  8
0
  6
Continuous
 62
     7
370
     0
100
AcDbCircle
 10
81.5749603893
 20
150.6619780956
 30
0.0
 40
3.999999999999996
100
AcDbArc
 50
255.0
 51
195.0
  0
ARC
  5
1D0
330
1F
100
AcDbEntity
  8
0
  6
Continuous
 62
     7
370
     0
100
AcDbCircle
 10
81.5749603893
 20
110.6619780956
 30
0.0
 40
4.000000000000007
100
AcDbArc
 50
255.0
 51
195.0
  0
ARC
  5
1D1
330
1F
100
AcDbEntity
  8
0
  6
Continuous
 62
     7
370
     0
100
AcDbCircle
 10
53.0749603893
 20
108.1619780956
 30
0.0
 40
4.000000000000001
100
AcDbArc
 50
255.0
 51
195.0
  0
ARC
  5
1D2
330
1F
100
AcDbEntity
  8
0
  6
Continuous
 62
     7
370
     0
100
AcDbCircle
 10
110.0749603893
 20
108.1619780956
 30
0.0
 40
4.000000000000007
100
AcDbArc
 50
255.0
 51
195.0
  0
ARC
  5
1D3
330
1F
100
AcDbEntity
  8
0
  6
Continuous
 62
     7
370
     0
100
AcDbCircle
 10
110.0749603893
 20
153.1619780956
 30
0.0
 40
4.000000000000021
100
AcDbArc
 50
255.0
 51
195.0
  0
ARC
  5
1D4
330
1F
100
AcDbEntity
  8
0
  6
Continuous
 62
     7
370
     0
100
AcDbCircle
 10
53.0749603893
 20
153.1619780956
 30
0.0
 40
4.00000000000002
100
AcDbArc
 50
255.0
 51
195.0
  0
LINE
  5
1D5
330
1F
100
AcDbEntity
  8
0
  6
Continuous
 62
     7
370
     0
100
AcDbLine
 10
209.4785723605
 20
169.8684583491
 30
0.0
 11
200.0563841454
 21
164.4291448716
 31
0.0
  0
LINE
  5
1D6
330
1F
100
AcDbEntity
  8
0
  6
Continuous
 62
     7
370
     0
100
AcDbLine
 10
171.6886995255
 20
110.4148605489
 30
0.0
 11
170.7819971296
 21
109.8914323972
 31
0.0
  0
LINE
  5
1D7
330
1F
100
AcDbEntity
  8
0
  6
Continuous
 62
     7
370
     0
100
AcDbLine
 10
158.566884115
 20
140.4777663235
 30
0.0
 11
148.5259678222
 21
134.6812687295
 31
0.0
  0
LINE
  5
1D8
330
1F
100
AcDbEntity
  8
0
  6
Continuous
 62
     7
370
     0
100
AcDbLine
 10
158.6653983321
 20
107.6061241094
 30
0.0
 11
168.706314625
 21
113.4026217033
 31
0.0
  0
LINE
  5
1D9
330
1F
100
AcDbEntity
  8
0
  6
Continuous
 62
     7
370
     0
100
AcDbLine
 10
168.706314625
 20
113.4026217033
 30
0.0
 11
169.8625231911
 21
114.0700867012
 31
0.0
  0
LINE
  5
1DA
330
1F
100
AcDbEntity
  8
0
  6
Continuous
 62
     7
370
     0
100
AcDbLine
 10
232.0402632998
 20
123.214755218
 30
0.0
 11
232.0402632998
 21
128.9566029863
 31
0.0
  0
LINE
  5
1DB
330
1F
100
AcDbEntity
  8
0
  6
Continuous
 62
     7
370
     0
100
AcDbLine
 10
231.9695526217
 20
123.1739215424
 30
0.0
 11
232.0402632998
 21
123.214755218
 31
0.0
  0
ARC
  5
1DC
330
1F
100
AcDbEntity
  8
0
  6
Continuous
 62
     7
370
     0
100
AcDbCircle
 10
240.5459634913
 20
150.4000844961
 30
0.0
 40
1.536804807572134
100
AcDbArc
 50
2.6054784857
 51
57.39452166
  0
LINE
  5
1DD
330
1F
100
AcDbEntity
  8
0
  6
Continuous
 62
     7
370
     0
100
AcDbLine
 10
242.0811795927
 20
129.011252812
 30
0.0
 11
242.0811795927
 21
150.4699453483
 31
0.0
  0
LINE
  5
1DE
330
1F
100
AcDbEntity
  8
0
  6
Continuous
 62
     7
370
     0
100
AcDbLine
 10
242.0811795927
 20
129.011252812
 30
0.0
 11
232.0402632998
 21
123.214755218
 31
0.0
  0
LWPOLYLINE
  5
1DF
330
1F
100
AcDbEntity
  8
0
  6
Continuous
 62
     7
370
     0
100
AcDbPolyline
 90
       23
 70
   128
 43
0.0
 10
235.1562158384
 20
144.3852471444
 10
235.171587677
 20
144.4381787982
 10
235.3676187207
 20
144.9748524966
 10
235.6314321244
 20
145.498356061
 10
235.9528896868
 20
145.9885715431
 10
236.3196379741
 20
146.4266602366
 10
236.7175830554
 20
146.7957866389
 10
237.1314321244
 20
147.0817654292
 10
237.5452811933
 20
147.2736066032
 10
237.9432262746
 20
147.3639378119
 10
238.3099745619
 20
147.3492876778
 10
238.6314321244
 20
147.2302191973
 10
238.895245528
 20
147.0113081053
 10
239.0912765717
 20
146.7009670323
 10
239.2119918923
 20
146.3111222117
 10
239.2527524679
 20
145.8567551613
 10
239.2119918923
 20
145.3553269521
 10
239.0912765717
 20
144.8261071889
 10
238.895245528
 20
144.2894334905
 10
238.6314321244
 20
143.7659299261
 10
238.3099745619
 20
143.2757144441
 10
237.9432262746
 20
142.8376257506
 10
237.905394289
 20
142.7981802066
  0
LINE
  5
1E0
330
1F
100
AcDbEntity
  8
0
  6
Continuous
 62
     7
370
     0
100
AcDbLine
 10
230.0957196516
 20
158.2055449079
 30
0.0
 11
220.4437753021
 21
152.6335960372
 31
0.0
  0
LINE
  5
1E1
330
1F
100
AcDbEntity
  8
0
  6
Continuous
 62
     7
370
     0
100
AcDbLine
 10
241.3740728115
 20
151.6946902161
 30
0.0
 11
230.0957196516
 21
158.2055449079
 31
0.0
  0
LWPOLYLINE
  5
1E2
330
1F
100
AcDbEntity
  8
0
  6
Continuous
 62
     7
370
     0
100
AcDbPolyline
 90
       15
 70
   128
 43
0.0
 10
237.2735562842
 20
143.1629325228
 10
237.4321967328
 20
143.3176062496
 10
237.7699266823
 20
143.7193374957
 10
238.0612695724
 20
144.1732940963
 10
238.2926025332
 20
144.6582495454
 10
238.4531086927
 20
145.1515278651
 10
238.5352829611
 20
145.6300639094
 10
238.5352829611
 20
146.0714818649
 10
238.4531086927
 20
146.4551415184
 10
238.2926025332
 20
146.7631033709
 10
238.0612695724
 20
146.9809674686
 10
237.7699266823
 20
147.0985467284
 10
237.4321967328
 20
147.1103432747
 10
237.0638716009
 20
147.0158055142
 10
236.9462732283
 20
146.9655262542
  0
LINE
  5
1E3
330
1F
100
AcDbEntity
  8
0
  6
Continuous
 62
     7
370
     0
100
AcDbLine
 10
229.9189429563
 20
158.5117311249
 30
0.0
 11
220.1608923608
 21
152.8785284222
 31
0.0
  0
LINE
  5
1E4
330
1F
100
AcDbEntity
  8
0
  6
Continuous
 62
     7
370
     0
100
AcDbLine
 10
230.0957196516
 20
158.2055449079
 30
0.0
 11
229.9189429563
 21
158.5117311249
 31
0.0
  0
LINE
  5
1E5
330
1F
100
AcDbEntity
  8
0
  6
Continuous
 62
     7
370
     0
100
AcDbLine
 10
221.433661582
 20
163.4101797958
 30
0.0
 11
211.8170783183
 21
157.8586444454
 31
0.0
  0
LWPOLYLINE
  5
1E6
330
1F
100
AcDbEntity
  8
0
  6
Continuous
 62
     7
370
     0
100
AcDbPolyline
 90
       30
 70
   128
 43
0.0
 10
218.1456150495
 20
158.6546025444
 10
217.8069268184
 20
158.4113640705
 10
217.5667340906
 20
158.1317812373
 10
217.436268011
 20
157.8289270275
 10
217.4216290286
 20
157.5169625672
 10
217.5235016458
 20
157.210474968
 10
217.7371224123
 20
156.9237952493
 10
218.0525026586
 20
156.6703282361
 10
218.4548955547
 20
156.4619257643
 10
218.9254856561
 20
156.3083325018
 10
219.4422686928
 20
156.2167302989
 10
219.9810804642
 20
156.1914023728
 10
220.5167267307
 20
156.2335330292
 10
221.0241612684
 20
156.3411522853
 10
221.4796570021
 20
156.5092279844
 10
221.8619154576
 20
156.7299010937
 10
222.1530626544
 20
156.9928531836
 10
222.3394848731
 20
157.2857889069
 10
222.412465218
 20
157.5950109146
 10
222.3685912093
 20
157.9060603293
 10
222.2099143469
 20
158.2043928262
 10
221.9438541844
 20
158.4760587092
 10
221.5828513994
 20
158.7083551836
 10
221.1437860809
 20
158.8904203244
 10
220.6471884352
 20
159.0137409679
 10
220.1162788163
 20
159.072550778
 10
219.5758819678
 20
159.0640998734
 10
219.0512662459
 20
158.9887834088
 10
218.5669620986
 20
158.8501230985
 10
218.1456150495
 20
158.6546025444
  0
LINE
  5
1E7
330
1F
100
AcDbEntity
  8
0
  6
Continuous
 62
     7
370
     0
100
AcDbLine
 10
229.9189429563
 20
158.5117311249
 30
0.0
 11
221.433661582
 21
163.4101797958
 31
0.0
  0
ARC
  5
1E8
330
1F
100
AcDbEntity
  8
0
  6
Continuous
 62
     7
370
     0
100
AcDbCircle
 10
218.8320836432
 20
156.501174887
 30
0.0
 40
1.50283251495733
100
AcDbArc
 50
117.1797250678
 51
151.1716286481
  0
ARC
  5
1E9
330
1F
100
AcDbEntity
  8
0
  6
Continuous
 62
     7
370
     0
100
AcDbCircle
 10
219.8666837283
 20
155.0705737932
 30
0.0
 40
3.258997835439501
100
AcDbArc
 50
41.4008031611
 51
121.8770019031
  0
LWPOLYLINE
  5
1EA
330
1F
100
AcDbEntity
  8
0
  6
Continuous
 62
     7
370
     0
100
AcDbPolyline
 90
       17
 70
   128
 43
0.0
 10
219.064853865
 20
156.6542699704
 10
218.9781447645
 20
156.5793557253
 10
218.9476965775
 20
156.490988348
 10
218.9781447645
 20
156.4026209708
 10
219.064853865
 20
156.3277067257
 10
219.1946232046
 20
156.2776506274
 10
219.3476965775
 20
156.2600732632
 10
219.5007699505
 20
156.2776506274
 10
219.63053929
 20
156.3277067257
 10
219.7172483905
 20
156.4026209708
 10
219.7476965775
 20
156.490988348
 10
219.7172483905
 20
156.5793557253
 10
219.63053929
 20
156.6542699704
 10
219.5007699505
 20
156.7043260687
 10
219.3476965775
 20
156.7219034329
 10
219.1946232046
 20
156.7043260687
 10
219.064853865
 20
156.6542699704
  0
LINE
  5
1EB
330
1F
100
AcDbEntity
  8
0
  6
Continuous
 62
     7
370
     0
100
AcDbLine
 10
240.864955929
 20
128.3089135917
 30
0.0
 11
231.9695526217
 21
123.1737065683
 31
0.0
  0
LINE
  5
1EC
330
1F
100
AcDbEntity
  8
0
  6
Continuous
 62
     7
370
     0
100
AcDbLine
 10
240.864955929
 20
128.3089135917
 30
0.0
 11
242.0811795927
 21
129.011252812
 31
0.0
  0
LINE
  5
1ED
330
1F
100
AcDbEntity
  8
0
  6
Continuous
 62
     7
370
     0
100
AcDbLine
 10
221.2568561532
 20
163.3081121943
 30
0.0
 11
209.9785317268
 21
169.8189502986
 31
0.0
  0
LWPOLYLINE
  5
1EE
330
1F
100
AcDbEntity
  8
0
  6
Continuous
 62
     7
370
     0
100
AcDbPolyline
 90
        6
 70
   128
 43
0.0
 10
209.9785317268
 20
169.8189502986
 10
209.8405820372
 20
169.8828973566
 10
209.7079336767
 20
169.9130077595
 10
209.5856842476
 20
169.9081243815
 10
209.4785317268
 20
169.868434888
 10
209.4785723605
 20
169.8684583491
  0
ARC
  5
1EF
330
1F
100
AcDbEntity
  8
0
  6
Continuous
 62
     7
370
     0
100
AcDbCircle
 10
174.2095882034
 20
102.5912466974
 30
0.0
 40
3.960877178793181
100
AcDbArc
 50
189.8761558
 51
230.4726061877
  0
LINE
  5
1F0
330
1F
100
AcDbEntity
  8
0
  6
Continuous
 62
     7
370
     0
100
AcDbLine
 10
170.307408092
 20
101.9118805193
 30
0.0
 11
169.602734521
 21
102.7884881418
 31
0.0
  0
LINE
  5
1F1
330
1F
100
AcDbEntity
  8
0
  6
Continuous
 62
     7
370
     0
100
AcDbLine
 10
169.602734521
 20
102.7884881418
 30
0.0
 11
169.602734521
 21
109.0758523933
 31
0.0
  0
LINE
  5
1F2
330
1F
100
AcDbEntity
  8
0
  6
Continuous
 62
     7
370
     0
100
AcDbLine
 10
169.602734521
 20
109.0758523933
 30
0.0
 11
170.307408092
 21
109.1388612286
 31
0.0
  0
ARC
  5
1F3
330
1F
100
AcDbEntity
  8
0
  6
Continuous
 62
     7
370
     0
100
AcDbCircle
 10
171.2735084001
 20
109.0421127928
 30
0.0
 40
0.970932574884942
100
AcDbArc
 50
64.6833248631
 51
174.2812799701
  0
LINE
  5
1F4
330
1F
100
AcDbEntity
  8
0
  6
Continuous
 62
     7
370
     0
100
AcDbLine
 10
171.6886995255
 20
109.9197951923
 30
0.0
 11
171.6886995255
 21
110.9949190338
 31
0.0
  0
LINE
  5
1F5
330
1F
100
AcDbEntity
  8
0
  6
Continuous
 62
     7
370
     0
100
AcDbLine
 10
171.6886995255
 20
110.9949190338
 30
0.0
 11
171.4553182071
 21
111.3991473337
 31
0.0
  0
LINE
  5
1F6
330
1F
100
AcDbEntity
  8
0
  6
Continuous
 62
     7
370
     0
100
AcDbLine
 10
171.4553182071
 20
111.3991473337
 30
0.0
 11
171.8617188815
 21
112.9159755951
 31
0.0
  0
LINE
  5
1F7
330
1F
100
AcDbEntity
  8
0
  6
Continuous
 62
     7
370
     0
100
AcDbLine
 10
171.8617188815
 20
112.9159755951
 30
0.0
 11
157.5856765802
 21
121.1573593928
 31
0.0
  0
LINE
  5
1F8
330
1F
100
AcDbEntity
  8
0
  6
Continuous
 62
     7
370
     0
100
AcDbLine
 10
157.5856765802
 20
121.1573593928
 30
0.0
 11
157.9920772546
 21
119.1713109004
 31
0.0
  0
LINE
  5
1F9
330
1F
100
AcDbEntity
  8
0
  6
Continuous
 62
     7
370
     0
100
AcDbLine
 10
157.9920772546
 20
119.1713109004
 30
0.0
 11
157.7586959362
 21
119.0365389353
 31
0.0
  0
LINE
  5
1FA
330
1F
100
AcDbEntity
  8
0
  6
Continuous
 62
     7
370
     0
100
AcDbLine
 10
157.7586959362
 20
119.0365389353
 30
0.0
 11
157.7586959362
 21
117.9614150937
 31
0.0
  0
ARC
  5
1FB
330
1F
100
AcDbEntity
  8
0
  6
Continuous
 62
     7
370
     0
100
AcDbCircle
 10
155.2378072583
 20
114.9063098092
 30
0.0
 40
3.960877178802365
100
AcDbArc
 50
9.8761558
 51
50.4726061876
  0
LINE
  5
1FC
330
1F
100
AcDbEntity
  8
0
  6
Continuous
 62
     7
370
     0
100
AcDbLine
 10
159.1399873697
 20
115.5856759873
 30
0.0
 11
159.8446609407
 21
114.7090683649
 31
0.0
  0
LINE
  5
1FD
330
1F
100
AcDbEntity
  8
0
  6
Continuous
 62
     7
370
     0
100
AcDbLine
 10
159.8446609407
 20
114.7090683649
 30
0.0
 11
159.8446609407
 21
108.4217041133
 31
0.0
  0
LINE
  5
1FE
330
1F
100
AcDbEntity
  8
0
  6
Continuous
 62
     7
370
     0
100
AcDbLine
 10
159.8446609407
 20
108.4217041133
 30
0.0
 11
159.1399873697
 21
108.358695278
 31
0.0
  0
ARC
  5
1FF
330
1F
100
AcDbEntity
  8
0
  6
Continuous
 62
     7
370
     0
100
AcDbCircle
 10
158.1738870617
 20
108.4554437138
 30
0.0
 40
0.9709325748837303
100
AcDbArc
 50
244.6833248628
 51
354.2812799701
  0
LINE
  5
200
330
1F
100
AcDbEntity
  8
0
  6
Continuous
 62
     7
370
     0
100
AcDbLine
 10
157.7586959362
 20
107.5777613143
 30
0.0
 11
157.7586959362
 21
105.9107570438
 31
0.0
  0
LINE
  5
201
330
1F
100
AcDbEntity
  8
0
  6
Continuous
 62
     7
370
     0
100
AcDbLine
 10
149.535044071
 20
110.6581702141
 30
0.0
 11
157.7586959362
 21
105.9107570438
 31
0.0
  0
LINE
  5
202
330
1F
100
AcDbEntity
  8
0
  6
Continuous
 62
     7
370
     0
100
AcDbLine
 10
148.3188204073
 20
112.7647313867
 30
0.0
 11
149.535044071
 21
110.6581702141
 31
0.0
  0
LINE
  5
203
330
1F
100
AcDbEntity
  8
0
  6
Continuous
 62
     7
370
     0
100
AcDbLine
 10
148.3188204073
 20
134.2234239231
 30
0.0
 11
148.3188204073
 21
112.7647313867
 31
0.0
  0
ARC
  5
204
330
1F
100
AcDbEntity
  8
0
  6
Continuous
 62
     7
370
     0
100
AcDbCircle
 10
148.7498947748
 20
134.29335112
 30
0.0
 40
0.4367091974285282
100
AcDbArc
 50
50.7967147643
 51
189.2140369905
  0
LINE
  5
205
330
1F
100
AcDbEntity
  8
0
  6
Continuous
 62
     7
370
     0
100
AcDbLine
 10
160.3042803484
 20
128.1209059873
 30
0.0
 11
149.0259271885
 21
134.631760679
 31
0.0
  0
LINE
  5
206
330
1F
100
AcDbEntity
  8
0
  6
Continuous
 62
     7
370
     0
100
AcDbLine
 10
160.4810570437
 20
128.2229901762
 30
0.0
 11
160.3042803484
 21
128.1209059873
 31
0.0
  0
LINE
  5
207
330
1F
100
AcDbEntity
  8
0
  6
Continuous
 62
     7
370
     0
100
AcDbLine
 10
168.966338418
 20
123.3245415053
 30
0.0
 11
160.4810570437
 21
128.2229901762
 31
0.0
  0
LINE
  5
208
330
1F
100
AcDbEntity
  8
0
  6
Continuous
 62
     7
370
     0
100
AcDbLine
 10
169.1431151133
 20
123.0183552884
 30
0.0
 11
168.966338418
 21
123.3245415053
 31
0.0
  0
LINE
  5
209
330
1F
100
AcDbEntity
  8
0
  6
Continuous
 62
     7
370
     0
100
AcDbLine
 10
180.4214682732
 20
116.5075005966
 30
0.0
 11
169.1431151133
 21
123.0183552884
 31
0.0
  0
ARC
  5
20A
330
1F
100
AcDbEntity
  8
0
  6
Continuous
 62
     7
370
     0
100
AcDbCircle
 10
179.593358953
 20
115.2128948765
 30
0.0
 40
1.536804807572029
100
AcDbArc
 50
2.6054784857
 51
57.39452166
  0
LINE
  5
20B
330
1F
100
AcDbEntity
  8
0
  6
Continuous
 62
     7
370
     0
100
AcDbLine
 10
181.1285750544
 20
93.8240631924
 30
0.0
 11
181.1285750544
 21
115.2827557288
 31
0.0
  0
LINE
  5
20C
330
1F
100
AcDbEntity
  8
0
  6
Continuous
 62
     7
370
     0
100
AcDbLine
 10
179.9123513907
 20
93.1217239721
 30
0.0
 11
181.1285750544
 21
93.8240631924
 31
0.0
  0
LINE
  5
20D
330
1F
100
AcDbEntity
  8
0
  6
Continuous
 62
     7
370
     0
100
AcDbLine
 10
171.6886995255
 20
97.8691371424
 30
0.0
 11
179.9123513907
 21
93.1217239721
 31
0.0
  0
LINE
  5
20E
330
1F
100
AcDbEntity
  8
0
  6
Continuous
 62
     7
370
     0
100
AcDbLine
 10
171.6886995255
 20
97.8691371424
 30
0.0
 11
171.6886995255
 21
99.5361414129
 31
0.0
  0
LWPOLYLINE
  5
20F
330
1F
100
AcDbEntity
  8
0
  6
Continuous
 62
     7
370
     0
100
AcDbPolyline
 90
       25
 70
   128
 43
0.0
 10
152.4200397382
 20
123.9762215641
 10
152.3778750994
 20
123.6307241438
 10
152.2542546336
 20
123.3574540574
 10
152.0576028711
 20
123.1750342098
 10
151.8013213047
 20
123.0958962119
 10
151.5028750994
 20
123.1254331878
 10
151.1826028711
 20
123.2616322411
 10
150.8623306428
 20
123.4952116316
 10
150.5638844376
 20
123.8102533098
 10
150.3076028711
 20
124.1852877059
 10
150.1109511087
 20
124.5947568456
 10
149.9873306428
 20
125.0107560838
 10
149.9451660041
 20
125.4049357598
 10
149.9873306428
 20
125.7504331801
 10
150.1109511087
 20
126.0237032664
 10
150.3076028711
 20
126.2061231141
 10
150.5638844376
 20
126.2852611119
 10
150.8623306428
 20
126.2557241361
 10
151.1826028711
 20
126.1195250827
 10
151.5028750994
 20
125.8859456922
 10
151.8013213047
 20
125.5709040141
 10
152.0576028711
 20
125.195869618
 10
152.2542546336
 20
124.7864004782
 10
152.3778750994
 20
124.3704012401
 10
152.4200397382
 20
123.9762215641
  0
LWPOLYLINE
  5
210
330
1F
100
AcDbEntity
  8
0
  6
Continuous
 62
     7
370
     0
100
AcDbPolyline
 90
       33
 70
   128
 43
0.0
 10
166.8450180744
 20
120.5481036948
 10
166.8042574988
 20
120.0937366444
 10
166.6835421782
 20
119.7038918238
 10
166.4875111345
 20
119.3935507508
 10
166.2236977309
 20
119.1746396588
 10
165.9022401684
 20
119.0555711783
 10
165.5354918811
 20
119.0409210442
 10
165.1375467998
 20
119.131252253
 10
164.7236977309
 20
119.3230934269
 10
164.3098486619
 20
119.6090722173
 10
163.9119035806
 20
119.9781986195
 10
163.5451552933
 20
120.4162873131
 10
163.2236977309
 20
120.9065027951
 10
162.9598843272
 20
121.4300063595
 10
162.7638532835
 20
121.9666800579
 10
162.6431379629
 20
122.4958998211
 10
162.6023773873
 20
122.9973280303
 10
162.6431379629
 20
123.4516950806
 10
162.7638532835
 20
123.8415399013
 10
162.9598843272
 20
124.1518809743
 10
163.2236977309
 20
124.3707920663
 10
163.5451552933
 20
124.4898605468
 10
163.9119035806
 20
124.5045106809
 10
164.3098486619
 20
124.4141794721
 10
164.7236977309
 20
124.2223382982
 10
165.1375467998
 20
123.9363595078
 10
165.5354918811
 20
123.5672331056
 10
165.9022401684
 20
123.129144412
 10
166.2236977309
 20
122.63892893
 10
166.4875111345
 20
122.1154253656
 10
166.6835421782
 20
121.5787516672
 10
166.8042574988
 20
121.049531904
 10
166.8450180744
 20
120.5481036948
  0
LWPOLYLINE
  5
211
330
1F
100
AcDbEntity
  8
0
  6
Continuous
 62
     7
370
     0
100
AcDbPolyline
 90
       25
 70
   128
 43
0.0
 10
179.5022294577
 20
108.3420062227
 10
179.4600648189
 20
107.9965088024
 10
179.336444353
 20
107.723238716
 10
179.1397925906
 20
107.5408188683
 10
178.8835110241
 20
107.4616808705
 10
178.5850648189
 20
107.4912178464
 10
178.2647925906
 20
107.6274168997
 10
177.9445203623
 20
107.8609962902
 10
177.646074157
 20
108.1760379684
 10
177.3897925906
 20
108.5510723645
 10
177.1931408281
 20
108.9605415042
 10
177.0695203623
 20
109.3765407424
 10
177.0273557235
 20
109.7707204184
 10
177.0695203623
 20
110.1162178387
 10
177.1931408281
 20
110.389487925
 10
177.3897925906
 20
110.5719077727
 10
177.646074157
 20
110.6510457705
 10
177.9445203623
 20
110.6215087947
 10
178.2647925906
 20
110.4853097413
 10
178.5850648189
 20
110.2517303508
 10
178.8835110241
 20
109.9366886727
 10
179.1397925906
 20
109.5616542765
 10
179.336444353
 20
109.1521851368
 10
179.4600648189
 20
108.7361858987
 10
179.5022294577
 20
108.3420062227
  0
LINE
  5
212
330
1F
100
AcDbEntity
  8
0
  6
Continuous
 62
     7
370
     0
100
AcDbLine
 10
181.1285750544
 20
115.2827557288
 30
0.0
 11
191.1694913472
 21
121.0792533227
 31
0.0
  0
LINE
  5
213
330
1F
100
AcDbEntity
  8
0
  6
Continuous
 62
     7
370
     0
100
AcDbLine
 10
180.4214682732
 20
116.5075005966
 30
0.0
 11
190.4623845661
 21
122.3039981905
 31
0.0
  0
ARC
  5
214
330
1F
100
AcDbEntity
  8
0
  6
Continuous
 62
     7
370
     0
100
AcDbCircle
 10
189.6342752459
 20
121.0093924705
 30
0.0
 40
1.536804807572122
100
AcDbArc
 50
2.6054784857
 51
57.39452166
  0
LINE
  5
215
330
1F
100
AcDbEntity
  8
0
  6
Continuous
 62
     7
370
     0
100
AcDbLine
 10
181.1285750544
 20
93.8240631924
 30
0.0
 11
191.1694913472
 21
99.6205607864
 31
0.0
  0
LINE
  5
216
330
1F
100
AcDbEntity
  8
0
  6
Continuous
 62
     7
370
     0
100
AcDbLine
 10
191.1694913472
 20
99.6205607864
 30
0.0
 11
191.1694913472
 21
121.0792533227
 31
0.0
  0
LWPOLYLINE
  5
217
330
1F
100
AcDbEntity
  8
0
  6
Continuous
 62
     7
370
     0
100
AcDbPolyline
 90
       33
 70
   128
 43
0.0
 10
186.0783225227
 20
112.7101877211
 10
185.6644734538
 20
112.5183465472
 10
185.2665283725
 20
112.4280153384
 10
184.8997800851
 20
112.4426654725
 10
184.5783225227
 20
112.561733953
 10
184.3145091191
 20
112.7806450451
 10
184.1184780754
 20
113.0909861181
 10
183.9977627547
 20
113.4808309387
 10
183.9570021791
 20
113.935197989
 10
183.9977627547
 20
114.4366261983
 10
184.1184780754
 20
114.9658459614
 10
184.3145091191
 20
115.5025196598
 10
184.5783225227
 20
116.0260232242
 10
184.8997800851
 20
116.5162387063
 10
185.2665283725
 20
116.9543273998
 10
185.6644734538
 20
117.3234538021
 10
186.0783225227
 20
117.6094325924
 10
186.4921715916
 20
117.8012737664
 10
186.8901166729
 20
117.8916049751
 10
187.2568649603
 20
117.876954841
 10
187.5783225227
 20
117.7578863605
 10
187.8421359263
 20
117.5389752685
 10
188.03816697
 20
117.2286341955
 10
188.1588822907
 20
116.8387893749
 10
188.1996428663
 20
116.3844223245
 10
188.1588822907
 20
115.8829941153
 10
188.03816697
 20
115.3537743521
 10
187.8421359263
 20
114.8171006537
 10
187.5783225227
 20
114.2935970893
 10
187.2568649603
 20
113.8033816073
 10
186.8901166729
 20
113.3652929138
 10
186.4921715916
 20
112.9961665115
 10
186.0783225227
 20
112.7101877211
  0
LINE
  5
218
330
1F
100
AcDbEntity
  8
0
  6
Continuous
 62
     7
370
     0
100
AcDbLine
 10
169.1431151133
 20
123.0183552884
 30
0.0
 11
179.1840314061
 21
128.8148528823
 31
0.0
  0
LINE
  5
219
330
1F
100
AcDbEntity
  8
0
  6
Continuous
 62
     7
370
     0
100
AcDbLine
 10
190.4623845661
 20
122.3039981905
 30
0.0
 11
179.1840314061
 21
128.8148528823
 31
0.0
  0
LWPOLYLINE
  5
21A
330
1F
100
AcDbEntity
  8
0
  6
Continuous
 62
     7
370
     0
100
AcDbPolyline
 90
       23
 70
   128
 43
0.0
 10
183.9650683366
 20
114.1532725256
 10
183.9983315881
 20
113.9284306605
 10
184.1203872979
 20
113.5805807966
 10
184.3174621191
 20
113.3161175265
 10
184.5803410521
 20
113.1474068586
 10
184.8967321701
 20
113.0823375162
 10
185.2518413763
 20
113.1239520696
 10
185.6290641586
 20
113.2703046685
 10
186.0107619992
 20
113.5145520279
 10
186.3790871311
 20
113.8452734128
 10
186.7168170807
 20
114.2470046589
 10
187.0081599707
 20
114.7009612595
 10
187.2394929315
 20
115.1859167086
 10
187.399999091
 20
115.6791950283
 10
187.4821733594
 20
116.1577310726
 10
187.4821733594
 20
116.5991490281
 10
187.399999091
 20
116.9828086816
 10
187.2394929315
 20
117.2907705341
 10
187.0081599707
 20
117.5086346318
 10
186.7168170807
 20
117.6262138916
 10
186.3790871311
 20
117.6380104379
 10
186.0107619992
 20
117.5434726774
 10
185.8931636269
 20
117.4931934175
  0
LWPOLYLINE
  5
21B
330
1F
100
AcDbEntity
  8
0
  6
Continuous
 62
     7
370
     0
100
AcDbPolyline
 90
       16
 70
   128
 43
0.0
 10
178.4566786644
 20
110.3572515877
 10
178.3452109659
 20
110.3888634115
 10
178.098812309
 20
110.3861299952
 10
177.9032692277
 20
110.2732086804
 10
177.7777228412
 20
110.061152992
 10
177.7344625047
 20
109.7707204184
 10
177.7777228412
 20
109.4303405233
 10
177.9032692277
 20
109.0733320626
 10
178.098812309
 20
108.7346415117
 10
178.3452109659
 20
108.4474222616
 10
178.6183459812
 20
108.2397893336
 10
178.8914809965
 20
108.1320672855
 10
179.1378796534
 20
108.1348007017
 10
179.3334227347
 20
108.2477220166
 10
179.4589691211
 20
108.4597777049
 10
179.4872924663
 20
108.5719826822
  0
LINE
  5
21C
330
1F
100
AcDbEntity
  8
0
  6
Continuous
 62
     7
370
     0
100
AcDbLine
 10
168.966338418
 20
123.3245415053
 30
0.0
 11
179.0072547108
 21
129.1210390993
 31
0.0
  0
LINE
  5
21D
330
1F
100
AcDbEntity
  8
0
  6
Continuous
 62
     7
370
     0
100
AcDbLine
 10
179.1840314061
 20
128.8148528823
 30
0.0
 11
179.0072547108
 21
129.1210390993
 31
0.0
  0
LWPOLYLINE
  5
21E
330
1F
100
AcDbEntity
  8
0
  6
Continuous
 62
     7
370
     0
100
AcDbPolyline
 90
       30
 70
   128
 43
0.0
 10
172.2543849505
 20
128.0801187567
 10
171.8330379014
 20
127.8845982027
 10
171.3487337541
 20
127.7459378923
 10
170.8241180322
 20
127.6706214278
 10
170.2837211837
 20
127.6621705231
 10
169.7528115648
 20
127.7209803332
 10
169.2562139191
 20
127.8443009768
 10
168.8171486006
 20
128.0263661175
 10
168.4561458156
 20
128.2586625919
 10
168.1900856531
 20
128.5303284749
 10
168.0314087907
 20
128.8286609718
 10
167.987534782
 20
129.1397103865
 10
168.0605151269
 20
129.4489323942
 10
168.2469373456
 20
129.7418681175
 10
168.5380845424
 20
130.0048202075
 10
168.9203429979
 20
130.2254933167
 10
169.3758387316
 20
130.3935690158
 10
169.8832732693
 20
130.5011882719
 10
170.4189195358
 20
130.5433189283
 10
170.9577313072
 20
130.5179910022
 10
171.4745143439
 20
130.4263887993
 10
171.9451044453
 20
130.2727955368
 10
172.3474973414
 20
130.064393065
 10
172.6628775877
 20
129.8109260519
 10
172.8764983542
 20
129.5242463331
 10
172.9783709714
 20
129.2177587339
 10
172.963731989
 20
128.9057942736
 10
172.8332659094
 20
128.6029400638
 10
172.5930731816
 20
128.3233572306
 10
172.2543849505
 20
128.0801187567
  0
LINE
  5
21F
330
1F
100
AcDbEntity
  8
0
  6
Continuous
 62
     7
370
     0
100
AcDbLine
 10
160.4810570437
 20
128.2229901762
 30
0.0
 11
170.5219733366
 21
134.0194877702
 31
0.0
  0
LINE
  5
220
330
1F
100
AcDbEntity
  8
0
  6
Continuous
 62
     7
370
     0
100
AcDbLine
 10
179.0072547108
 20
129.1210390993
 30
0.0
 11
170.5219733366
 21
134.0194877702
 31
0.0
  0
LWPOLYLINE
  5
221
330
1F
100
AcDbEntity
  8
0
  6
Continuous
 62
     7
370
     0
100
AcDbPolyline
 90
       23
 70
   128
 43
0.0
 10
164.9088566266
 20
124.1060991233
 10
164.7912582544
 20
124.1563783832
 10
164.4229331224
 20
124.2509161437
 10
164.0852031729
 20
124.2391195974
 10
163.7938602828
 20
124.1215403376
 10
163.562527322
 20
123.9036762399
 10
163.4020211626
 20
123.5957143873
 10
163.3198468941
 20
123.2120547338
 10
163.3198468941
 20
122.7706367784
 10
163.4020211626
 20
122.292100734
 10
163.562527322
 20
121.7988224143
 10
163.7938602828
 20
121.3138669653
 10
164.0852031729
 20
120.8599103647
 10
164.4229331224
 20
120.4581791186
 10
164.7912582544
 20
120.1274577336
 10
165.1729560949
 20
119.8832103742
 10
165.5501788773
 20
119.7368577754
 10
165.9052880834
 20
119.695243222
 10
166.2216792015
 20
119.7603125643
 10
166.4845581345
 20
119.9290232322
 10
166.6816329557
 20
120.1934865024
 10
166.8036886654
 20
120.5413363662
 10
166.8369519169
 20
120.7661782312
  0
ARC
  5
222
330
1F
100
AcDbEntity
  8
0
  6
Continuous
 62
     7
370
     0
100
AcDbCircle
 10
170.4866179975
 20
126.7066414382
 30
0.0
 40
3.113343806455176
100
AcDbArc
 50
39.628596123
 51
140.371403877
  0
LWPOLYLINE
  5
223
330
1F
100
AcDbEntity
  8
0
  6
Continuous
 62
     7
370
     0
100
AcDbPolyline
 90
       17
 70
   128
 43
0.0
 10
171.335146135
 20
128.4473697069
 10
171.4218552355
 20
128.5222839521
 10
171.4523034225
 20
128.6106513293
 10
171.4218552355
 20
128.6990187066
 10
171.335146135
 20
128.7739329517
 10
171.2053767954
 20
128.8239890499
 10
171.0523034225
 20
128.8415664141
 10
170.8992300495
 20
128.8239890499
 10
170.76946071
 20
128.7739329517
 10
170.6827516095
 20
128.6990187066
 10
170.6523034225
 20
128.6106513293
 10
170.6827516095
 20
128.5222839521
 10
170.76946071
 20
128.4473697069
 10
170.8992300495
 20
128.3973136087
 10
171.0523034225
 20
128.3797362445
 10
171.2053767954
 20
128.3973136087
 10
171.335146135
 20
128.4473697069
  0
LINE
  5
224
330
1F
100
AcDbEntity
  8
0
  6
Continuous
 62
     7
370
     0
100
AcDbLine
 10
179.9123513907
 20
93.1217239721
 30
0.0
 11
189.9532676836
 21
98.9182215661
 31
0.0
  0
LINE
  5
225
330
1F
100
AcDbEntity
  8
0
  6
Continuous
 62
     7
370
     0
100
AcDbLine
 10
189.9532676836
 20
98.9182215661
 30
0.0
 11
191.1694913472
 21
99.6205607864
 31
0.0
  0
LINE
  5
226
330
1F
100
AcDbEntity
  8
0
  6
Continuous
 62
     7
370
     0
100
AcDbLine
 10
149.0259271885
 20
134.631760679
 30
0.0
 11
159.0668434814
 21
140.428258273
 31
0.0
  0
LINE
  5
227
330
1F
100
AcDbEntity
  8
0
  6
Continuous
 62
     7
370
     0
100
AcDbLine
 10
170.3451679078
 20
133.9174201687
 30
0.0
 11
159.0668434814
 21
140.428258273
 31
0.0
  0
LINE
  5
228
330
1F
100
AcDbEntity
  8
0
  6
Continuous
 62
     7
370
     0
100
AcDbLine
 10
170.4666926512
 20
109.5746048056
 30
0.0
 11
169.602734521
 21
109.0758523933
 31
0.0
  0
LINE
  5
229
330
1F
100
AcDbEntity
  8
0
  6
Continuous
 62
     7
370
     0
100
AcDbLine
 10
159.5090317473
 20
120.0470300889
 30
0.0
 11
157.9920772546
 21
119.1713109004
 31
0.0
  0
LINE
  5
22A
330
1F
100
AcDbEntity
  8
0
  6
Continuous
 62
     7
370
     0
100
AcDbLine
 10
159.5090696815
 20
120.04700819
 30
0.0
 11
157.7586959362
 21
119.0365389353
 31
0.0
  0
LINE
  5
22B
330
1F
100
AcDbEntity
  8
0
  6
Continuous
 62
     7
370
     0
100
AcDbLine
 10
163.1885742252
 20
117.9228754303
 30
0.0
 11
159.1399873697
 21
115.5856759873
 31
0.0
  0
LINE
  5
22C
330
1F
100
AcDbEntity
  8
0
  6
Continuous
 62
     7
370
     0
100
AcDbLine
 10
160.4402551363
 20
119.5094462692
 30
0.0
 11
157.7586959362
 21
117.9614150937
 31
0.0
  0
LWPOLYLINE
  5
22D
330
1F
100
AcDbEntity
  8
0
  6
Continuous
 62
     7
370
     0
100
AcDbPolyline
 90
        6
 70
   128
 43
0.0
 10
159.0668434814
 20
140.428258273
 10
158.9288937917
 20
140.492205331
 10
158.7962454313
 20
140.5223157339
 10
158.6739960022
 20
140.5174323558
 10
158.5668434814
 20
140.4777428623
 10
158.566884115
 20
140.4777663235
  0
LINE
  5
22E
330
1F
100
AcDbEntity
  8
0
  6
Continuous
 62
     7
370
     0
100
AcDbLine
 10
164.3001577468
 20
117.2811719223
 30
0.0
 11
159.8446609407
 21
114.7090683649
 31
0.0
  0
LINE
  5
22F
330
1F
100
AcDbEntity
  8
0
  6
Continuous
 62
     7
370
     0
100
AcDbLine
 10
169.7457649544
 20
114.1374897965
 30
0.0
 11
159.8446609407
 21
108.4217041133
 31
0.0
  0
LWPOLYLINE
  5
230
330
1F
100
AcDbEntity
  8
0
  6
Continuous
 62
     7
370
     0
100
AcDbPolyline
 90
       16
 70
   128
 43
0.0
 10
151.3744889449
 20
125.9914669291
 10
151.2630212465
 20
126.0230787529
 10
151.0166225895
 20
126.0203453366
 10
150.8210795082
 20
125.9074240218
 10
150.6955331218
 20
125.6953683334
 10
150.6522727852
 20
125.4049357598
 10
150.6955331218
 20
125.0645558647
 10
150.8210795082
 20
124.707547404
 10
151.0166225895
 20
124.3688568531
 10
151.2630212465
 20
124.081637603
 10
151.5361562617
 20
123.874004675
 10
151.809291277
 20
123.7662826269
 10
152.055689934
 20
123.7690160431
 10
152.2512330153
 20
123.881937358
 10
152.3767794017
 20
124.0939930464
 10
152.4051027469
 20
124.2061980236
  0
ARC
  5
231
330
1F
100
AcDbEntity
  8
0
  6
Continuous
 62
     7
370
     0
100
AcDbCircle
 10
168.2433358165
 20
114.1786829324
 30
0.0
 40
0.9036705197699604
100
AcDbArc
 50
300.8192501942
 51
329.4568560048
  0
LINE
  5
232
330
1F
100
AcDbEntity
  8
0
  6
Continuous
 62
     7
370
     0
100
AcDbLine
 10
167.799612229
 20
111.7072546378
 30
0.0
 11
157.7586959362
 21
105.9107570438
 31
0.0
  0
LINE
  5
233
330
1F
100
AcDbEntity
  8
0
  6
Continuous
 62
     7
370
     0
100
AcDbLine
 10
167.799612229
 20
112.8791935517
 30
0.0
 11
167.799612229
 21
111.7072546378
 31
0.0
  0
LINE
  5
234
330
1F
100
AcDbEntity
  8
0
  6
Continuous
 62
     7
370
     0
100
AcDbLine
 10
189.9674098192
 20
98.8692304444
 30
0.0
 11
191.028069991
 21
99.4817355783
 31
0.0
  0
LINE
  5
235
330
1F
100
AcDbEntity
  8
0
  6
Continuous
 62
     7
370
     0
100
AcDbLine
 10
189.9179065978
 20
98.8978080458
 30
0.0
 11
189.9674098192
 21
98.8692304444
 31
0.0
  0
ARC
  5
236
330
1F
100
AcDbEntity
  8
0
  6
Continuous
 62
     7
370
     0
100
AcDbCircle
 10
168.2433358165
 20
114.1786829324
 30
0.0
 40
0.9036705197699604
100
AcDbArc
 50
300.8192501942
 51
329.4568560048
  0
LINE
  5
237
330
1F
100
AcDbEntity
  8
0
  6
Continuous
 62
     7
370
     0
100
AcDbLine
 10
167.799612229
 20
112.8791935517
 30
0.0
 11
167.799612229
 21
111.6664275972
 31
0.0
  0
LINE
  5
238
330
1F
100
AcDbEntity
  8
0
  6
Continuous
 62
     7
370
     0
100
AcDbLine
 10
167.7642511433
 20
111.6868411175
 30
0.0
 11
167.799612229
 21
111.6664275972
 31
0.0
  0
LINE
  5
239
330
1F
100
AcDbEntity
  8
0
  6
Continuous
 62
     7
370
     0
100
AcDbLine
 10
150.3694300728
 20
138.5493983003
 30
0.0
 11
152.7979604287
 21
137.1474375674
 31
0.0
  0
LINE
  5
23A
330
1F
100
AcDbEntity
  8
0
  6
Continuous
 62
     7
370
     0
100
AcDbLine
 10
150.3694300728
 20
140.0191717617
 30
0.0
 11
150.3694300728
 21
138.5493983003
 31
0.0
  0
LINE
  5
23B
330
1F
100
AcDbEntity
  8
0
  6
Continuous
 62
     7
370
     0
100
AcDbLine
 10
150.0158766822
 20
140.6315441956
 30
0.0
 11
150.3694300728
 21
140.0191717617
 31
0.0
  0
LINE
  5
23C
330
1F
100
AcDbEntity
  8
0
  6
Continuous
 62
     7
370
     0
100
AcDbLine
 10
150.0158766822
 20
145.5307890669
 30
0.0
 11
150.0158766822
 21
140.6315441956
 31
0.0
  0
LINE
  5
23D
330
1F
100
AcDbEntity
  8
0
  6
Continuous
 62
     7
370
     0
100
AcDbLine
 10
150.7229834634
 20
145.9391258228
 30
0.0
 11
150.0158766822
 21
145.5307890669
 31
0.0
  0
LINE
  5
23E
330
1F
100
AcDbEntity
  8
0
  6
Continuous
 62
     7
370
     0
100
AcDbLine
 10
158.9961328032
 20
141.1631383687
 30
0.0
 11
150.7229834634
 21
145.9391258228
 31
0.0
  0
LINE
  5
23F
330
1F
100
AcDbEntity
  8
0
  6
Continuous
 62
     7
370
     0
100
AcDbLine
 10
159.2082648376
 20
140.7957149083
 30
0.0
 11
158.9961328032
 21
141.1631383687
 31
0.0
  0
LINE
  5
240
330
1F
100
AcDbEntity
  8
0
  6
Continuous
 62
     7
370
     0
100
AcDbLine
 10
170.168419946
 20
134.4685520417
 30
0.0
 11
159.2082648376
 21
140.7957149083
 31
0.0
  0
LINE
  5
241
330
1F
100
AcDbEntity
  8
0
  6
Continuous
 62
     7
370
     0
100
AcDbLine
 10
170.3805519804
 20
134.5910530685
 30
0.0
 11
170.168419946
 21
134.4685520417
 31
0.0
  0
LINE
  5
242
330
1F
100
AcDbEntity
  8
0
  6
Continuous
 62
     7
370
     0
100
AcDbLine
 10
179.1486760671
 20
129.5293227752
 30
0.0
 11
170.3805519804
 21
134.5910530685
 31
0.0
  0
LINE
  5
243
330
1F
100
AcDbEntity
  8
0
  6
Continuous
 62
     7
370
     0
100
AcDbLine
 10
179.3608081014
 20
129.1618993149
 30
0.0
 11
179.1486760671
 21
129.5293227752
 31
0.0
  0
LINE
  5
244
330
1F
100
AcDbEntity
  8
0
  6
Continuous
 62
     7
370
     0
100
AcDbLine
 10
190.3209632098
 20
122.8347364482
 30
0.0
 11
179.3608081014
 21
129.1618993149
 31
0.0
  0
LINE
  5
245
330
1F
100
AcDbEntity
  8
0
  6
Continuous
 62
     7
370
     0
100
AcDbLine
 10
190.5330952442
 20
122.957237475
 30
0.0
 11
190.3209632098
 21
122.8347364482
 31
0.0
  0
LINE
  5
246
330
1F
100
AcDbEntity
  8
0
  6
Continuous
 62
     7
370
     0
100
AcDbLine
 10
198.8062445841
 20
118.1812500209
 30
0.0
 11
190.5330952442
 21
122.957237475
 31
0.0
  0
LINE
  5
247
330
1F
100
AcDbEntity
  8
0
  6
Continuous
 62
     7
370
     0
100
AcDbLine
 10
199.5133513652
 20
116.9565051531
 30
0.0
 11
198.8062445841
 21
118.1812500209
 31
0.0
  0
LINE
  5
248
330
1F
100
AcDbEntity
  8
0
  6
Continuous
 62
     7
370
     0
100
AcDbLine
 10
199.5133513652
 20
110.1792164144
 30
0.0
 11
199.5133513652
 21
116.9565051531
 31
0.0
  0
LINE
  5
249
330
1F
100
AcDbEntity
  8
0
  6
Continuous
 62
     7
370
     0
100
AcDbLine
 10
191.1694913472
 20
114.9960242742
 30
0.0
 11
199.5133513652
 21
110.1792164144
 31
0.0
  0
LINE
  5
24A
330
1F
100
AcDbEntity
  8
0
  6
Continuous
 62
     7
370
     0
100
AcDbLine
 10
191.028069991
 20
99.5388934352
 30
0.0
 11
191.028069991
 21
99.4817355783
 31
0.0
  0
LINE
  5
24B
330
1F
100
AcDbEntity
  8
0
  6
Continuous
 62
     7
370
     0
100
AcDbLine
 10
199.5133513652
 20
116.9565051531
 30
0.0
 11
240.3841233178
 21
140.5506995847
 31
0.0
  0
LINE
  5
24C
330
1F
100
AcDbEntity
  8
0
  6
Continuous
 62
     7
370
     0
100
AcDbLine
 10
198.8062445841
 20
118.1812500209
 30
0.0
 11
239.6770165366
 21
141.7754444525
 31
0.0
  0
LINE
  5
24D
330
1F
100
AcDbEntity
  8
0
  6
Continuous
 62
     7
370
     0
100
AcDbLine
 10
240.3841233178
 20
140.5506995847
 30
0.0
 11
239.6770165366
 21
141.7754444525
 31
0.0
  0
LINE
  5
24E
330
1F
100
AcDbEntity
  8
0
  6
Continuous
 62
     7
370
     0
100
AcDbLine
 10
207.9279220614
 20
109.2394049154
 30
0.0
 11
207.9279220614
 21
115.0368446798
 31
0.0
  0
LINE
  5
24F
330
1F
100
AcDbEntity
  8
0
  6
Continuous
 62
     7
370
     0
100
AcDbLine
 10
199.5133513652
 20
110.1792164144
 30
0.0
 11
207.9279220614
 21
115.0368446798
 31
0.0
  0
LINE
  5
250
330
1F
100
AcDbEntity
  8
0
  6
Continuous
 62
     7
370
     0
100
AcDbLine
 10
240.3841233178
 20
133.7734108461
 30
0.0
 11
240.3841233178
 21
140.5506995847
 31
0.0
  0
LINE
  5
251
330
1F
100
AcDbEntity
  8
0
  6
Continuous
 62
     7
370
     0
100
AcDbLine
 10
231.9695526217
 20
128.9157825808
 30
0.0
 11
240.3841233178
 21
133.7734108461
 31
0.0
  0
LINE
  5
252
330
1F
100
AcDbEntity
  8
0
  6
Continuous
 62
     7
370
     0
100
AcDbLine
 10
231.9695526217
 20
123.1183428164
 30
0.0
 11
231.9695526217
 21
128.9157825808
 31
0.0
  0
LINE
  5
253
330
1F
100
AcDbEntity
  8
0
  6
Continuous
 62
     7
370
     0
100
AcDbLine
 10
207.9279220614
 20
109.2394049154
 30
0.0
 11
231.9695526217
 21
123.1183428164
 31
0.0
  0
LINE
  5
254
330
1F
100
AcDbEntity
  8
0
  6
Continuous
 62
     7
370
     0
100
AcDbLine
 10
190.5330952442
 20
122.957237475
 30
0.0
 11
231.4038671968
 21
146.5514319067
 31
0.0
  0
LINE
  5
255
330
1F
100
AcDbEntity
  8
0
  6
Continuous
 62
     7
370
     0
100
AcDbLine
 10
239.6770165366
 20
141.7754444525
 30
0.0
 11
231.4038671968
 21
146.5514319067
 31
0.0
  0
LWPOLYLINE
  5
256
330
1F
100
AcDbEntity
  8
0
  6
Continuous
 62
     7
370
     0
100
AcDbPolyline
 90
       37
 70
   128
 43
0.0
 10
233.9848069481
 20
139.836475187
 10
233.4707151205
 20
139.5874481257
 10
232.8895261482
 20
139.3937394593
 10
232.2588991642
 20
139.2612349276
 10
231.5979954501
 20
139.1939606137
 10
230.9268962309
 20
139.1939606137
 10
230.2659925169
 20
139.2612349276
 10
229.6353655328
 20
139.3937394593
 10
229.0541765606
 20
139.5874481257
 10
228.5400847329
 20
139.836475187
 10
228.10871047
 20
140.1332540819
 10
227.7731608604
 20
140.468767334
 10
227.5436314093
 20
140.8328205428
 10
227.4270962529
 20
141.2143521358
 10
227.4270962529
 20
141.6017694686
 10
227.5436314093
 20
141.9833010616
 10
227.7731608604
 20
142.3473542704
 10
228.10871047
 20
142.6828675225
 10
228.5400847329
 20
142.9796464175
 10
229.0541765606
 20
143.2286734788
 10
229.6353655328
 20
143.4223821452
 10
230.2659925169
 20
143.5548866769
 10
230.9268962309
 20
143.6221609907
 10
231.5979954501
 20
143.6221609907
 10
232.2588991642
 20
143.5548866769
 10
232.8895261482
 20
143.4223821452
 10
233.4707151205
 20
143.2286734788
 10
233.9848069481
 20
142.9796464175
 10
234.416181211
 20
142.6828675225
 10
234.7517308206
 20
142.3473542704
 10
234.9812602717
 20
141.9833010616
 10
235.0977954282
 20
141.6017694686
 10
235.0977954282
 20
141.2143521358
 10
234.9812602717
 20
140.8328205428
 10
234.7517308206
 20
140.468767334
 10
234.416181211
 20
140.1332540819
 10
233.9848069481
 20
139.836475187
  0
LWPOLYLINE
  5
257
330
1F
100
AcDbEntity
  8
0
  6
Continuous
 62
     7
370
     0
100
AcDbPolyline
 90
       37
 70
   128
 43
0.0
 10
202.1650017947
 20
121.467292671
 10
201.6509099671
 20
121.2182656096
 10
201.0697209948
 20
121.0245569432
 10
200.4390940108
 20
120.8920524115
 10
199.7781902967
 20
120.8247780977
 10
199.1070910775
 20
120.8247780977
 10
198.4461873635
 20
120.8920524115
 10
197.8155603794
 20
121.0245569432
 10
197.2343714072
 20
121.2182656096
 10
196.7202795796
 20
121.467292671
 10
196.2889053166
 20
121.7640715659
 10
195.953355707
 20
122.099584818
 10
195.7238262559
 20
122.4636380268
 10
195.6072910995
 20
122.8451696198
 10
195.6072910995
 20
123.2325869526
 10
195.7238262559
 20
123.6141185456
 10
195.953355707
 20
123.9781717544
 10
196.2889053166
 20
124.3136850065
 10
196.7202795796
 20
124.6104639015
 10
197.2343714072
 20
124.8594909628
 10
197.8155603794
 20
125.0531996292
 10
198.4461873635
 20
125.1857041609
 10
199.1070910775
 20
125.2529784747
 10
199.7781902967
 20
125.2529784747
 10
200.4390940108
 20
125.1857041609
 10
201.0697209948
 20
125.0531996292
 10
201.6509099671
 20
124.8594909628
 10
202.1650017947
 20
124.6104639015
 10
202.5963760576
 20
124.3136850065
 10
202.9319256672
 20
123.9781717544
 10
203.1614551183
 20
123.6141185456
 10
203.2779902748
 20
123.2325869526
 10
203.2779902748
 20
122.8451696198
 10
203.1614551183
 20
122.4636380268
 10
202.9319256672
 20
122.099584818
 10
202.5963760576
 20
121.7640715659
 10
202.1650017947
 20
121.467292671
  0
LWPOLYLINE
  5
258
330
1F
100
AcDbEntity
  8
0
  6
Continuous
 62
     7
370
     0
100
AcDbPolyline
 90
       18
 70
   128
 43
0.0
 10
201.8114484041
 20
123.9980914676
 10
201.3203411546
 20
124.2321772282
 10
200.761368918
 20
124.4083780998
 10
200.1547344071
 20
124.5203257237
 10
199.5223629739
 20
124.5639740211
 10
198.8871101695
 20
124.5377454289
 10
198.2719356855
 20
124.4425879166
 10
197.6990735304
 20
124.2819407248
 10
197.1892284352
 20
124.0616100614
 10
196.76082753
 20
123.7895592508
 10
196.4293543397
 20
123.4756209181
 10
196.2067891691
 20
123.1311416125
 10
196.1011761032
 20
122.7685717137
 10
196.1163322735
 20
122.4010154425
 10
196.2517098964
 20
122.0417572402
 10
196.5024160721
 20
121.7037816342
 10
196.859389626
 20
121.3993039436
 10
196.9089545614
 20
121.3654473033
  0
LWPOLYLINE
  5
259
330
1F
100
AcDbEntity
  8
0
  6
Continuous
 62
     7
370
     0
100
AcDbPolyline
 90
        9
 70
   128
 43
0.0
 10
201.9763268128
 20
121.3654473033
 10
202.3031430154
 20
121.6240679855
 10
202.5814222659
 20
121.9547742683
 10
202.7462577721
 20
122.3099069388
 10
202.7916919493
 20
122.6766305768
 10
202.7160826881
 20
123.0416908347
 10
202.5221627041
 20
123.3918934835
 10
202.2169407708
 20
123.7145812871
 10
201.8114484041
 20
123.9980914676
  0
LINE
  5
25A
330
1F
100
AcDbEntity
  8
0
  6
Continuous
 62
     7
370
     0
100
AcDbLine
 10
179.3608081014
 20
129.1618993149
 30
0.0
 11
220.231580054
 21
152.7560937465
 31
0.0
  0
LINE
  5
25B
330
1F
100
AcDbEntity
  8
0
  6
Continuous
 62
     7
370
     0
100
AcDbLine
 10
231.1917006822
 20
146.4289507849
 30
0.0
 11
220.231580054
 21
152.7560937465
 31
0.0
  0
LINE
  5
25C
330
1F
100
AcDbEntity
  8
0
  6
Continuous
 62
     7
370
     0
100
AcDbLine
 10
189.9674098192
 20
98.8692304444
 30
0.0
 11
230.8381817718
 21
122.4634248761
 31
0.0
  0
LINE
  5
25D
330
1F
100
AcDbEntity
  8
0
  6
Continuous
 62
     7
370
     0
100
AcDbLine
 10
195.5535533906
 20
102.0942415362
 30
0.0
 11
191.028069991
 21
99.4817355783
 31
0.0
  0
ELLIPSE
  5
25E
330
1F
100
AcDbEntity
  8
0
  6
Continuous
 62
     7
370
     0
100
AcDbEllipse
 10
199.4426406871
 20
104.340093694
 30
0.0
 11
5.499999996619636
 21
3.175598517617559
 31
0.0
210
0.0
220
0.0
230
1.0
 40
0.0000703729
 41
3.926950185159581
 42
5.49774651174693
  0
LINE
  5
25F
330
1F
100
AcDbEntity
  8
0
  6
Continuous
 62
     7
370
     0
100
AcDbLine
 10
207.9279220614
 20
109.2394049154
 30
0.0
 11
203.3317279836
 21
106.5852160015
 31
0.0
  0
LINE
  5
260
330
1F
100
AcDbEntity
  8
0
  6
Continuous
 62
     7
370
     0
100
AcDbLine
 10
227.373358544
 20
120.4641539025
 30
0.0
 11
231.9695526217
 21
123.1183428164
 31
0.0
  0
ELLIPSE
  5
261
330
1F
100
AcDbEntity
  8
0
  6
Continuous
 62
     7
370
     0
100
AcDbEllipse
 10
231.2624458405
 20
122.70927621
 30
0.0
 11
5.499999996619636
 21
3.175598517617559
 31
0.0
210
0.0
220
0.0
230
1.0
 40
0.0000703729
 41
2.356153858060077
 42
3.926950185191257
  0
LINE
  5
262
330
1F
100
AcDbEntity
  8
0
  6
Continuous
 62
     7
370
     0
100
AcDbLine
 10
231.8988419436
 20
123.07593001
 30
0.0
 11
227.373358544
 21
120.4634240522
 31
0.0
  0
LINE
  5
263
330
1F
100
AcDbEntity
  8
0
  6
Continuous
 62
     7
370
     0
100
AcDbLine
 10
230.8381817718
 20
122.4634248761
 30
0.0
 11
231.8988419436
 21
123.07593001
 31
0.0
  0
LINE
  5
264
330
1F
100
AcDbEntity
  8
0
  6
Continuous
 62
     7
370
     0
100
AcDbLine
 10
179.1486760671
 20
129.5293227752
 30
0.0
 11
220.0194480196
 21
153.1235172069
 31
0.0
  0
LINE
  5
265
330
1F
100
AcDbEntity
  8
0
  6
Continuous
 62
     7
370
     0
100
AcDbLine
 10
220.231580054
 20
152.7560937465
 30
0.0
 11
220.0194480196
 21
153.1235172069
 31
0.0
  0
LINE
  5
266
330
1F
100
AcDbEntity
  8
0
  6
Continuous
 62
     7
370
     0
100
AcDbLine
 10
170.3805519804
 20
134.5910530685
 30
0.0
 11
211.2513239329
 21
158.1852475002
 31
0.0
  0
LINE
  5
267
330
1F
100
AcDbEntity
  8
0
  6
Continuous
 62
     7
370
     0
100
AcDbLine
 10
220.0194480196
 20
153.1235172069
 30
0.0
 11
211.2513239329
 21
158.1852475002
 31
0.0
  0
LWPOLYLINE
  5
268
330
1F
100
AcDbEntity
  8
0
  6
Continuous
 62
     7
370
     0
100
AcDbPolyline
 90
       37
 70
   128
 43
0.0
 10
212.0644967313
 20
153.5929518712
 10
212.4958709942
 20
153.2961729762
 10
212.8314206038
 20
152.9606597241
 10
213.0609500549
 20
152.5966065153
 10
213.1774852114
 20
152.2150749223
 10
213.1774852114
 20
151.8276575895
 10
213.0609500549
 20
151.4461259965
 10
212.8314206038
 20
151.0820727877
 10
212.4958709942
 20
150.7465595356
 10
212.0644967313
 20
150.4497806407
 10
211.5504049037
 20
150.2007535794
 10
210.9692159314
 20
150.0070449129
 10
210.3385889474
 20
149.8745403813
 10
209.6776852333
 20
149.8072660674
 10
209.0065860142
 20
149.8072660674
 10
208.3456823001
 20
149.8745403813
 10
207.715055316
 20
150.0070449129
 10
207.1338663438
 20
150.2007535794
 10
206.6197745162
 20
150.4497806407
 10
206.1884002532
 20
150.7465595356
 10
205.8528506436
 20
151.0820727877
 10
205.6233211925
 20
151.4461259965
 10
205.5067860361
 20
151.8276575895
 10
205.5067860361
 20
152.2150749223
 10
205.6233211925
 20
152.5966065153
 10
205.8528506436
 20
152.9606597241
 10
206.1884002532
 20
153.2961729762
 10
206.6197745162
 20
153.5929518712
 10
207.1338663438
 20
153.8419789325
 10
207.715055316
 20
154.0356875989
 10
208.3456823001
 20
154.1681921306
 10
209.0065860142
 20
154.2354664444
 10
209.6776852333
 20
154.2354664444
 10
210.3385889474
 20
154.1681921306
 10
210.9692159314
 20
154.0356875989
 10
211.5504049037
 20
153.8419789325
 10
212.0644967313
 20
153.5929518712
  0
LWPOLYLINE
  5
269
330
1F
100
AcDbEntity
  8
0
  6
Continuous
 62
     7
370
     0
100
AcDbPolyline
 90
       37
 70
   128
 43
0.0
 10
183.7802254838
 20
137.2647896347
 10
184.2115997468
 20
136.9680107398
 10
184.5471493564
 20
136.6324974877
 10
184.7766788075
 20
136.2684442789
 10
184.8932139639
 20
135.8869126859
 10
184.8932139639
 20
135.4994953531
 10
184.7766788075
 20
135.1179637601
 10
184.5471493564
 20
134.7539105513
 10
184.2115997468
 20
134.4183972992
 10
183.7802254838
 20
134.1216184042
 10
183.2661336562
 20
133.8725913429
 10
182.684944684
 20
133.6788826765
 10
182.0543176999
 20
133.5463781448
 10
181.3934139858
 20
133.479103831
 10
180.7223147667
 20
133.479103831
 10
180.0614110526
 20
133.5463781448
 10
179.4307840686
 20
133.6788826765
 10
178.8495950963
 20
133.8725913429
 10
178.3355032687
 20
134.1216184042
 10
177.9041290058
 20
134.4183972992
 10
177.5685793962
 20
134.7539105513
 10
177.3390499451
 20
135.1179637601
 10
177.2225147886
 20
135.4994953531
 10
177.2225147886
 20
135.8869126859
 10
177.3390499451
 20
136.2684442789
 10
177.5685793962
 20
136.6324974877
 10
177.9041290058
 20
136.9680107398
 10
178.3355032687
 20
137.2647896347
 10
178.8495950963
 20
137.513816696
 10
179.4307840686
 20
137.7075253624
 10
180.0614110526
 20
137.8400298941
 10
180.7223147667
 20
137.907304208
 10
181.3934139858
 20
137.907304208
 10
182.0543176999
 20
137.8400298941
 10
182.684944684
 20
137.7075253624
 10
183.2661336562
 20
137.513816696
 10
183.7802254838
 20
137.2647896347
  0
LWPOLYLINE
  5
26A
330
1F
100
AcDbEntity
  8
0
  6
Continuous
 62
     7
370
     0
100
AcDbPolyline
 90
       18
 70
   128
 43
0.0
 10
183.4266720932
 20
136.6524172008
 10
182.9355648438
 20
136.8865029615
 10
182.3765926071
 20
137.062703833
 10
181.7699580963
 20
137.1746514569
 10
181.137586663
 20
137.2182997543
 10
180.5023338587
 20
137.1920711621
 10
179.8871593746
 20
137.0969136499
 10
179.3142972196
 20
136.936266458
 10
178.8044521244
 20
136.7159357947
 10
178.3760512192
 20
136.4438849841
 10
178.0445780289
 20
136.1299466513
 10
177.8220128582
 20
135.7854673457
 10
177.7163997923
 20
135.4228974469
 10
177.7315559626
 20
135.0553411757
 10
177.8669335856
 20
134.6960829734
 10
178.1176397612
 20
134.3581073675
 10
178.4746133151
 20
134.0536296769
 10
178.5241782506
 20
134.0197730365
  0
LWPOLYLINE
  5
26B
330
1F
100
AcDbEntity
  8
0
  6
Continuous
 62
     7
370
     0
100
AcDbPolyline
 90
        9
 70
   128
 43
0.0
 10
183.591550502
 20
134.0197730365
 10
183.9183667045
 20
134.2783937188
 10
184.196645955
 20
134.6091000016
 10
184.3614814612
 20
134.964232672
 10
184.4069156385
 20
135.3309563101
 10
184.3313063773
 20
135.6960165679
 10
184.1373863933
 20
136.0462192168
 10
183.83216446
 20
136.3689070204
 10
183.4266720932
 20
136.6524172008
  0
LINE
  5
26C
330
1F
100
AcDbEntity
  8
0
  6
Continuous
 62
     7
370
     0
100
AcDbLine
 10
159.2082648376
 20
140.7957149083
 30
0.0
 11
200.0790367902
 21
164.38990934
 31
0.0
  0
LINE
  5
26D
330
1F
100
AcDbEntity
  8
0
  6
Continuous
 62
     7
370
     0
100
AcDbLine
 10
211.0391574184
 20
158.0627663784
 30
0.0
 11
200.0790367902
 21
164.38990934
 31
0.0
  0
LWPOLYLINE
  5
26E
330
1F
100
AcDbEntity
  8
0
  6
Continuous
 62
     7
370
     0
100
AcDbPolyline
 90
       18
 70
   128
 43
0.0
 10
233.6312535575
 20
142.3672739836
 10
233.140146308
 20
142.6013597442
 10
232.5811740714
 20
142.7775606158
 10
231.9745395605
 20
142.8895082397
 10
231.3421681273
 20
142.9331565371
 10
230.7069153229
 20
142.9069279449
 10
230.0917408389
 20
142.8117704326
 10
229.5188786838
 20
142.6511232408
 10
229.0090335886
 20
142.4307925774
 10
228.5806326834
 20
142.1587417668
 10
228.2491594931
 20
141.8448034341
 10
228.0265943224
 20
141.5003241285
 10
227.9209812566
 20
141.1377542297
 10
227.9361374269
 20
140.7701979585
 10
228.0715150498
 20
140.4109397562
 10
228.3222212255
 20
140.0729641502
 10
228.6791947794
 20
139.7684864596
 10
228.7287597149
 20
139.7346298192
  0
LWPOLYLINE
  5
26F
330
1F
100
AcDbEntity
  8
0
  6
Continuous
 62
     7
370
     0
100
AcDbPolyline
 90
        9
 70
   128
 43
0.0
 10
233.7961319662
 20
139.7346298192
 10
234.1229481688
 20
139.9932505015
 10
234.4012274193
 20
140.3239567843
 10
234.5660629255
 20
140.6790894548
 10
234.6114971027
 20
141.0458130928
 10
234.5358878415
 20
141.4108733507
 10
234.3419678575
 20
141.7610759995
 10
234.0367459242
 20
142.0837638031
 10
233.6312535575
 20
142.3672739836
  0
LINE
  5
270
330
1F
100
AcDbEntity
  8
0
  6
Continuous
 62
     7
370
     0
100
AcDbLine
 10
158.9961328032
 20
141.1631383687
 30
0.0
 11
199.8669047558
 21
164.7573328004
 31
0.0
  0
LINE
  5
271
330
1F
100
AcDbEntity
  8
0
  6
Continuous
 62
     7
370
     0
100
AcDbLine
 10
200.0790367902
 20
164.38990934
 30
0.0
 11
199.8669047558
 21
164.7573328004
 31
0.0
  0
LINE
  5
272
330
1F
100
AcDbEntity
  8
0
  6
Continuous
 62
     7
370
     0
100
AcDbLine
 10
150.7229834634
 20
145.9391258228
 30
0.0
 11
191.5937554159
 21
169.5333202545
 31
0.0
  0
LINE
  5
273
330
1F
100
AcDbEntity
  8
0
  6
Continuous
 62
     7
370
     0
100
AcDbLine
 10
199.8669047558
 20
164.7573328004
 30
0.0
 11
191.5937554159
 21
169.5333202545
 31
0.0
  0
LWPOLYLINE
  5
274
330
1F
100
AcDbEntity
  8
0
  6
Continuous
 62
     7
370
     0
100
AcDbPolyline
 90
       37
 70
   128
 43
0.0
 10
193.6797204204
 20
163.1041063739
 10
193.1656285928
 20
162.8550793126
 10
192.5844396206
 20
162.6613706462
 10
191.9538126365
 20
162.5288661145
 10
191.2929089225
 20
162.4615918007
 10
190.6218097033
 20
162.4615918007
 10
189.9609059892
 20
162.5288661145
 10
189.3302790052
 20
162.6613706462
 10
188.7490900329
 20
162.8550793126
 10
188.2349982053
 20
163.1041063739
 10
187.8036239424
 20
163.4008852689
 10
187.4680743328
 20
163.736398521
 10
187.2385448817
 20
164.1004517298
 10
187.1220097252
 20
164.4819833228
 10
187.1220097252
 20
164.8694006556
 10
187.2385448817
 20
165.2509322486
 10
187.4680743328
 20
165.6149854574
 10
187.8036239424
 20
165.9504987095
 10
188.2349982053
 20
166.2472776044
 10
188.7490900329
 20
166.4963046657
 10
189.3302790052
 20
166.6900133321
 10
189.9609059892
 20
166.8225178638
 10
190.6218097033
 20
166.8897921777
 10
191.2929089225
 20
166.8897921777
 10
191.9538126365
 20
166.8225178638
 10
192.5844396206
 20
166.6900133321
 10
193.1656285928
 20
166.4963046657
 10
193.6797204204
 20
166.2472776044
 10
194.1110946834
 20
165.9504987095
 10
194.446644293
 20
165.6149854574
 10
194.6761737441
 20
165.2509322486
 10
194.7927089005
 20
164.8694006556
 10
194.7927089005
 20
164.4819833228
 10
194.6761737441
 20
164.1004517298
 10
194.446644293
 20
163.736398521
 10
194.1110946834
 20
163.4008852689
 10
193.6797204204
 20
163.1041063739
  0
LWPOLYLINE
  5
275
330
1F
100
AcDbEntity
  8
0
  6
Continuous
 62
     7
370
     0
100
AcDbPolyline
 90
       37
 70
   128
 43
0.0
 10
161.8599152671
 20
144.7349238579
 10
161.3458234394
 20
144.4858967966
 10
160.7646344672
 20
144.2921881302
 10
160.1340074831
 20
144.1596835985
 10
159.4731037691
 20
144.0924092847
 10
158.8020045499
 20
144.0924092847
 10
158.1411008358
 20
144.1596835985
 10
157.5104738518
 20
144.2921881302
 10
156.9292848795
 20
144.4858967966
 10
156.4151930519
 20
144.7349238579
 10
155.983818789
 20
145.0317027529
 10
155.6482691794
 20
145.3672160049
 10
155.4187397283
 20
145.7312692138
 10
155.3022045718
 20
146.1128008068
 10
155.3022045718
 20
146.5002181396
 10
155.4187397283
 20
146.8817497326
 10
155.6482691794
 20
147.2458029414
 10
155.983818789
 20
147.5813161935
 10
156.4151930519
 20
147.8780950884
 10
156.9292848795
 20
148.1271221497
 10
157.5104738518
 20
148.3208308161
 10
158.1411008358
 20
148.4533353478
 10
158.8020045499
 20
148.5206096617
 10
159.4731037691
 20
148.5206096617
 10
160.1340074831
 20
148.4533353478
 10
160.7646344672
 20
148.3208308161
 10
161.3458234394
 20
148.1271221497
 10
161.8599152671
 20
147.8780950884
 10
162.29128953
 20
147.5813161935
 10
162.6268391396
 20
147.2458029414
 10
162.8563685907
 20
146.8817497326
 10
162.9729037471
 20
146.5002181396
 10
162.9729037471
 20
146.1128008068
 10
162.8563685907
 20
145.7312692138
 10
162.6268391396
 20
145.3672160049
 10
162.29128953
 20
145.0317027529
 10
161.8599152671
 20
144.7349238579
  0
LWPOLYLINE
  5
276
330
1F
100
AcDbEntity
  8
0
  6
Continuous
 62
     7
370
     0
100
AcDbPolyline
 90
       18
 70
   128
 43
0.0
 10
161.5063618765
 20
147.2657226545
 10
161.015254627
 20
147.4998084152
 10
160.4562823903
 20
147.6760092867
 10
159.8496478795
 20
147.7879569106
 10
159.2172764463
 20
147.831605208
 10
158.5820236419
 20
147.8053766158
 10
157.9668491578
 20
147.7102191035
 10
157.3939870028
 20
147.5495719117
 10
156.8841419076
 20
147.3292412484
 10
156.4557410024
 20
147.0571904378
 10
156.1242678121
 20
146.743252105
 10
155.9017026414
 20
146.3987727994
 10
155.7960895755
 20
146.0362029006
 10
155.8112457458
 20
145.6686466294
 10
155.9466233688
 20
145.3093884271
 10
156.1973295444
 20
144.9714128212
 10
156.5543030983
 20
144.6669351306
 10
156.6038680345
 20
144.6330784897
  0
LWPOLYLINE
  5
277
330
1F
100
AcDbEntity
  8
0
  6
Continuous
 62
     7
370
     0
100
AcDbPolyline
 90
        9
 70
   128
 43
0.0
 10
161.6712402846
 20
144.6330784898
 10
161.9980564878
 20
144.8916991725
 10
162.2763357382
 20
145.2224054553
 10
162.4411712444
 20
145.5775381257
 10
162.4866054217
 20
145.9442617638
 10
162.4109961605
 20
146.3093220216
 10
162.2170761765
 20
146.6595246705
 10
161.9118542432
 20
146.9822124741
 10
161.5063618765
 20
147.2657226545
  0
LINE
  5
278
330
1F
100
AcDbEntity
  8
0
  6
Continuous
 62
     7
370
     0
100
AcDbLine
 10
170.9129231295
 20
113.463703724
 30
0.0
 11
167.799612229
 21
111.6664275972
 31
0.0
  0
LINE
  5
279
330
1F
100
AcDbEntity
  8
0
  6
Continuous
 62
     7
370
     0
100
AcDbLine
 10
231.8988419436
 20
123.0775091408
 30
0.0
 11
231.8988419436
 21
123.07593001
 31
0.0
  0
LWPOLYLINE
  5
27A
330
1F
100
AcDbEntity
  8
0
  6
Continuous
 62
     7
370
     0
100
AcDbPolyline
 90
       18
 70
   128
 43
0.0
 10
211.7109433407
 20
152.9805794373
 10
211.2198360912
 20
153.2146651979
 10
210.6608638546
 20
153.3908660695
 10
210.0542293437
 20
153.5028136934
 10
209.4218579105
 20
153.5464619908
 10
208.7866051061
 20
153.5202333986
 10
208.1714306221
 20
153.4250758863
 10
207.598568467
 20
153.2644286945
 10
207.0887233718
 20
153.0440980311
 10
206.6603224666
 20
152.7720472205
 10
206.3288492763
 20
152.4581088878
 10
206.1062841057
 20
152.1136295822
 10
206.0006710398
 20
151.7510596834
 10
206.0158272101
 20
151.3835034122
 10
206.151204833
 20
151.0242452099
 10
206.4019110087
 20
150.6862696039
 10
206.7588845626
 20
150.3817919133
 10
206.808449498
 20
150.347935273
  0
LWPOLYLINE
  5
27B
330
1F
100
AcDbEntity
  8
0
  6
Continuous
 62
     7
370
     0
100
AcDbPolyline
 90
        9
 70
   128
 43
0.0
 10
211.8758217495
 20
150.347935273
 10
212.202637952
 20
150.6065559552
 10
212.4809172025
 20
150.937262238
 10
212.6457527087
 20
151.2923949085
 10
212.691186886
 20
151.6591185465
 10
212.6155776247
 20
152.0241788044
 10
212.4216576407
 20
152.3743814532
 10
212.1164357074
 20
152.6970692568
 10
211.7109433407
 20
152.9805794373
  0
LWPOLYLINE
  5
27C
330
1F
100
AcDbEntity
  8
0
  6
Continuous
 62
     7
370
     0
100
AcDbPolyline
 90
       18
 70
   128
 43
0.0
 10
193.3261670299
 20
165.6349051705
 10
192.8350597804
 20
165.8689909312
 10
192.2760875437
 20
166.0451918027
 10
191.6694530329
 20
166.1571394266
 10
191.0370815997
 20
166.2007877241
 10
190.4018287953
 20
166.1745591318
 10
189.7866543112
 20
166.0794016196
 10
189.2137921562
 20
165.9187544277
 10
188.703947061
 20
165.6984237644
 10
188.2755461558
 20
165.4263729538
 10
187.9440729655
 20
165.112434621
 10
187.7215077948
 20
164.7679553154
 10
187.6158947289
 20
164.4053854166
 10
187.6310508992
 20
164.0378291454
 10
187.7664285222
 20
163.6785709431
 10
188.0171346978
 20
163.3405953372
 10
188.3741082517
 20
163.0361176466
 10
188.4236731872
 20
163.0022610062
  0
LWPOLYLINE
  5
27D
330
1F
100
AcDbEntity
  8
0
  6
Continuous
 62
     7
370
     0
100
AcDbPolyline
 90
        9
 70
   128
 43
0.0
 10
193.4910454386
 20
163.0022610062
 10
193.8178616412
 20
163.2608816885
 10
194.0961408916
 20
163.5915879713
 10
194.2609763978
 20
163.9467206417
 10
194.3064105751
 20
164.3134442798
 10
194.2308013139
 20
164.6785045376
 10
194.0368813299
 20
165.0287071865
 10
193.7316593966
 20
165.3513949901
 10
193.3261670299
 20
165.6349051705
  0
LINE
  5
27E
330
1F
100
AcDbEntity
  8
0
  6
Continuous
 62
     7
370
     0
100
AcDbLine
 10
241.3740728115
 20
151.6946902161
 30
0.0
 11
231.9342949766
 21
146.2452224672
 31
0.0
  0
LINE
  5
27F
330
1F
100
AcDbEntity
  8
0
  6
Continuous
 62
     7
370
     0
100
AcDbLine
 10
242.0811795927
 20
150.4699453483
 30
0.0
 11
233.3486234731
 21
145.4287480054
 31
0.0
  0
LINE
  5
280
330
1F
100
AcDbEntity
  8
0
  6
Continuous
 62
     7
370
     0
100
AcDbLine
 10
209.9785317268
 20
169.8189502986
 30
0.0
 11
200.3265873773
 21
164.2470014279
 31
0.0
  0
LINE
  5
281
330
1F
100
AcDbEntity
  8
0
  6
Continuous
 62
     7
370
     0
100
AcDbLine
 10
203.3317279836
 20
106.5852160015
 30
0.0
 11
203.3317279836
 21
112.3835183163
 31
0.0
  0
LINE
  5
282
330
1F
100
AcDbEntity
  8
0
  6
Continuous
 62
     7
370
     0
100
AcDbLine
 10
195.5535533906
 20
102.0942415362
 30
0.0
 11
195.5535533906
 21
112.4651591275
 31
0.0
  0
LINE
  5
283
330
1F
100
AcDbEntity
  8
0
  6
Continuous
 62
     7
370
     0
100
AcDbLine
 10
227.373358544
 20
120.4634240522
 30
0.0
 11
227.373358544
 21
120.4641539025
 31
0.0
  0
LWPOLYLINE
  5
284
330
1F
100
AcDbEntity
  8
0
  6
Continuous
 62
     7
370
     0
100
AcDbPolyline
 90
       17
 70
   128
 43
0.0
 10
212.1705627485
 20
147.9382851367
 10
210.8728693532
 20
148.4388461193
 10
209.3421356237
 20
148.6146197614
 10
207.8114018943
 20
148.4388461193
 10
206.513708499
 20
147.9382851367
 10
205.6466174937
 20
147.1891426856
 10
205.3421356237
 20
146.3054689131
 10
205.6466174937
 20
145.4217951406
 10
206.513708499
 20
144.6726526894
 10
207.8114018943
 20
144.1720917068
 10
209.3421356237
 20
143.9963180647
 10
210.8728693532
 20
144.1720917068
 10
212.1705627485
 20
144.6726526894
 10
213.0376537538
 20
145.4217951406
 10
213.3421356237
 20
146.3054689131
 10
213.0376537538
 20
147.1891426856
 10
212.1705627485
 20
147.9382851367
  0
LWPOLYLINE
  5
285
330
1F
100
AcDbEntity
  8
0
  6
Continuous
 62
     7
370
     0
100
AcDbPolyline
 90
       17
 70
   128
 43
0.0
 10
183.886291501
 20
131.6101229003
 10
182.5885981057
 20
132.1106838829
 10
181.0578643763
 20
132.2864575249
 10
179.5271306468
 20
132.1106838829
 10
178.2294372515
 20
131.6101229003
 10
177.3623462462
 20
130.8609804491
 10
177.0578643763
 20
129.9773066766
 10
177.3623462462
 20
129.0936329041
 10
178.2294372515
 20
128.344490453
 10
179.5271306468
 20
127.8439294703
 10
181.0578643763
 20
127.6681558283
 10
182.5885981057
 20
127.8439294703
 10
183.886291501
 20
128.344490453
 10
184.7533825063
 20
129.0936329041
 10
185.0578643763
 20
129.9773066766
 10
184.7533825063
 20
130.8609804491
 10
183.886291501
 20
131.6101229003
  0
LWPOLYLINE
  5
286
330
1F
100
AcDbEntity
  8
0
  6
Continuous
 62
     7
370
     0
100
AcDbPolyline
 90
       17
 70
   128
 43
0.0
 10
156.3091270347
 20
144.2654228436
 10
155.4420360294
 20
145.0145652947
 10
155.1375541595
 20
145.8982390672
 10
155.4420360294
 20
146.7819128397
 10
156.3091270347
 20
147.5310552909
 10
157.60682043
 20
148.0316162735
 10
159.1375541595
 20
148.2073899156
 10
160.6682878889
 20
148.0316162735
 10
161.9659812842
 20
147.5310552909
 10
162.8330722895
 20
146.7819128397
 10
163.1375541595
 20
145.8982390672
 10
162.8330722895
 20
145.0145652947
 10
161.9659812842
 20
144.2654228436
 10
160.6682878889
 20
143.764861861
 10
159.1375541595
 20
143.5890882189
 10
157.60682043
 20
143.764861861
 10
156.3091270347
 20
144.2654228436
  0
LWPOLYLINE
  5
287
330
1F
100
AcDbEntity
  8
0
  6
Continuous
 62
     7
370
     0
100
AcDbPolyline
 90
       17
 70
   128
 43
0.0
 10
196.6142135624
 20
120.9977916566
 10
195.7471225571
 20
121.7469341078
 10
195.4426406871
 20
122.6306078803
 10
195.7471225571
 20
123.5142816528
 10
196.6142135624
 20
124.2634241039
 10
197.9119069577
 20
124.7639850865
 10
199.4426406871
 20
124.9397587286
 10
200.9733744166
 20
124.7639850865
 10
202.2710678119
 20
124.2634241039
 10
203.1381588172
 20
123.5142816528
 10
203.4426406871
 20
122.6306078803
 10
203.1381588172
 20
121.7469341078
 10
202.2710678119
 20
120.9977916566
 10
200.9733744166
 20
120.497230674
 10
199.4426406871
 20
120.3214570319
 10
197.9119069577
 20
120.497230674
 10
196.6142135624
 20
120.9977916566
  0
LWPOLYLINE
  5
288
330
1F
100
AcDbEntity
  8
0
  6
Continuous
 62
     7
370
     0
100
AcDbPolyline
 90
       17
 70
   128
 43
0.0
 10
228.4340187158
 20
139.3669741726
 10
227.5669277105
 20
140.1161166238
 10
227.2624458405
 20
140.9997903963
 10
227.5669277105
 20
141.8834641688
 10
228.4340187158
 20
142.6326066199
 10
229.7317121111
 20
143.1331676025
 10
231.2624458405
 20
143.3089412446
 10
232.79317957
 20
143.1331676025
 10
234.0908729653
 20
142.6326066199
 10
234.9579639706
 20
141.8834641688
 10
235.2624458405
 20
140.9997903963
 10
234.9579639706
 20
140.1161166238
 10
234.0908729653
 20
139.3669741726
 10
232.79317957
 20
138.86641319
 10
231.2624458405
 20
138.6906395479
 10
229.7317121111
 20
138.86641319
 10
228.4340187158
 20
139.3669741726
  0
LWPOLYLINE
  5
289
330
1F
100
AcDbEntity
  8
0
  6
Continuous
 62
     7
370
     0
100
AcDbPolyline
 90
       17
 70
   128
 43
0.0
 10
188.1289321881
 20
162.6346053596
 10
187.2618411828
 20
163.3837478107
 10
186.9573593129
 20
164.2674215832
 10
187.2618411828
 20
165.1510953557
 10
188.1289321881
 20
165.9002378069
 10
189.4266255834
 20
166.4007987895
 10
190.9573593129
 20
166.5765724316
 10
192.4880930423
 20
166.4007987895
 10
193.7857864376
 20
165.9002378069
 10
194.6528774429
 20
165.1510953557
 10
194.9573593129
 20
164.2674215832
 10
194.6528774429
 20
163.3837478107
 10
193.7857864376
 20
162.6346053596
 10
192.4880930423
 20
162.134044377
 10
190.9573593129
 20
161.9582707349
 10
189.4266255834
 20
162.134044377
 10
188.1289321881
 20
162.6346053596
  0
LWPOLYLINE
  5
28A
330
1F
100
AcDbEntity
  8
0
  6
Continuous
 62
     7
370
     0
100
AcDbPolyline
 90
       17
 70
   128
 43
0.0
 10
178.6183459812
 20
108.0356541307
 10
178.2124489061
 20
108.363206727
 10
177.8683459812
 20
108.8273588147
 10
177.6384237575
 20
109.3574474462
 10
177.5576858094
 20
109.8727714323
 10
177.6384237575
 20
110.2948773678
 10
177.8683459812
 20
110.5595034503
 10
178.2124489061
 20
110.6263627577
 10
178.6183459812
 20
110.4852765663
 10
179.0242430563
 20
110.15772397
 10
179.3683459812
 20
109.6935718822
 10
179.5982682048
 20
109.1634832508
 10
179.679006153
 20
108.6481592646
 10
179.5982682048
 20
108.2260533291
 10
179.3683459812
 20
107.9614272466
 10
179.0242430563
 20
107.8945679393
 10
178.6183459812
 20
108.0356541307
  0
LWPOLYLINE
  5
28B
330
1F
100
AcDbEntity
  8
0
  6
Continuous
 62
     7
370
     0
100
AcDbPolyline
 90
       17
 70
   128
 43
0.0
 10
238.8638437383
 20
142.8146396943
 10
239.2697408134
 20
142.673553503
 10
239.6138437383
 20
142.7404128103
 10
239.8437659619
 20
143.0050388928
 10
239.92450391
 20
143.4271448283
 10
239.8437659619
 20
143.9424688144
 10
239.6138437383
 20
144.4725574459
 10
239.2697408134
 20
144.9367095336
 10
238.8638437383
 20
145.26426213
 10
238.4579466632
 20
145.4053483213
 10
238.1138437383
 20
145.338489014
 10
237.8839215146
 20
145.0738629315
 10
237.8031835665
 20
144.651756996
 10
237.8839215146
 20
144.1364330098
 10
238.1138437383
 20
143.6063443784
 10
238.4579466632
 20
143.1421922906
 10
238.8638437383
 20
142.8146396943
  0
LWPOLYLINE
  5
28C
330
1F
100
AcDbEntity
  8
0
  6
Continuous
 62
     7
370
     0
100
AcDbPolyline
 90
       17
 70
   128
 43
0.0
 10
151.5361562617
 20
123.6698694721
 10
151.1302591866
 20
123.9974220684
 10
150.7861562617
 20
124.4615741561
 10
150.5562340381
 20
124.9916627876
 10
150.47549609
 20
125.5069867738
 10
150.5562340381
 20
125.9290927092
 10
150.7861562617
 20
126.1937187917
 10
151.1302591866
 20
126.2605780991
 10
151.5361562617
 20
126.1194919077
 10
151.9420533368
 20
125.7919393114
 10
152.2861562617
 20
125.3277872236
 10
152.5160784854
 20
124.7976985922
 10
152.5968164335
 20
124.282374606
 10
152.5160784854
 20
123.8602686705
 10
152.2861562617
 20
123.595642588
 10
151.9420533368
 20
123.5287832807
 10
151.5361562617
 20
123.6698694721
  0
LWPOLYLINE
  5
28D
330
1F
100
AcDbEntity
  8
0
  6
Continuous
 62
     7
370
     0
100
AcDbPolyline
 90
       17
 70
   128
 43
0.0
 10
211.7816540188
 20
158.4488550357
 10
212.1875510939
 20
158.3077688444
 10
212.5316540188
 20
158.3746281517
 10
212.7615762425
 20
158.6392542342
 10
212.8423141906
 20
159.0613601697
 10
212.7615762425
 20
159.5766841559
 10
212.5316540188
 20
160.1067727873
 10
212.1875510939
 20
160.570924875
 10
211.7816540188
 20
160.8984774714
 10
211.3757569437
 20
161.0395636627
 10
211.0316540188
 20
160.9727043554
 10
210.8017317952
 20
160.7080782729
 10
210.720993847
 20
160.2859723374
 10
210.8017317952
 20
159.7706483512
 10
211.0316540188
 20
159.2405597198
 10
211.3757569437
 20
158.776407632
 10
211.7816540188
 20
158.4488550357
  0
LWPOLYLINE
  5
28E
330
1F
100
AcDbEntity
  8
0
  6
Continuous
 62
     7
370
     0
100
AcDbPolyline
 90
       17
 70
   128
 43
0.0
 10
165.0772511215
 20
119.5271954548
 10
164.2654569712
 20
120.1823006475
 10
163.5772511215
 20
121.110604823
 10
163.1174066741
 20
122.1707820859
 10
162.9559307779
 20
123.2014300582
 10
163.1174066741
 20
124.0456419292
 10
163.5772511215
 20
124.5748940942
 10
164.2654569712
 20
124.7086127088
 10
165.0772511215
 20
124.4264403262
 10
165.8890452717
 20
123.7713351335
 10
166.5772511215
 20
122.843030958
 10
167.0370955688
 20
121.7828536951
 10
167.198571465
 20
120.7522057228
 10
167.0370955688
 20
119.9079938518
 10
166.5772511215
 20
119.3787416868
 10
165.8890452717
 20
119.2450230721
 10
165.0772511215
 20
119.5271954548
  0
LWPOLYLINE
  5
28F
330
1F
100
AcDbEntity
  8
0
  6
Continuous
 62
     7
370
     0
100
AcDbPolyline
 90
       17
 70
   128
 43
0.0
 10
225.3227488785
 20
154.3061810185
 10
226.1345430288
 20
154.0240086358
 10
226.8227488785
 20
154.1577272504
 10
227.2825933259
 20
154.6869794154
 10
227.4440692221
 20
155.5311912864
 10
227.2825933259
 20
156.5618392588
 10
226.8227488785
 20
157.6220165216
 10
226.1345430288
 20
158.5503206972
 10
225.3227488785
 20
159.2054258898
 10
224.5109547283
 20
159.4875982725
 10
223.8227488785
 20
159.3538796579
 10
223.3629044312
 20
158.8246274929
 10
223.201428535
 20
157.9804156219
 10
223.3629044312
 20
156.9497676495
 10
223.8227488785
 20
155.8895903867
 10
224.5109547283
 20
154.9612862111
 10
225.3227488785
 20
154.3061810185
  0
LWPOLYLINE
  5
290
330
1F
100
AcDbEntity
  8
0
  6
HIDDEN
 62
     7
370
     0
100
AcDbPolyline
 90
       17
 70
   128
 43
0.0
 10
151.5008009227
 20
132.6717641554
 10
151.6622768189
 20
131.8275522844
 10
152.1221212662
 20
131.2983001194
 10
152.810327116
 20
131.1645815048
 10
153.6221212662
 20
131.4467538875
 10
154.4339154165
 20
132.1018590801
 10
155.1221212662
 20
133.0301632556
 10
155.5819657135
 20
134.0903405185
 10
155.7434416098
 20
135.1209884908
 10
155.5819657135
 20
135.9652003618
 10
155.1221212662
 20
136.4944525268
 10
154.4339154165
 20
136.6281711415
 10
153.6221212662
 20
136.3459987588
 10
152.810327116
 20
135.6908935661
 10
152.1221212662
 20
134.7625893906
 10
151.6622768189
 20
133.7024121278
 10
151.5008009227
 20
132.6717641554
  0
LWPOLYLINE
  5
291
330
1F
100
AcDbEntity
  8
0
  6
HIDDEN
 62
     7
370
     0
100
AcDbPolyline
 90
       17
 70
   128
 43
0.0
 10
206.7965512115
 20
164.5933213276
 10
206.6350753152
 20
165.4375331986
 10
206.1752308679
 20
165.9667853636
 10
205.4870250181
 20
166.1005039783
 10
204.6752308679
 20
165.8183315956
 10
203.8634367177
 20
165.1632264029
 10
203.1752308679
 20
164.2349222274
 10
202.7153864206
 20
163.1747449646
 10
202.5539105243
 20
162.1440969922
 10
202.7153864206
 20
161.2998851212
 10
203.1752308679
 20
160.7706329562
 10
203.8634367177
 20
160.6369143416
 10
204.6752308679
 20
160.9190867243
 10
205.4870250181
 20
161.5741919169
 10
206.1752308679
 20
162.5024960924
 10
206.6350753152
 20
163.5626733553
 10
206.7965512115
 20
164.5933213276
  0
LWPOLYLINE
  5
292
330
1F
100
AcDbEntity
  8
0
  6
Continuous
 62
     7
370
     0
100
AcDbPolyline
 90
       17
 70
   128
 43
0.0
 10
187.8460894757
 20
116.5885243525
 10
187.6846135794
 20
115.5578763801
 10
187.2247691321
 20
114.4976991173
 10
186.5365632823
 20
113.5693949417
 10
185.7247691321
 20
112.9142897491
 10
184.9129749819
 20
112.6321173664
 10
184.2247691321
 20
112.765835981
 10
183.7649246848
 20
113.295088146
 10
183.6034487885
 20
114.139300017
 10
183.7649246848
 20
115.1699479894
 10
184.2247691321
 20
116.2301252522
 10
184.9129749819
 20
117.1584294278
 10
185.7247691321
 20
117.8135346204
 10
186.5365632823
 20
118.0957070031
 10
187.2247691321
 20
117.9619883885
 10
187.6846135794
 20
117.4327362234
 10
187.8460894757
 20
116.5885243525
  0
LWPOLYLINE
  5
293
330
1F
100
AcDbEntity
  8
0
  6
Continuous
 62
     7
370
     0
100
AcDbPolyline
 90
       17
 70
   128
 43
0.0
 10
234.6565583902
 20
143.6116328538
 10
234.8180342865
 20
144.6422808262
 10
235.2778787338
 20
145.702458089
 10
235.9660845835
 20
146.6307622646
 10
236.7778787338
 20
147.2858674572
 10
237.589672884
 20
147.5680398399
 10
238.2778787338
 20
147.4343212253
 10
238.7377231811
 20
146.9050690602
 10
238.8991990773
 20
146.0608571893
 10
238.7377231811
 20
145.0302092169
 10
238.2778787338
 20
143.9700319541
 10
237.589672884
 20
143.0417277785
 10
236.7778787338
 20
142.3866225859
 10
235.9660845835
 20
142.1044502032
 10
235.2778787338
 20
142.2381688178
 10
234.8180342865
 20
142.7674209828
 10
234.6565583902
 20
143.6116328538
  0
LWPOLYLINE
  5
294
330
1F
100
AcDbEntity
  8
0
  6
HIDDEN
 62
     7
370
     0
100
AcDbPolyline
 90
       17
 70
   128
 43
0.0
 10
238.8638437383
 20
145.2646704004
 10
238.4578113641
 20
145.4058036204
 10
238.1135937383
 20
145.3389220267
 10
237.8835948739
 20
145.0742077355
 10
237.8028300131
 20
144.651961098
 10
237.8835948739
 20
144.1364653372
 10
238.1135937383
 20
143.6062000095
 10
238.4578113641
 20
143.1418932044
 10
238.8638437383
 20
142.8142314239
 10
239.2698761124
 20
142.6730982038
 10
239.6140937383
 20
142.7399797976
 10
239.8440926027
 20
143.0046940888
 10
239.9248574634
 20
143.4269407262
 10
239.8440926027
 20
143.9424364871
 10
239.6140937383
 20
144.4727018147
 10
239.2698761124
 20
144.9370086198
 10
238.8638437383
 20
145.2646704004
  0
LWPOLYLINE
  5
295
330
1F
100
AcDbEntity
  8
0
  6
HIDDEN
 62
     7
370
     0
100
AcDbPolyline
 90
       17
 70
   128
 43
0.0
 10
211.7816540188
 20
160.8988857418
 10
211.3756216447
 20
161.0400189618
 10
211.0314040188
 20
160.9731373681
 10
210.8014051544
 20
160.7084230769
 10
210.7206402937
 20
160.2861764394
 10
210.8014051544
 20
159.7706806786
 10
211.0314040188
 20
159.240415351
 10
211.3756216447
 20
158.7761085458
 10
211.7816540188
 20
158.4484467653
 10
212.187686393
 20
158.3073135452
 10
212.5319040188
 20
158.374195139
 10
212.7619028832
 20
158.6389094302
 10
212.842667744
 20
159.0611560676
 10
212.7619028832
 20
159.5766518285
 10
212.5319040188
 20
160.1069171561
 10
212.187686393
 20
160.5712239612
 10
211.7816540188
 20
160.8988857418
  0
LWPOLYLINE
  5
296
330
1F
100
AcDbEntity
  8
0
  6
Continuous
 62
     7
370
     0
100
AcDbPolyline
 90
       17
 70
   128
 43
0.0
 10
238.8991990773
 20
146.0608571893
 10
238.7377231811
 20
145.0302092169
 10
238.2778787338
 20
143.9700319541
 10
237.589672884
 20
143.0417277785
 10
236.7778787338
 20
142.3866225859
 10
235.9660845835
 20
142.1044502032
 10
235.2778787338
 20
142.2381688178
 10
234.8180342865
 20
142.7674209828
 10
234.6565583902
 20
143.6116328538
 10
234.8180342865
 20
144.6422808262
 10
235.2778787338
 20
145.702458089
 10
235.9660845835
 20
146.6307622646
 10
236.7778787338
 20
147.2858674572
 10
237.589672884
 20
147.5680398399
 10
238.2778787338
 20
147.4343212253
 10
238.7377231811
 20
146.9050690602
 10
238.8991990773
 20
146.0608571893
  0
LWPOLYLINE
  5
297
330
1F
100
AcDbEntity
  8
0
  6
HIDDEN
 62
     7
370
     0
100
AcDbPolyline
 90
       17
 70
   128
 43
0.0
 10
225.3227488785
 20
159.2054258898
 10
224.5109547283
 20
159.4875982725
 10
223.8227488785
 20
159.3538796579
 10
223.3629044312
 20
158.8246274929
 10
223.201428535
 20
157.9804156219
 10
223.3629044312
 20
156.9497676495
 10
223.8227488785
 20
155.8895903867
 10
224.5109547283
 20
154.9612862111
 10
225.3227488785
 20
154.3061810185
 10
226.1345430288
 20
154.0240086358
 10
226.8227488785
 20
154.1577272504
 10
227.2825933259
 20
154.6869794154
 10
227.4440692221
 20
155.5311912864
 10
227.2825933259
 20
156.5618392588
 10
226.8227488785
 20
157.6220165216
 10
226.1345430288
 20
158.5503206972
 10
225.3227488785
 20
159.2054258898
  0
LWPOLYLINE
  5
298
330
1F
100
AcDbEntity
  8
0
  6
HIDDEN
 62
     7
370
     0
100
AcDbPolyline
 90
       17
 70
   128
 43
0.0
 10
202.5539105243
 20
162.1440969922
 10
202.7153864206
 20
161.2998851212
 10
203.1752308679
 20
160.7706329562
 10
203.8634367177
 20
160.6369143416
 10
204.6752308679
 20
160.9190867243
 10
205.4870250181
 20
161.5741919169
 10
206.1752308679
 20
162.5024960924
 10
206.6350753152
 20
163.5626733553
 10
206.7965512115
 20
164.5933213276
 10
206.6350753152
 20
165.4375331986
 10
206.1752308679
 20
165.9667853636
 10
205.4870250181
 20
166.1005039783
 10
204.6752308679
 20
165.8183315956
 10
203.8634367177
 20
165.1632264029
 10
203.1752308679
 20
164.2349222274
 10
202.7153864206
 20
163.1747449645
 10
202.5539105243
 20
162.1440969922
  0
ENDSEC
  0
SECTION
  2
OBJECTS
  0
DICTIONARY
  5
C
330
0
100
AcDbDictionary
281
     1
  3
ACAD_GROUP
350
D
  3
ACAD_LAYOUT
350
1A
  3
ACAD_MLINESTYLE
350
17
  3
ACAD_PLOTSETTINGS
350
19
  3
ACAD_PLOTSTYLENAME
350
E
  0
DICTIONARY
  5
D
102
{ACAD_REACTORS
330
C
102
}
330
C
100
AcDbDictionary
281
     1
  0
DICTIONARY
  5
1A
102
{ACAD_REACTORS
330
C
102
}
330
C
100
AcDbDictionary
281
     1
  3
Layout1
350
1E
  3
Layout2
350
26
  3
Model
350
22
  0
DICTIONARY
  5
17
102
{ACAD_REACTORS
330
C
102
}
330
C
100
AcDbDictionary
281
     1
  3
Standard
350
18
  0
DICTIONARY
  5
19
102
{ACAD_REACTORS
330
C
102
}
330
C
100
AcDbDictionary
281
     1
  0
ACDBDICTIONARYWDFLT
  5
E
102
{ACAD_REACTORS
330
C
102
}
330
C
100
AcDbDictionary
281
     1
  3
Normal
350
F
100
AcDbDictionaryWithDefault
340
F
  0
LAYOUT
  5
1E
102
{ACAD_REACTORS
330
1A
102
}
330
1A
100
AcDbPlotSettings
  1

  2

  4

  6

 40
0.0
 41
0.0
 42
0.0
 43
0.0
 44
0.0
 45
0.0
 46
0.0
 47
0.0
 48
0.0
 49
0.0
140
0.0
141
0.0
142
1.0
143
1.0
 70
   688
 72
     0
 73
     0
 74
     5
  7

 75
    16
147
1.0
148
0.0
149
0.0
100
AcDbLayout
  1
Layout1
 70
     1
 71
     1
 10
0.0
 20
0.0
 11
420.0
 21
297.0
 12
0.0
 22
0.0
 32
0.0
 14
1.0000000000E+20
 24
1.0000000000E+20
 34
1.0000000000E+20
 15
-1.0000000000E+20
 25
-1.0000000000E+20
 35
-1.0000000000E+20
146
0.0
 13
0.0
 23
0.0
 33
0.0
 16
1.0
 26
0.0
 36
0.0
 17
0.0
 27
1.0
 37
0.0
 76
     0
330
1B
  0
LAYOUT
  5
26
102
{ACAD_REACTORS
330
1A
102
}
330
1A
100
AcDbPlotSettings
  1

  2

  4

  6

 40
0.0
 41
0.0
 42
0.0
 43
0.0
 44
0.0
 45
0.0
 46
0.0
 47
0.0
 48
0.0
 49
0.0
140
0.0
141
0.0
142
1.0
143
1.0
 70
   688
 72
     0
 73
     0
 74
     5
  7

 75
    16
147
1.0
148
0.0
149
0.0
100
AcDbLayout
  1
Layout2
 70
     1
 71
     2
 10
0.0
 20
0.0
 11
0.0
 21
0.0
 12
0.0
 22
0.0
 32
0.0
 14
0.0
 24
0.0
 34
0.0
 15
0.0
 25
0.0
 35
0.0
146
0.0
 13
0.0
 23
0.0
 33
0.0
 16
1.0
 26
0.0
 36
0.0
 17
0.0
 27
1.0
 37
0.0
 76
     0
330
23
  0
LAYOUT
  5
22
102
{ACAD_REACTORS
330
1A
102
}
330
1A
100
AcDbPlotSettings
  1

  2

  4

  6

 40
0.0
 41
0.0
 42
0.0
 43
0.0
 44
0.0
 45
0.0
 46
0.0
 47
0.0
 48
0.0
 49
0.0
140
0.0
141
0.0
142
1.0
143
1.0
 70
  1712
 72
     0
 73
     0
 74
     0
  7

 75
     0
147
1.0
148
0.0
149
0.0
100
AcDbLayout
  1
Model
 70
     1
 71
     0
 10
0.0
 20
0.0
 11
0.0
 21
0.0
 12
0.0
 22
0.0
 32
0.0
 14
0.0
 24
0.0
 34
0.0
 15
297.0
 25
210.0
 35
0.0
146
0.0
 13
0.0
 23
0.0
 33
0.0
 16
1.0
 26
0.0
 36
0.0
 17
0.0
 27
1.0
 37
0.0
 76
     0
330
1F
  0
MLINESTYLE
  5
18
102
{ACAD_REACTORS
330
17
102
}
330
17
100
AcDbMlineStyle
  2
Standard
 70
     0
  3

 62
   256
 51
90.0
 52
90.0
 71
     2
 49
0.5
 62
   256
  6
BYLAYER
 49
-0.5
 62
   256
  6
BYLAYER
  0
ACDBPLACEHOLDER
  5
F
102
{ACAD_REACTORS
330
E
102
}
330
E
  0
ENDSEC
  0
EOF
